  0
SECTION
  2
HEADER
  9
$ACADVER
  1
AC1009
  9
$INSBASE
 10
0.0
 20
0.0
 30
0.0
  9
$EXTMIN
 10
-120.12724859189071
 20
99.490973851050512
 30
-0.0015258207003583
  9
$EXTMAX
 10
1965.0000072817779
 20
1470.2200369190191
 30
0.0000000349246037
  9
$LIMMIN
 10
0.0
 20
0.0
  9
$LIMMAX
 10
12.0
 20
9.0
  9
$ORTHOMODE
 70
     0
  9
$REGENMODE
 70
     1
  9
$FILLMODE
 70
     1
  9
$QTEXTMODE
 70
     0
  9
$MIRRTEXT
 70
     0
  9
$DRAGMODE
 70
     2
  9
$LTSCALE
 40
150.0
  9
$OSMODE
 70
    37
  9
$ATTMODE
 70
     1
  9
$TEXTSIZE
 40
1.0
  9
$TRACEWID
 40
0.05
  9
$TEXTSTYLE
  7
STANDARD
  9
$CLAYER
  8
0
  9
$CELTYPE
  6
CONTINUOUS
  9
$CECOLOR
 62
   256
  9
$DIMSCALE
 40
1.0
  9
$DIMASZ
 40
0.18
  9
$DIMEXO
 40
0.0625
  9
$DIMDLI
 40
0.38
  9
$DIMRND
 40
0.0
  9
$DIMDLE
 40
0.0
  9
$DIMEXE
 40
0.18
  9
$DIMTP
 40
0.0
  9
$DIMTM
 40
0.0
  9
$DIMTXT
 40
0.18
  9
$DIMCEN
 40
0.09
  9
$DIMTSZ
 40
0.0
  9
$DIMTOL
 70
     0
  9
$DIMLIM
 70
     0
  9
$DIMTIH
 70
     1
  9
$DIMTOH
 70
     1
  9
$DIMSE1
 70
     0
  9
$DIMSE2
 70
     0
  9
$DIMTAD
 70
     0
  9
$DIMZIN
 70
     0
  9
$DIMBLK
  1

  9
$DIMASO
 70
     1
  9
$DIMSHO
 70
     1
  9
$DIMPOST
  1

  9
$DIMAPOST
  1

  9
$DIMALT
 70
     0
  9
$DIMALTD
 70
     2
  9
$DIMALTF
 40
25.399999999999999
  9
$DIMLFAC
 40
1.0
  9
$DIMTOFL
 70
     0
  9
$DIMTVP
 40
0.0
  9
$DIMTIX
 70
     0
  9
$DIMSOXD
 70
     0
  9
$DIMSAH
 70
     0
  9
$DIMBLK1
  1

  9
$DIMBLK2
  1

  9
$DIMSTYLE
  2
STANDARD
  9
$DIMCLRD
 70
     0
  9
$DIMCLRE
 70
     0
  9
$DIMCLRT
 70
     0
  9
$DIMTFAC
 40
1.0
  9
$DIMGAP
 40
0.09
  9
$LUNITS
 70
     2
  9
$LUPREC
 70
     4
  9
$SKETCHINC
 40
0.1
  9
$FILLETRAD
 40
0.0
  9
$AUNITS
 70
     0
  9
$AUPREC
 70
     0
  9
$MENU
  1
.
  9
$ELEVATION
 40
0.0
  9
$PELEVATION
 40
0.0
  9
$THICKNESS
 40
0.0
  9
$LIMCHECK
 70
     0
  9
$BLIPMODE
 70
     0
  9
$CHAMFERA
 40
0.0
  9
$CHAMFERB
 40
0.0
  9
$SKPOLY
 70
     0
  9
$TDCREATE
 40
2454866.4593093521
  9
$TDUPDATE
 40
2454866.4726135652
  9
$TDINDWG
 40
0.0133112731
  9
$TDUSRTIMER
 40
0.0133112731
  9
$USRTIMER
 70
     1
  9
$ANGBASE
 50
0.0
  9
$ANGDIR
 70
     0
  9
$PDMODE
 70
     0
  9
$PDSIZE
 40
0.0
  9
$PLINEWID
 40
0.0
  9
$COORDS
 70
     2
  9
$SPLFRAME
 70
     0
  9
$SPLINETYPE
 70
     6
  9
$SPLINESEGS
 70
     8
  9
$ATTDIA
 70
     0
  9
$ATTREQ
 70
     1
  9
$HANDLING
 70
     1
  9
$HANDSEED
  5
4B4
  9
$SURFTAB1
 70
     6
  9
$SURFTAB2
 70
     6
  9
$SURFTYPE
 70
     6
  9
$SURFU
 70
     6
  9
$SURFV
 70
     6
  9
$UCSNAME
  2

  9
$UCSORG
 10
0.0
 20
0.0
 30
0.0
  9
$UCSXDIR
 10
1.0
 20
0.0
 30
0.0
  9
$UCSYDIR
 10
0.0
 20
1.0
 30
0.0
  9
$PUCSNAME
  2

  9
$PUCSORG
 10
0.0
 20
0.0
 30
0.0
  9
$PUCSXDIR
 10
1.0
 20
0.0
 30
0.0
  9
$PUCSYDIR
 10
0.0
 20
1.0
 30
0.0
  9
$USERI1
 70
     0
  9
$USERI2
 70
     0
  9
$USERI3
 70
     0
  9
$USERI4
 70
     0
  9
$USERI5
 70
     0
  9
$USERR1
 40
0.0
  9
$USERR2
 40
0.0
  9
$USERR3
 40
0.0
  9
$USERR4
 40
0.0
  9
$USERR5
 40
0.0
  9
$WORLDVIEW
 70
     1
  9
$SHADEDGE
 70
     3
  9
$SHADEDIF
 70
    70
  9
$TILEMODE
 70
     1
  9
$MAXACTVP
 70
    64
  9
$PLIMCHECK
 70
     0
  9
$PEXTMIN
 10
1.0000000000000000E+020
 20
1.0000000000000000E+020
 30
1.0000000000000000E+020
  9
$PEXTMAX
 10
-1.0000000000000000E+020
 20
-1.0000000000000000E+020
 30
-1.0000000000000000E+020
  9
$PLIMMIN
 10
0.0
 20
0.0
  9
$PLIMMAX
 10
12.0
 20
9.0
  9
$UNITMODE
 70
     0
  9
$VISRETAIN
 70
     1
  9
$PLINEGEN
 70
     0
  9
$PSLTSCALE
 70
     1
  0
ENDSEC
  0
SECTION
  2
TABLES
  0
TABLE
  2
VPORT
 70
     6
  0
VPORT
  2
*ACTIVE
 70
     0
 10
0.0
 20
0.0
 11
1.0
 21
1.0
 12
922.43637934494393
 22
784.85550538503446
 13
0.0
 23
0.0
 14
1.0
 24
1.0
 15
0.0
 25
0.0
 16
0.0
 26
0.0
 36
1.0
 17
0.0
 27
0.0
 37
0.0
 40
1385.1073399532961
 41
1.8458844133099821
 42
50.0
 43
0.0
 44
0.0
 50
0.0
 51
0.0
 71
     0
 72
   100
 73
     1
 74
     1
 75
     0
 76
     0
 77
     0
 78
     0
  0
ENDTAB
  0
TABLE
  2
LTYPE
 70
     6
  0
LTYPE
  2
CONTINUOUS
 70
     0
  3
Solid line
 72
    65
 73
     0
 40
0.0
  0
LTYPE
  2
DASHED
 70
     0
  3
__ __ __ __ __ __ __ __ __ __ __ __ __ __ __
 72
    65
 73
     2
 40
0.75
 49
0.5
 49
-0.25
  0
LTYPE
  2
HIDDEN
 70
     0
  3
_ _ _ _ _ _ _ _ _ _ _ _ _ _ _ _ _ _ _ _ _ _ _
 72
    65
 73
     2
 40
0.375
 49
0.25
 49
-0.125
  0
LTYPE
  2
DOT
 70
     0
  3
...............................................
 72
    65
 73
     2
 40
0.25
 49
0.0
 49
-0.25
  0
LTYPE
  2
DASHDOT
 70
     0
  3
__ . __ . __ . __ . __ . __ . __ . __ . __ . __
 72
    65
 73
     4
 40
1.0
 49
0.5
 49
-0.25
 49
0.0
 49
-0.25
  0
LTYPE
  2
DIVIDE
 70
     0
  3
__ . . __ . . __ . . __ . . __ . . __ . . __
 72
    65
 73
     6
 40
1.25
 49
0.5
 49
-0.25
 49
0.0
 49
-0.25
 49
0.0
 49
-0.25
  0
ENDTAB
  0
TABLE
  2
LAYER
 70
     5
  0
LAYER
  2
0
 70
     0
 62
     7
  6
CONTINUOUS
  0
LAYER
  2
1
 70
     0
 62
     7
  6
CONTINUOUS
  0
LAYER
  2
17
 70
     0
 62
     7
  6
CONTINUOUS
  0
LAYER
  2
33
 70
     0
 62
     7
  6
CONTINUOUS
  0
LAYER
  2
一般
 70
     0
 62
     7
  6
CONTINUOUS
  0
ENDTAB
  0
TABLE
  2
STYLE
 70
     4
  0
STYLE
  2
STANDARD
 70
     0
 40
1.0
 41
1.0
 50
0.0
 71
     0
 42
1.0
  3
TXT
  4

  0
STYLE
  2
BIGFONT
 70
     0
 40
1.0
 41
1.0
 50
0.0
 71
     0
 42
1.0
  3
TXT
  4
BIGFONT
  0
STYLE
  2
ARIAL
 70
     0
 40
0.0
 41
1.0
 50
0.0
 71
     0
 42
0.0
  3
txt
  4

  0
STYLE
  2
ＭＳ_ゴシック
 70
     0
 40
0.0
 41
1.0
 50
0.0
 71
     0
 42
0.0
  3
txt
  4

  0
ENDTAB
  0
TABLE
  2
VIEW
 70
     0
  0
ENDTAB
  0
TABLE
  2
UCS
 70
     0
  0
ENDTAB
  0
TABLE
  2
APPID
 70
     1
  0
APPID
  2
ACAD
 70
     0
  0
ENDTAB
  0
TABLE
  2
DIMSTYLE
 70
     1
  0
DIMSTYLE
  2
STANDARD
 70
     0
  3

  4

  5

  6

  7

 40
1.0
 41
0.18
 42
0.0625
 43
0.38
 44
0.18
 45
0.0
 46
0.0
 47
0.0
 48
0.0
140
0.18
141
0.09
142
0.0
143
25.399999999999999
144
1.0
145
0.0
146
1.0
147
0.09
 71
     0
 72
     0
 73
     1
 74
     1
 75
     0
 76
     0
 77
     0
 78
     0
170
     0
171
     2
172
     0
173
     0
174
     0
175
     0
176
     0
177
     0
178
     0
  0
ENDTAB
  0
ENDSEC
  0
SECTION
  2
BLOCKS
  0
BLOCK
  8
0
  2
$MODEL_SPACE
 70
     0
 10
0.0
 20
0.0
 30
0.0
  3
$MODEL_SPACE
  1

  0
ENDBLK
  5
22
  8
0
  0
BLOCK
 67
     1
  8
0
  2
$PAPER_SPACE
 70
     0
 10
0.0
 20
0.0
 30
0.0
  3
$PAPER_SPACE
  1

  0
ENDBLK
  5
1E
 67
     1
  8
0
  0
BLOCK
  8
0
  2
A$C201E22AA
 70
     0
 10
0.0
 20
0.0
 30
0.0
  3
A$C201E22AA
  1

  0
INSERT
  5
3EE
  8
0
  6
CONTINUOUS
  2
*U1
 10
0.0
 20
0.0
 30
0.0
  0
INSERT
  5
3EF
  8
0
  6
CONTINUOUS
  2
*U2
 10
0.0
 20
0.0
 30
0.0
  0
INSERT
  5
3F0
  8
0
  6
CONTINUOUS
  2
*U3
 10
0.0
 20
0.0
 30
0.0
  0
INSERT
  5
3F1
  8
0
  6
CONTINUOUS
  2
*U4
 10
0.0
 20
0.0
 30
0.0
  0
INSERT
  5
3F2
  8
0
  6
CONTINUOUS
  2
*U5
 10
0.0
 20
0.0
 30
0.0
  0
LINE
  5
3F3
  8
一般
 62
     0
 10
2059.9999967301319
 20
3.601470361938822
 30
0.0
 11
2059.9999967301319
 21
198.60147036193871
 31
0.0
  0
LINE
  5
3F4
  8
一般
 62
     0
 10
2059.9999967301319
 20
68.601470361938709
 30
0.0
 11
2779.9999967301319
 21
68.601470361938709
 31
0.0
  0
LINE
  5
3F5
  8
一般
 62
     0
 10
2779.9999967301319
 20
133.60147036193871
 30
0.0
 11
2779.9999967301319
 21
198.60147036193871
 31
0.0
  0
LINE
  5
3F6
  8
一般
 62
     0
 10
2779.9999967301319
 20
3.601470361938822
 30
0.0
 11
2779.9999967301319
 21
68.601470361938709
 31
0.0
  0
LINE
  5
3F7
  8
一般
 62
     0
 10
2059.9999967301319
 20
198.60147036193871
 30
0.0
 11
2779.9999967301319
 21
198.60147036193871
 31
0.0
  0
LINE
  5
3F8
  8
一般
 62
     0
 10
2059.9999967301319
 20
133.60147036193871
 30
0.0
 11
2779.9999967301319
 21
133.60147036193871
 31
0.0
  0
LINE
  5
3F9
  8
一般
 62
     0
 10
2179.9999967301319
 20
68.601470361938709
 30
0.0
 11
2779.9999967301319
 21
68.601470361938709
 31
0.0
  0
LINE
  5
3FA
  8
一般
 62
     0
 10
2179.9999967301319
 20
68.601470361938709
 30
0.0
 11
2179.9999967301319
 21
198.60147036193871
 31
0.0
  0
LINE
  5
3FB
  8
一般
 10
2779.9999967301319
 20
1923.6014703619389
 30
0.0
 11
-0.0000032698676478
 21
1923.6014703619389
 31
0.0
  0
LINE
  5
3FC
  8
一般
 10
-0.0000032698676478
 20
1923.6014703619389
 30
0.0
 11
-0.0000032698676478
 21
3.601470361938822
 31
0.0
  0
LINE
  5
3FD
  8
一般
 10
-0.0000032698676478
 20
3.601470361938822
 30
0.0
 11
2779.9999967301319
 21
3.601470361938822
 31
0.0
  0
ENDBLK
  5
3FF
  8
0
  0
BLOCK
  8
0
  2
*U1
 70
     1
 10
0.0
 20
0.0
 30
0.0
  3
*U1
  1

  0
TEXT
  5
489
  8
一般
  6
CONTINUOUS
 62
     0
 10
2365.6412727110178
 20
146.9803766119382
 30
0.0
 40
32.576822916666671
  1
750
  7
ＭＳ_ゴシック
  0
TEXT
  5
48A
  8
一般
  6
CONTINUOUS
 62
     0
 10
2429.1412727110178
 20
146.9803766119382
 30
0.0
 40
30.315991406249999
  1
G
  7
ＭＳ_ゴシック
  0
TEXT
  5
48B
  8
一般
  6
CONTINUOUS
 62
     0
 10
2462.083547138137
 20
146.9803766119382
 30
0.0
 40
32.576822916666671
  1
ボｰル
  7
ＭＳ_ゴシック
  0
ENDBLK
  5
48D
  8
0
  0
BLOCK
  8
0
  2
*U2
 70
     1
 10
0.0
 20
0.0
 30
0.0
  3
*U2
  1

  0
TEXT
  5
48F
  8
一般
  6
CONTINUOUS
 62
     0
 10
2075.2124849825759
 20
79.567381820271976
 30
0.0
 40
35.291558159722229
  1
尺度
  7
ＭＳ_ゴシック
  0
ENDBLK
  5
491
  8
0
  0
BLOCK
  8
0
  2
*U3
 70
     1
 10
0.0
 20
0.0
 30
0.0
  3
*U3
  1

  0
TEXT
  5
493
  8
一般
  6
CONTINUOUS
 62
     0
 10
2072.6417067995758
 20
148.0860450147164
 30
0.0
 40
35.291558159722229
  1
品番
  7
ＭＳ_ゴシック
  0
ENDBLK
  5
495
  8
0
  0
BLOCK
  8
0
  2
*U4
 70
     1
 10
0.0
 20
0.0
 30
0.0
  3
*U4
  1

  0
TEXT
  5
497
  8
一般
  6
CONTINUOUS
 62
     0
 10
2178.690499101001
 20
13.54830448556201
 30
0.0
 40
35.369646990740762
  1
e-KITCHEN 
  7
ARIAL
  0
TEXT
  5
498
  8
一般
  6
CONTINUOUS
 62
     0
 10
2453.2274793927058
 20
13.54830448556201
 30
0.0
 40
12.630500940393519
  1
U-ARCHITECTURE WORKS
  7
ARIAL
  0
ENDBLK
  5
49A
  8
0
  0
BLOCK
  8
0
  2
*U5
 70
     1
 10
0.0
 20
0.0
 30
0.0
  3
*U5
  1

  0
TEXT
  5
49C
  8
一般
  6
CONTINUOUS
 62
     0
 10
2412.6960367340348
 20
79.4867495497557
 30
0.0
 40
35.0
  1
1：10
  7
ＭＳ_ゴシック
  0
ENDBLK
  5
49E
  8
0
  0
BLOCK
  8
0
  2
*U6
 70
     1
 10
0.0
 20
0.0
 30
0.0
  3
*U6
  1

  0
TEXT
  5
4A0
  8
一般
  6
CONTINUOUS
 62
     7
 10
1713.9612630208339
 20
207.59619140624949
 30
0.0
 40
24.4326171875
  1
SA
  7
ＭＳ_ゴシック
  0
ENDBLK
  5
4A2
  8
0
  0
BLOCK
  8
0
  2
*U7
 70
     1
 10
0.0
 20
0.0
 30
0.0
  3
*U7
  1

  0
TEXT
  5
4A4
  8
一般
  6
CONTINUOUS
 62
     7
 10
1436.409366189333
 20
156.97443359374981
 30
0.0
 40
26.468668619791671
  1
尺度
  7
ＭＳ_ゴシック
  0
ENDBLK
  5
4A6
  8
0
  0
BLOCK
  8
0
  2
*U8
 70
     1
 10
0.0
 20
0.0
 30
0.0
  3
*U8
  1

  0
TEXT
  5
4A8
  8
一般
  6
CONTINUOUS
 62
     7
 10
1434.4812825520839
 20
208.36343098958321
 30
0.0
 40
26.468668619791671
  1
品番
  7
ＭＳ_ゴシック
  0
ENDBLK
  5
4AA
  8
0
  0
BLOCK
  8
0
  2
*U9
 70
     1
 10
0.0
 20
0.0
 30
0.0
  3
*U9
  1

  0
TEXT
  5
4AC
  8
一般
  6
CONTINUOUS
 62
     7
 10
1514.017876778152
 20
107.4601255927173
 30
0.0
 40
26.527235243055561
  1
e-KITCHEN 
  7
ARIAL
  0
TEXT
  5
4AD
  8
一般
  6
CONTINUOUS
 62
     7
 10
1719.920611996931
 20
107.4601255927173
 30
0.0
 40
9.4728757052951398
  1
U-ARCHITECTURE WORKS
  7
ARIAL
  0
ENDBLK
  5
4AF
  8
0
  0
BLOCK
  8
0
  2
*U10
 70
     1
 10
0.0
 20
0.0
 30
0.0
  3
*U10
  1

  0
TEXT
  5
4B1
  8
一般
  6
CONTINUOUS
 62
     7
 10
1689.5220300029289
 20
156.9139593908626
 30
0.0
 40
26.25
  1
1：10
  7
ＭＳ_ゴシック
  0
ENDBLK
  5
4B3
  8
0
  0
ENDSEC
  0
SECTION
  2
ENTITIES
  0
LINE
  5
33
  8
1
  6
CONTINUOUS
 62
     7
 10
1965.0
 20
100.0
 30
0.0
 11
1965.0
 21
1470.0
 31
0.0
  0
LINE
  5
6D
  8
33
  6
CONTINUOUS
 62
     7
 10
1691.870535714286
 20
1302.7098214285711
 30
0.0
 11
807.87053571428601
 21
1302.7098214285711
 31
0.0
  0
LINE
  5
6E
  8
33
  6
CONTINUOUS
 62
     7
 10
710.87053571428589
 20
1205.7098214285711
 30
0.0
 11
710.87053571428589
 21
876.20982142857144
 31
0.0
  0
LINE
  5
6F
  8
33
  6
CONTINUOUS
 62
     7
 10
807.87053571428601
 20
779.20982142857144
 30
0.0
 11
1691.870535714286
 21
779.20982142857144
 31
0.0
  0
LINE
  5
70
  8
33
  6
CONTINUOUS
 62
     7
 10
1788.870535714286
 20
876.20982142857144
 30
0.0
 11
1788.870535714286
 21
1205.7098214285711
 31
0.0
  0
LINE
  5
71
  8
33
  6
CONTINUOUS
 62
     7
 10
1317.870535714286
 20
794.20982142857144
 30
0.0
 11
807.87053571428601
 21
794.20982142857144
 31
0.0
  0
LINE
  5
72
  8
33
  6
CONTINUOUS
 62
     7
 10
725.87053571428601
 20
876.20982142857144
 30
0.0
 11
725.87053571428601
 21
1208.2098214285711
 31
0.0
  0
LINE
  5
73
  8
33
  6
CONTINUOUS
 62
     7
 10
807.87053571428601
 20
1290.2098214285711
 30
0.0
 11
1057.9811333155469
 21
1290.2098214285711
 31
0.0
  0
LINE
  5
74
  8
33
  6
CONTINUOUS
 62
     7
 10
1773.870535714286
 20
1114.2098214285711
 30
0.0
 11
1773.870535714286
 21
876.20982142857144
 31
0.0
  0
LINE
  5
75
  8
33
  6
DASHDOT
 62
     7
 10
1250.870535714286
 20
759.20982142857144
 30
0.0
 11
1250.870535714286
 21
1322.2098214285711
 31
0.0
  0
LINE
  5
76
  8
33
  6
DASHDOT
 62
     7
 10
690.87053571428601
 20
1042.2098214285711
 30
0.0
 11
1808.870535714286
 21
1042.2098214285711
 31
0.0
  0
LINE
  5
77
  8
33
  6
CONTINUOUS
 62
     7
 10
1745.870535714286
 20
1244.2098214285711
 30
0.0
 11
1745.870535714286
 21
1242.2098214285711
 31
0.0
  0
LINE
  5
78
  8
33
  6
CONTINUOUS
 62
     7
 10
1705.870535714286
 20
1284.2098214285711
 30
0.0
 11
1545.870535714286
 21
1284.2098214285711
 31
0.0
  0
LINE
  5
79
  8
33
  6
CONTINUOUS
 62
     7
 10
1505.870535714286
 20
1244.2098214285711
 30
0.0
 11
1505.870535714286
 21
1242.2098214285711
 31
0.0
  0
ARC
  5
7A
  8
33
  6
CONTINUOUS
 62
     7
 10
807.87053571428601
 20
1205.7098214285711
 30
0.0
 40
97.0
 50
90.0
 51
180.0
  0
ARC
  5
7B
  8
33
  6
CONTINUOUS
 62
     7
 10
807.87053571428601
 20
876.20982142857144
 30
0.0
 40
97.0
 50
180.0
 51
270.0
  0
ARC
  5
7C
  8
33
  6
CONTINUOUS
 62
     7
 10
1691.870535714286
 20
876.20982142857144
 30
0.0
 40
97.0
 50
270.0
 51
0.0
  0
ARC
  5
7D
  8
33
  6
CONTINUOUS
 62
     7
 10
1691.870535714286
 20
1205.7098214285711
 30
0.0
 40
97.0
 50
0.0
 51
90.0
  0
ARC
  5
7E
  8
33
  6
CONTINUOUS
 62
     7
 10
807.87053571428601
 20
1208.2098214285711
 30
0.0
 40
82.0
 50
90.0
 51
180.0
  0
ARC
  5
7F
  8
33
  6
CONTINUOUS
 62
     7
 10
807.87053571428601
 20
876.20982142857144
 30
0.0
 40
82.0
 50
180.0
 51
270.0
  0
ARC
  5
80
  8
33
  6
CONTINUOUS
 62
     7
 10
1691.870535714286
 20
1208.2098214285711
 30
0.0
 40
82.0
 50
0.0
 51
90.0
  0
ARC
  5
81
  8
33
  6
CONTINUOUS
 62
     7
 10
1691.870535714286
 20
876.20982142857144
 30
0.0
 40
82.0
 50
270.0
 51
0.0
  0
LINE
  5
82
  8
33
  6
CONTINUOUS
 62
     7
 10
1443.759938113024
 20
1290.2098214285711
 30
0.0
 11
1691.870535714286
 21
1290.2098214285711
 31
0.0
  0
LINE
  5
83
  8
33
  6
CONTINUOUS
 62
     7
 10
1198.049698094035
 20
1196.2098214285711
 30
0.0
 11
1303.6913733345359
 21
1196.2098214285711
 31
0.0
  0
LINE
  5
84
  8
33
  6
CONTINUOUS
 62
     7
 10
1340.245264039936
 20
1213.1001272112101
 30
0.0
 11
1381.3137081579659
 21
1261.3555490498959
 31
0.0
  0
ARC
  5
85
  8
33
  6
CONTINUOUS
 62
     7
 10
1443.759938113024
 20
1208.2098214285711
 30
0.0
 40
82.0
 50
90.0
 51
139.600095666263
  0
ARC
  5
86
  8
33
  6
CONTINUOUS
 62
     7
 10
1057.9811333155469
 20
1208.2098214285711
 30
0.0
 40
82.0
 50
40.399904333736998
 51
90.0
  0
LINE
  5
87
  8
33
  6
CONTINUOUS
 62
     7
 10
1120.427363270604
 20
1261.3555490498959
 30
0.0
 11
1161.495807388636
 21
1213.1001272112101
 31
0.0
  0
ARC
  5
88
  8
33
  6
CONTINUOUS
 62
     7
 10
1198.049698094035
 20
1244.2098214285711
 30
0.0
 40
48.0
 50
220.399904333737
 51
270.0
  0
ARC
  5
89
  8
33
  6
CONTINUOUS
 62
     7
 10
1303.6913733345359
 20
1244.2098214285711
 30
0.0
 40
48.0
 50
270.0
 51
319.60009566626297
  0
LINE
  5
8A
  8
33
  6
CONTINUOUS
 62
     7
 10
1691.870535714286
 20
1196.2098214285711
 30
0.0
 11
1565.685148278061
 21
1196.2098214285711
 31
0.0
  0
LINE
  5
8B
  8
33
  6
CONTINUOUS
 62
     7
 10
1472.8660714285711
 20
1290.2098214285711
 30
0.0
 11
1053.0
 21
1290.2098214285711
 31
0.0
  0
LINE
  5
8C
  8
33
  6
CONTINUOUS
 62
     7
 10
1387.8705357142851
 20
876.20982142857144
 30
0.0
 11
1387.8705357142851
 21
1114.2098214285711
 31
0.0
  0
LINE
  5
8D
  8
33
  6
CONTINUOUS
 62
     7
 10
1397.8705357142851
 20
876.20982142857099
 30
0.0
 11
1397.8705357142851
 21
1114.2098214285711
 31
0.0
  0
LINE
  5
8E
  8
33
  6
CONTINUOUS
 62
     7
 10
1317.870535714286
 20
1196.2098214285711
 30
0.0
 11
1285.358303571428
 21
1196.2098214285711
 31
0.0
  0
LINE
  5
8F
  8
33
  6
CONTINUOUS
 62
     7
 10
1691.870535714286
 20
794.20982142857144
 30
0.0
 11
1302.085020727041
 21
794.20982142857144
 31
0.0
  0
LINE
  5
90
  8
33
  6
CONTINUOUS
 62
     7
 10
1285.358303571428
 20
1196.2098214285711
 30
0.0
 11
1573.373485331633
 21
1196.2098214285711
 31
0.0
  0
ARC
  5
91
  8
33
  6
CONTINUOUS
 62
     7
 10
1691.870535714286
 20
1114.2098214285711
 30
0.0
 40
82.0
 50
0.0
 51
90.0
  0
LINE
  5
92
  8
33
  6
CONTINUOUS
 62
     7
 10
1773.870535714286
 20
1208.2098214285711
 30
0.0
 11
1773.870535714286
 21
1104.609821428571
 31
0.0
  0
ARC
  5
93
  8
33
  6
CONTINUOUS
 62
     7
 10
807.87053571428601
 20
1208.2098214285711
 30
0.0
 40
70.0
 50
90.0
 51
180.0
  0
LINE
  5
94
  8
33
  6
CONTINUOUS
 62
     7
 10
737.87053571428601
 20
1208.2098214285711
 30
0.0
 11
737.87053571428601
 21
876.20982142857144
 31
0.0
  0
ARC
  5
95
  8
33
  6
CONTINUOUS
 62
     7
 10
807.87053571428601
 20
876.20982142857144
 30
0.0
 40
70.0
 50
180.0
 51
270.0
  0
LINE
  5
96
  8
33
  6
CONTINUOUS
 62
     7
 10
807.87053571428601
 20
806.20982142857144
 30
0.0
 11
1317.870535714286
 21
806.20982142857144
 31
0.0
  0
LINE
  5
97
  8
33
  6
CONTINUOUS
 62
     7
 10
1317.870535714286
 20
806.20982142857144
 30
0.0
 11
1327.870535714286
 21
806.20982142857144
 31
0.0
  0
ARC
  5
98
  8
33
  6
CONTINUOUS
 62
     7
 10
1691.870535714286
 20
876.20982142857144
 30
0.0
 40
70.0
 50
270.0
 51
0.0
  0
LINE
  5
99
  8
33
  6
CONTINUOUS
 62
     7
 10
1761.870535714286
 20
876.20982142857144
 30
0.0
 11
1761.870535714286
 21
1114.2098214285711
 31
0.0
  0
ARC
  5
9A
  8
33
  6
CONTINUOUS
 62
     7
 10
1691.870535714286
 20
1114.2098214285711
 30
0.0
 40
70.0
 50
0.0
 51
90.0
  0
LINE
  5
9B
  8
33
  6
CONTINUOUS
 62
     7
 10
1691.870535714286
 20
1184.2098214285711
 30
0.0
 11
1565.685148278061
 21
1184.2098214285711
 31
0.0
  0
LINE
  5
9C
  8
33
  6
CONTINUOUS
 62
     7
 10
1317.870535714286
 20
1184.2098214285711
 30
0.0
 11
1285.358303571428
 21
1184.2098214285711
 31
0.0
  0
LINE
  5
9D
  8
33
  6
CONTINUOUS
 62
     7
 10
1285.358303571428
 20
1184.2098214285711
 30
0.0
 11
1198.049698094035
 21
1184.2098214285711
 31
0.0
  0
ARC
  5
9E
  8
33
  6
CONTINUOUS
 62
     7
 10
1198.049698094035
 20
1244.2098214285711
 30
0.0
 40
60.0
 50
220.399904333737
 51
270.0
  0
LINE
  5
9F
  8
33
  6
CONTINUOUS
 62
     7
 10
1152.357334712286
 20
1205.322703656869
 30
0.0
 11
1111.288890594255
 21
1253.5781254955559
 31
0.0
  0
ARC
  5
A0
  8
33
  6
CONTINUOUS
 62
     7
 10
1057.9811333155469
 20
1208.2098214285711
 30
0.0
 40
70.0
 50
40.399904333736998
 51
90.0
  0
LINE
  5
A1
  8
33
  6
CONTINUOUS
 62
     7
 10
1057.9811333155469
 20
1278.2098214285711
 30
0.0
 11
807.87053571428601
 21
1278.2098214285711
 31
0.0
  0
ARC
  5
A2
  8
33
  6
CONTINUOUS
 62
     7
 10
1327.870535714286
 20
1114.2098214285711
 30
0.0
 40
70.0
 50
0.0
 51
90.0
  0
ARC
  5
A3
  8
33
  6
CONTINUOUS
 62
     7
 10
1317.870535714286
 20
1114.2098214285711
 30
0.0
 40
70.0
 50
0.0
 51
90.0
  0
LINE
  5
A4
  8
33
  6
CONTINUOUS
 62
     7
 10
1285.358303571428
 20
1184.2098214285711
 30
0.0
 11
1577.2978125
 21
1184.2098214285711
 31
0.0
  0
ARC
  5
A5
  8
33
  6
CONTINUOUS
 62
     7
 10
1327.870535714286
 20
876.20982142857099
 30
0.0
 40
70.0
 50
270.0
 51
0.0
  0
ARC
  5
A6
  8
33
  6
CONTINUOUS
 62
     7
 10
1317.870535714286
 20
876.20982142857144
 30
0.0
 40
70.0
 50
270.0
 51
0.0
  0
LINE
  5
A7
  8
33
  6
CONTINUOUS
 62
     7
 10
1691.870535714286
 20
806.20982142857144
 30
0.0
 11
1316.788655625
 21
806.20982142857144
 31
0.0
  0
LINE
  5
A8
  8
33
  6
CONTINUOUS
 62
     7
 10
1545.870535714286
 20
1202.2098214285711
 30
0.0
 11
1705.870535714286
 21
1202.2098214285711
 31
0.0
  0
ARC
  5
A9
  8
33
  6
CONTINUOUS
 62
     7
 10
1545.870535714286
 20
1244.2098214285711
 30
0.0
 40
40.0
 50
90.0
 51
180.0
  0
ARC
  5
AA
  8
33
  6
CONTINUOUS
 62
     7
 10
1545.870535714286
 20
1242.2098214285711
 30
0.0
 40
40.0
 50
180.0
 51
270.0
  0
ARC
  5
AB
  8
33
  6
CONTINUOUS
 62
     7
 10
1705.870535714286
 20
1242.2098214285711
 30
0.0
 40
40.0
 50
270.0
 51
0.0
  0
ARC
  5
AC
  8
33
  6
CONTINUOUS
 62
     7
 10
1705.870535714286
 20
1244.2098214285711
 30
0.0
 40
40.0
 50
0.0
 51
90.0
  0
ARC
  5
AD
  8
33
  6
CONTINUOUS
 62
     7
 10
1705.870535714286
 20
1244.2098214285711
 30
0.0
 40
34.0
 50
0.0
 51
90.0
  0
LINE
  5
AE
  8
33
  6
CONTINUOUS
 62
     7
 10
1739.870535714286
 20
1244.2098214285711
 30
0.0
 11
1739.870535714286
 21
1242.2098214285711
 31
0.0
  0
ARC
  5
AF
  8
33
  6
CONTINUOUS
 62
     7
 10
1705.870535714286
 20
1242.2098214285711
 30
0.0
 40
34.0
 50
270.0
 51
0.0
  0
LINE
  5
B0
  8
33
  6
CONTINUOUS
 62
     7
 10
1705.870535714286
 20
1208.2098214285711
 30
0.0
 11
1545.870535714286
 21
1208.2098214285711
 31
0.0
  0
ARC
  5
B1
  8
33
  6
CONTINUOUS
 62
     7
 10
1545.870535714286
 20
1242.2098214285711
 30
0.0
 40
34.0
 50
180.0
 51
270.0
  0
LINE
  5
B2
  8
33
  6
CONTINUOUS
 62
     7
 10
1511.870535714286
 20
1242.2098214285711
 30
0.0
 11
1511.870535714286
 21
1244.2098214285711
 31
0.0
  0
ARC
  5
B3
  8
33
  6
CONTINUOUS
 62
     7
 10
1545.870535714286
 20
1244.2098214285711
 30
0.0
 40
34.0
 50
90.0
 51
180.0
  0
LINE
  5
B4
  8
33
  6
CONTINUOUS
 62
     7
 10
1545.870535714286
 20
1278.2098214285711
 30
0.0
 11
1705.870535714286
 21
1278.2098214285711
 31
0.0
  0
LINE
  5
B5
  8
33
  6
DASHDOT
 62
     7
 10
1058.870535714286
 20
1152.2098214285711
 30
0.0
 11
818.87053571428589
 21
1152.2098214285711
 31
0.0
  0
LINE
  5
B6
  8
33
  6
DASHDOT
 62
     7
 10
818.87053571428589
 20
1152.2098214285711
 30
0.0
 11
938.87053571428601
 21
1152.2098214285711
 31
0.0
  0
LINE
  5
B7
  8
33
  6
DASHDOT
 62
     7
 10
938.87053571428601
 20
1152.2098214285711
 30
0.0
 11
938.87053571428601
 21
1272.2098214285711
 31
0.0
  0
LINE
  5
B8
  8
33
  6
DASHDOT
 62
     7
 10
938.87053571428601
 20
1272.2098214285711
 30
0.0
 11
938.87053571428601
 21
1032.2098214285711
 31
0.0
  0
CIRCLE
  5
B9
  8
33
  6
CONTINUOUS
 62
     7
 10
938.87053571428601
 20
1152.2098214285711
 30
0.0
 40
79.75
  0
CIRCLE
  5
BA
  8
33
  6
CONTINUOUS
 62
     7
 10
938.87053571428601
 20
1152.2098214285711
 30
0.0
 40
90.750000000000014
  0
LINE
  5
BB
  8
33
  6
DASHDOT
 62
     7
 10
1625.870535714286
 20
1199.209821428572
 30
0.0
 11
1625.870535714286
 21
1289.2098214285711
 31
0.0
  0
LINE
  5
BC
  8
33
  6
DASHDOT
 62
     7
 10
1675.870535714286
 20
1243.2098214285711
 30
0.0
 11
1575.870535714286
 21
1243.2098214285711
 31
0.0
  0
LINE
  5
BD
  8
33
  6
DASHDOT
 62
     7
 10
1497.0415178571429
 20
1243.2098214285711
 30
0.0
 11
1750.9941964285711
 21
1243.2098214285711
 31
0.0
  0
CIRCLE
  5
BE
  8
33
  6
CONTINUOUS
 62
     7
 10
1625.870535714286
 20
1243.2098214285711
 30
0.0
 40
20.5
  0
CIRCLE
  5
BF
  8
33
  6
CONTINUOUS
 62
     7
 10
1625.870535714286
 20
1243.2098214285711
 30
0.0
 40
28.0
  0
LINE
  5
C0
  8
33
  6
CONTINUOUS
 62
     7
 10
1390.870535714286
 20
792.20982142857144
 30
0.0
 11
1390.870535714286
 21
794.20982142857088
 31
0.0
  0
LINE
  5
C1
  8
33
  6
CONTINUOUS
 62
     7
 10
1397.519656311749
 20
1121.7098214285711
 30
0.0
 11
1761.467590249661
 21
1121.7098214285711
 31
0.0
  0
LINE
  5
C2
  8
33
  6
CONTINUOUS
 62
     7
 10
1397.519656311749
 20
1101.7098214285711
 30
0.0
 11
1761.870535714286
 21
1101.7098214285711
 31
0.0
  0
LINE
  5
C3
  8
33
  6
CONTINUOUS
 62
     7
 10
1397.8705357142851
 20
1044.2098214285711
 30
0.0
 11
1761.870535714286
 21
1044.2098214285711
 31
0.0
  0
LINE
  5
C4
  8
33
  6
CONTINUOUS
 62
     7
 10
1397.519656311749
 20
1024.2098214285711
 30
0.0
 11
1761.870535714286
 21
1024.2098214285711
 31
0.0
  0
LINE
  5
C5
  8
33
  6
CONTINUOUS
 62
     7
 10
1397.519656311749
 20
966.70982142857099
 30
0.0
 11
1761.870535714286
 21
966.70982142857099
 31
0.0
  0
LINE
  5
C6
  8
33
  6
CONTINUOUS
 62
     7
 10
1397.519656311749
 20
946.70982142857099
 30
0.0
 11
1761.870535714286
 21
946.70982142857099
 31
0.0
  0
LINE
  5
C7
  8
33
  6
CONTINUOUS
 62
     7
 10
1397.519656311749
 20
889.20982142857088
 30
0.0
 11
1761.870535714286
 21
889.20982142857088
 31
0.0
  0
LINE
  5
C8
  8
33
  6
CONTINUOUS
 62
     7
 10
1397.519656311749
 20
869.20982142857099
 30
0.0
 11
1761.870535714286
 21
869.20982142857099
 31
0.0
  0
LINE
  5
C9
  8
33
  6
CONTINUOUS
 62
     7
 10
1390.870535714286
 20
1119.7098214285711
 30
0.0
 11
1761.467590249661
 21
1119.7098214285711
 31
0.0
  0
LINE
  5
CA
  8
33
  6
CONTINUOUS
 62
     7
 10
1390.870535714286
 20
1103.7098214285711
 30
0.0
 11
1761.870535714286
 21
1103.7098214285711
 31
0.0
  0
LINE
  5
CB
  8
33
  6
DASHDOT
 62
     7
 10
690.87053571428601
 20
1042.2098214285711
 30
0.0
 11
1808.870535714286
 21
1042.2098214285711
 31
0.0
  0
LINE
  5
CC
  8
33
  6
CONTINUOUS
 62
     7
 10
1397.519656311749
 20
1044.2098214285711
 30
0.0
 11
1761.870535714286
 21
1044.2098214285711
 31
0.0
  0
LINE
  5
CD
  8
33
  6
CONTINUOUS
 62
     7
 10
1390.870535714286
 20
1042.2098214285711
 30
0.0
 11
1761.870535714286
 21
1042.2098214285711
 31
0.0
  0
LINE
  5
CE
  8
33
  6
CONTINUOUS
 62
     7
 10
1390.870535714286
 20
1026.2098214285711
 30
0.0
 11
1761.870535714286
 21
1026.2098214285711
 31
0.0
  0
LINE
  5
CF
  8
33
  6
CONTINUOUS
 62
     7
 10
1390.870535714286
 20
964.70982142857099
 30
0.0
 11
1761.870535714286
 21
964.70982142857099
 31
0.0
  0
LINE
  5
D0
  8
33
  6
CONTINUOUS
 62
     7
 10
1390.870535714286
 20
948.70982142857099
 30
0.0
 11
1761.870535714286
 21
948.70982142857099
 31
0.0
  0
LINE
  5
D1
  8
33
  6
CONTINUOUS
 62
     7
 10
1390.870535714286
 20
887.20982142857099
 30
0.0
 11
1761.870535714286
 21
887.20982142857099
 31
0.0
  0
LINE
  5
D2
  8
33
  6
CONTINUOUS
 62
     7
 10
1390.870535714286
 20
871.20982142857099
 30
0.0
 11
1761.870535714286
 21
871.20982142857099
 31
0.0
  0
LINE
  5
D3
  8
33
  6
CONTINUOUS
 62
     7
 10
1397.467590249661
 20
1121.7098214285711
 30
0.0
 11
1390.870535714286
 21
1119.7098214285711
 31
0.0
  0
LINE
  5
D4
  8
33
  6
CONTINUOUS
 62
     7
 10
1390.870535714286
 20
1103.7098214285711
 30
0.0
 11
1397.8705357142851
 21
1101.7098214285711
 31
0.0
  0
LINE
  5
D5
  8
33
  6
CONTINUOUS
 62
     7
 10
1397.8705357142851
 20
1044.2098214285711
 30
0.0
 11
1390.870535714286
 21
1042.2098214285711
 31
0.0
  0
LINE
  5
D6
  8
33
  6
CONTINUOUS
 62
     7
 10
1390.870535714286
 20
1026.2098214285711
 30
0.0
 11
1397.8705357142851
 21
1024.2098214285711
 31
0.0
  0
LINE
  5
D7
  8
33
  6
CONTINUOUS
 62
     7
 10
1397.8705357142851
 20
966.70982142857099
 30
0.0
 11
1390.870535714286
 21
964.70982142857099
 31
0.0
  0
LINE
  5
D8
  8
33
  6
CONTINUOUS
 62
     7
 10
1390.870535714286
 20
948.70982142857099
 30
0.0
 11
1397.8705357142851
 21
946.70982142857099
 31
0.0
  0
LINE
  5
D9
  8
33
  6
CONTINUOUS
 62
     7
 10
1397.8705357142851
 20
889.20982142857088
 30
0.0
 11
1390.870535714286
 21
887.20982142857099
 31
0.0
  0
LINE
  5
DA
  8
33
  6
CONTINUOUS
 62
     7
 10
1390.870535714286
 20
871.20982142857099
 30
0.0
 11
1397.519656311749
 21
869.20982142857099
 31
0.0
  0
LINE
  5
DB
  8
33
  6
CONTINUOUS
 62
     7
 10
1390.870535714286
 20
1103.7098214285711
 30
0.0
 11
1390.870535714286
 21
1119.7098214285711
 31
0.0
  0
LINE
  5
DC
  8
33
  6
CONTINUOUS
 62
     7
 10
1390.870535714286
 20
1026.2098214285711
 30
0.0
 11
1390.870535714286
 21
1042.2098214285711
 31
0.0
  0
LINE
  5
DD
  8
33
  6
CONTINUOUS
 62
     7
 10
1390.870535714286
 20
948.70982142857099
 30
0.0
 11
1390.870535714286
 21
964.70982142857099
 31
0.0
  0
LINE
  5
DE
  8
33
  6
CONTINUOUS
 62
     7
 10
1390.870535714286
 20
871.20982142857099
 30
0.0
 11
1390.870535714286
 21
887.20982142857099
 31
0.0
  0
LINE
  5
DF
  8
33
  6
CONTINUOUS
 62
     7
 10
662.80867346938794
 20
1042.2098214285711
 30
0.0
 11
662.80867346938794
 21
1278.2098214285711
 31
0.0
  0
LINE
  5
E0
  8
33
  6
CONTINUOUS
 62
     7
 10
662.80867346938794
 20
1042.2098214285711
 30
0.0
 11
657.63229256733734
 21
1061.5283379543521
 31
0.0
  0
LINE
  5
E1
  8
33
  6
CONTINUOUS
 62
     7
 10
662.80867346938794
 20
1042.2098214285711
 30
0.0
 11
667.98505437143842
 21
1061.5283379543521
 31
0.0
  0
LINE
  5
E2
  8
33
  6
CONTINUOUS
 62
     7
 10
662.80867346938794
 20
1278.2098214285711
 30
0.0
 11
667.98505437143842
 21
1258.8913049027899
 31
0.0
  0
LINE
  5
E3
  8
33
  6
CONTINUOUS
 62
     7
 10
662.80867346938794
 20
1278.2098214285711
 30
0.0
 11
657.63229256733734
 21
1258.8913049027899
 31
0.0
  0
LINE
  5
E4
  8
33
  6
CONTINUOUS
 62
     7
 10
685.87053571428589
 20
1042.2098214285711
 30
0.0
 11
657.80867346938794
 21
1042.2098214285711
 31
0.0
  0
LINE
  5
E5
  8
33
  6
CONTINUOUS
 62
     7
 10
802.87053571428589
 20
1278.2098214285711
 30
0.0
 11
657.80867346938794
 21
1278.2098214285711
 31
0.0
  0
TEXT
  5
E6
  8
33
 62
     7
 10
657.8087158203125
 20
1140.209716796875
 30
0.0
 40
20.0
  1
236
 50
90.0
 41
0.75
 51
15.0
 72
     1
 11
657.8087158203125
 21
1160.209716796875
 31
0.0
  0
LINE
  5
E7
  8
33
  6
CONTINUOUS
 62
     7
 10
662.80867346938794
 20
806.20982142857144
 30
0.0
 11
662.80867346938794
 21
1042.2098214285711
 31
0.0
  0
LINE
  5
E8
  8
33
  6
CONTINUOUS
 62
     7
 10
662.80867346938794
 20
806.20982142857144
 30
0.0
 11
657.63229256733734
 21
825.52833795435254
 31
0.0
  0
LINE
  5
E9
  8
33
  6
CONTINUOUS
 62
     7
 10
662.80867346938794
 20
806.20982142857144
 30
0.0
 11
667.98505437143842
 21
825.52833795435254
 31
0.0
  0
LINE
  5
EA
  8
33
  6
CONTINUOUS
 62
     7
 10
662.80867346938794
 20
1042.2098214285711
 30
0.0
 11
667.98505437143842
 21
1022.89130490279
 31
0.0
  0
LINE
  5
EB
  8
33
  6
CONTINUOUS
 62
     7
 10
662.80867346938794
 20
1042.2098214285711
 30
0.0
 11
657.63229256733734
 21
1022.89130490279
 31
0.0
  0
LINE
  5
EC
  8
33
  6
CONTINUOUS
 62
     7
 10
802.87053571428589
 20
806.20982142857144
 30
0.0
 11
657.80867346938794
 21
806.20982142857144
 31
0.0
  0
TEXT
  5
ED
  8
33
 62
     7
 10
657.8087158203125
 20
904.20983886718739
 30
0.0
 40
20.0
  1
236
 50
90.0
 41
0.75
 51
15.0
 72
     1
 11
657.8087158203125
 21
924.2098388671875
 31
0.0
  0
LINE
  5
EE
  8
33
  6
CONTINUOUS
 62
     7
 10
619.875
 20
1278.2098214285711
 30
0.0
 11
619.875
 21
1290.2098214285711
 31
0.0
  0
LINE
  5
EF
  8
33
  6
CONTINUOUS
 62
     7
 10
802.87053571428589
 20
1278.2098214285711
 30
0.0
 11
614.87499999999989
 21
1278.2098214285711
 31
0.0
  0
LINE
  5
F0
  8
33
  6
CONTINUOUS
 62
     7
 10
802.87053571428589
 20
1290.2098214285711
 30
0.0
 11
614.87499999999989
 21
1290.2098214285711
 31
0.0
  0
LINE
  5
F1
  8
33
  6
CONTINUOUS
 62
     7
 10
619.875
 20
1290.2098214285711
 30
0.0
 11
619.875
 21
1330.2098214285711
 31
0.0
  0
LINE
  5
F2
  8
33
  6
CONTINUOUS
 62
     7
 10
619.875
 20
1290.2098214285711
 30
0.0
 11
614.69861909794952
 21
1309.528337954353
 31
0.0
  0
LINE
  5
F3
  8
33
  6
CONTINUOUS
 62
     7
 10
619.875
 20
1290.2098214285711
 30
0.0
 11
625.05138090205037
 21
1309.528337954353
 31
0.0
  0
TEXT
  5
F4
  8
33
 62
     7
 10
613.21228027343739
 20
1313.067626953125
 30
0.0
 40
20.0
  1
12
 50
90.0
 41
0.75
 51
15.0
 72
     1
 11
613.21228027343739
 21
1323.067626953125
 31
0.0
  0
LINE
  5
F5
  8
33
  6
CONTINUOUS
 62
     7
 10
619.875
 20
794.20982142857144
 30
0.0
 11
619.875
 21
806.20982142857144
 31
0.0
  0
LINE
  5
F6
  8
33
  6
CONTINUOUS
 62
     7
 10
802.87053571428589
 20
794.20982142857144
 30
0.0
 11
614.87499999999989
 21
794.20982142857144
 31
0.0
  0
LINE
  5
F7
  8
33
  6
CONTINUOUS
 62
     7
 10
802.87053571428589
 20
806.20982142857144
 30
0.0
 11
614.87499999999989
 21
806.20982142857144
 31
0.0
  0
LINE
  5
F8
  8
33
  6
CONTINUOUS
 62
     7
 10
619.875
 20
754.20982142857144
 30
0.0
 11
619.875
 21
794.20982142857144
 31
0.0
  0
LINE
  5
F9
  8
33
  6
CONTINUOUS
 62
     7
 10
619.875
 20
794.20982142857144
 30
0.0
 11
625.05138090205037
 21
774.89130490279013
 31
0.0
  0
LINE
  5
FA
  8
33
  6
CONTINUOUS
 62
     7
 10
619.875
 20
794.20982142857144
 30
0.0
 11
614.69861909794952
 21
774.89130490279013
 31
0.0
  0
TEXT
  5
FB
  8
33
 62
     7
 10
614.12030029296898
 20
749.18585205078159
 30
0.0
 40
20.0
  1
12
 50
90.0
 41
0.75
 51
15.0
 72
     1
 11
614.12030029296898
 21
759.18585205078148
 31
0.0
  0
LINE
  5
FC
  8
33
  6
CONTINUOUS
 62
     7
 10
619.875
 20
806.20982142857144
 30
0.0
 11
619.875
 21
1278.2098214285711
 31
0.0
  0
LINE
  5
FD
  8
33
  6
CONTINUOUS
 62
     7
 10
619.875
 20
806.20982142857144
 30
0.0
 11
614.69861909794952
 21
825.52833795435254
 31
0.0
  0
LINE
  5
FE
  8
33
  6
CONTINUOUS
 62
     7
 10
619.875
 20
806.20982142857144
 30
0.0
 11
625.05138090205037
 21
825.52833795435254
 31
0.0
  0
LINE
  5
FF
  8
33
  6
CONTINUOUS
 62
     7
 10
619.875
 20
1278.2098214285711
 30
0.0
 11
625.05138090205037
 21
1258.8913049027899
 31
0.0
  0
LINE
  5
100
  8
33
  6
CONTINUOUS
 62
     7
 10
619.875
 20
1278.2098214285711
 30
0.0
 11
614.69861909794952
 21
1258.8913049027899
 31
0.0
  0
TEXT
  5
101
  8
33
 62
     7
 10
614.87506103515636
 20
987.20983886718739
 30
0.0
 40
20.0
  1
472+2_-1
 50
90.0
 41
0.75
 51
15.0
 72
     1
 11
614.87506103515636
 21
1042.209838867187
 31
0.0
  0
LINE
  5
102
  8
33
  6
CONTINUOUS
 62
     7
 10
574.41581632653038
 20
779.20982142857144
 30
0.0
 11
574.41581632653038
 21
794.20982142857144
 31
0.0
  0
LINE
  5
103
  8
33
  6
CONTINUOUS
 62
     7
 10
802.87053571428589
 20
779.20982142857144
 30
0.0
 11
569.41581632653049
 21
779.20982142857144
 31
0.0
  0
LINE
  5
104
  8
33
  6
CONTINUOUS
 62
     7
 10
802.87053571428589
 20
794.20982142857144
 30
0.0
 11
569.41581632653049
 21
794.20982142857144
 31
0.0
  0
LINE
  5
105
  8
33
  6
CONTINUOUS
 62
     7
 10
574.41581632653038
 20
739.20982142857144
 30
0.0
 11
574.41581632653038
 21
779.20982142857144
 31
0.0
  0
LINE
  5
106
  8
33
  6
CONTINUOUS
 62
     7
 10
574.41581632653038
 20
779.20982142857144
 30
0.0
 11
579.59219722858086
 21
759.89130490279013
 31
0.0
  0
LINE
  5
107
  8
33
  6
CONTINUOUS
 62
     7
 10
574.41581632653038
 20
779.20982142857144
 30
0.0
 11
569.23943542447989
 21
759.89130490279013
 31
0.0
  0
TEXT
  5
108
  8
33
 62
     7
 10
569.23986816406239
 20
720.8990478515625
 30
0.0
 40
20.0
  1
15%%p1_
 50
90.0
 41
0.75
 51
15.0
 72
     1
 11
569.23986816406239
 21
750.8990478515625
 31
0.0
  0
LINE
  5
109
  8
33
  6
CONTINUOUS
 62
     7
 10
574.41581632653038
 20
794.20982142857144
 30
0.0
 11
574.41581632653038
 21
1290.2098214285711
 31
0.0
  0
LINE
  5
10A
  8
33
  6
CONTINUOUS
 62
     7
 10
574.41581632653038
 20
794.20982142857144
 30
0.0
 11
569.23943542447989
 21
813.52833795435242
 31
0.0
  0
LINE
  5
10B
  8
33
  6
CONTINUOUS
 62
     7
 10
574.41581632653038
 20
794.20982142857144
 30
0.0
 11
579.59219722858086
 21
813.52833795435242
 31
0.0
  0
LINE
  5
10C
  8
33
  6
CONTINUOUS
 62
     7
 10
574.41581632653038
 20
1290.2098214285711
 30
0.0
 11
579.59219722858086
 21
1270.8913049027899
 31
0.0
  0
LINE
  5
10D
  8
33
  6
CONTINUOUS
 62
     7
 10
574.41581632653038
 20
1290.2098214285711
 30
0.0
 11
569.23943542447989
 21
1270.8913049027899
 31
0.0
  0
LINE
  5
10E
  8
33
  6
CONTINUOUS
 62
     7
 10
802.87053571428589
 20
1290.2098214285711
 30
0.0
 11
569.41581632653049
 21
1290.2098214285711
 31
0.0
  0
TEXT
  5
10F
  8
33
 62
     7
 10
569.415771484375
 20
987.20983886718739
 30
0.0
 40
20.0
  1
496+2_-1
 50
90.0
 41
0.75
 51
15.0
 72
     1
 11
569.415771484375
 21
1042.209838867187
 31
0.0
  0
LINE
  5
110
  8
33
  6
CONTINUOUS
 62
     7
 10
574.41581632653038
 20
1290.2098214285711
 30
0.0
 11
574.41581632653038
 21
1302.7098214285711
 31
0.0
  0
LINE
  5
111
  8
33
  6
CONTINUOUS
 62
     7
 10
802.87053571428589
 20
1302.7098214285711
 30
0.0
 11
569.41581632653049
 21
1302.7098214285711
 31
0.0
  0
LINE
  5
112
  8
33
  6
CONTINUOUS
 62
     7
 10
574.41581632653038
 20
1302.7098214285711
 30
0.0
 11
574.41581632653038
 21
1342.7098214285711
 31
0.0
  0
LINE
  5
113
  8
33
  6
CONTINUOUS
 62
     7
 10
574.41581632653038
 20
1302.7098214285711
 30
0.0
 11
569.23943542447989
 21
1322.028337954353
 31
0.0
  0
LINE
  5
114
  8
33
  6
CONTINUOUS
 62
     7
 10
574.41581632653038
 20
1302.7098214285711
 30
0.0
 11
579.59219722858086
 21
1322.028337954353
 31
0.0
  0
TEXT
  5
115
  8
33
 62
     7
 10
568.63623046875
 20
1297.83984375
 30
0.0
 40
20.0
  1
15%%p1_
 50
90.0
 41
0.75
 51
15.0
 72
     1
 11
568.63623046875
 21
1327.83984375
 31
0.0
  0
LINE
  5
116
  8
33
  6
CONTINUOUS
 62
     7
 10
528.95663265306098
 20
779.20982142857144
 30
0.0
 11
528.95663265306098
 21
1302.7098214285711
 31
0.0
  0
LINE
  5
117
  8
33
  6
CONTINUOUS
 62
     7
 10
528.95663265306098
 20
779.20982142857144
 30
0.0
 11
523.78025175101095
 21
798.52833795435254
 31
0.0
  0
LINE
  5
118
  8
33
  6
CONTINUOUS
 62
     7
 10
528.95663265306098
 20
779.20982142857144
 30
0.0
 11
534.13301355511135
 21
798.52833795435254
 31
0.0
  0
LINE
  5
119
  8
33
  6
CONTINUOUS
 62
     7
 10
528.95663265306098
 20
1302.7098214285711
 30
0.0
 11
534.13301355511135
 21
1283.3913049027899
 31
0.0
  0
LINE
  5
11A
  8
33
  6
CONTINUOUS
 62
     7
 10
528.95663265306098
 20
1302.7098214285711
 30
0.0
 11
523.78025175101095
 21
1283.3913049027899
 31
0.0
  0
LINE
  5
11B
  8
33
  6
CONTINUOUS
 62
     7
 10
802.87053571428589
 20
779.20982142857144
 30
0.0
 11
523.95663265306086
 21
779.20982142857144
 31
0.0
  0
LINE
  5
11C
  8
33
  6
CONTINUOUS
 62
     7
 10
802.87053571428589
 20
1302.7098214285711
 30
0.0
 11
523.95663265306086
 21
1302.7098214285711
 31
0.0
  0
TEXT
  5
11D
  8
33
 62
     7
 10
523.95666503906239
 20
985.9598388671875
 30
0.0
 40
20.0
  1
525+2_-1
 50
90.0
 41
0.75
 51
15.0
 72
     1
 11
523.95666503906239
 21
1040.959838867187
 31
0.0
  0
LINE
  5
11E
  8
33
  6
CONTINUOUS
 62
     7
 10
1828.6604751275499
 20
1278.2098214285711
 30
0.0
 11
1828.6604751275499
 21
1284.2098214285711
 31
0.0
  0
LINE
  5
11F
  8
33
  6
CONTINUOUS
 62
     7
 10
1710.870535714286
 20
1278.2098214285711
 30
0.0
 11
1833.6604751275511
 21
1278.2098214285711
 31
0.0
  0
LINE
  5
120
  8
33
  6
CONTINUOUS
 62
     7
 10
1710.870535714286
 20
1284.2098214285711
 30
0.0
 11
1833.6604751275511
 21
1284.2098214285711
 31
0.0
  0
LINE
  5
121
  8
33
  6
CONTINUOUS
 62
     7
 10
1828.6604751275499
 20
1284.2098214285711
 30
0.0
 11
1828.6604751275499
 21
1309.2098214285711
 31
0.0
  0
LINE
  5
122
  8
33
  6
CONTINUOUS
 62
     7
 10
1828.6604751275499
 20
1284.2098214285711
 30
0.0
 11
1823.4840942255
 21
1303.528337954353
 31
0.0
  0
LINE
  5
123
  8
33
  6
CONTINUOUS
 62
     7
 10
1828.6604751275499
 20
1284.2098214285711
 30
0.0
 11
1833.836856029601
 21
1303.528337954353
 31
0.0
  0
TEXT
  5
124
  8
33
 62
     7
 10
1822.314697265625
 20
1306.669311523437
 30
0.0
 40
20.0
  1
5
 50
90.0
 41
0.75
 51
15.0
 72
     1
 11
1822.314697265625
 21
1311.669311523437
 31
0.0
  0
LINE
  5
125
  8
33
  6
CONTINUOUS
 62
     7
 10
1828.6604751275499
 20
1208.2098214285711
 30
0.0
 11
1828.6604751275499
 21
1278.2098214285711
 31
0.0
  0
LINE
  5
126
  8
33
  6
CONTINUOUS
 62
     7
 10
1828.6604751275499
 20
1208.2098214285711
 30
0.0
 11
1823.4840942255
 21
1227.528337954353
 31
0.0
  0
LINE
  5
127
  8
33
  6
CONTINUOUS
 62
     7
 10
1828.6604751275499
 20
1208.2098214285711
 30
0.0
 11
1833.836856029601
 21
1227.528337954353
 31
0.0
  0
LINE
  5
128
  8
33
  6
CONTINUOUS
 62
     7
 10
1828.6604751275499
 20
1278.2098214285711
 30
0.0
 11
1833.836856029601
 21
1258.8913049027899
 31
0.0
  0
LINE
  5
129
  8
33
  6
CONTINUOUS
 62
     7
 10
1828.6604751275499
 20
1278.2098214285711
 30
0.0
 11
1823.4840942255
 21
1258.8913049027899
 31
0.0
  0
LINE
  5
12A
  8
33
  6
CONTINUOUS
 62
     7
 10
1710.870535714286
 20
1208.2098214285711
 30
0.0
 11
1833.6604751275511
 21
1208.2098214285711
 31
0.0
  0
TEXT
  5
12B
  8
33
 62
     7
 10
1823.660400390625
 20
1230.709716796875
 30
0.0
 40
20.0
  1
73
 50
90.0
 41
0.75
 51
15.0
 72
     1
 11
1823.660400390625
 21
1243.209716796875
 31
0.0
  0
LINE
  5
12C
  8
33
  6
CONTINUOUS
 62
     7
 10
1828.6604751275499
 20
1202.2098214285711
 30
0.0
 11
1828.6604751275499
 21
1208.2098214285711
 31
0.0
  0
LINE
  5
12D
  8
33
  6
CONTINUOUS
 62
     7
 10
1710.870535714286
 20
1202.2098214285711
 30
0.0
 11
1833.6604751275511
 21
1202.2098214285711
 31
0.0
  0
LINE
  5
12E
  8
33
  6
CONTINUOUS
 62
     7
 10
1828.6604751275499
 20
1177.2098214285711
 30
0.0
 11
1828.6604751275499
 21
1202.2098214285711
 31
0.0
  0
LINE
  5
12F
  8
33
  6
CONTINUOUS
 62
     7
 10
1828.6604751275499
 20
1202.2098214285711
 30
0.0
 11
1833.836856029601
 21
1182.8913049027899
 31
0.0
  0
LINE
  5
130
  8
33
  6
CONTINUOUS
 62
     7
 10
1828.6604751275499
 20
1202.2098214285711
 30
0.0
 11
1823.4840942255
 21
1182.8913049027899
 31
0.0
  0
TEXT
  5
131
  8
33
 62
     7
 10
1823.817993164063
 20
1166.8642578125
 30
0.0
 40
20.0
  1
5
 50
90.0
 41
0.75
 51
15.0
 72
     1
 11
1823.817993164063
 21
1171.8642578125
 31
0.0
  0
LINE
  5
132
  8
33
  6
CONTINUOUS
 62
     7
 10
1882.314413265306
 20
1284.2098214285711
 30
0.0
 11
1882.314413265306
 21
1290.2098214285711
 31
0.0
  0
LINE
  5
133
  8
33
  6
CONTINUOUS
 62
     7
 10
1710.870535714286
 20
1284.2098214285711
 30
0.0
 11
1887.314413265306
 21
1284.2098214285711
 31
0.0
  0
LINE
  5
134
  8
33
  6
CONTINUOUS
 62
     7
 10
1696.870535714286
 20
1290.2098214285711
 30
0.0
 11
1887.314413265306
 21
1290.2098214285711
 31
0.0
  0
LINE
  5
135
  8
33
  6
CONTINUOUS
 62
     7
 10
1882.314413265306
 20
1290.2098214285711
 30
0.0
 11
1882.314413265306
 21
1315.2098214285711
 31
0.0
  0
LINE
  5
136
  8
33
  6
CONTINUOUS
 62
     7
 10
1882.314413265306
 20
1290.2098214285711
 30
0.0
 11
1877.1380323632559
 21
1309.528337954353
 31
0.0
  0
LINE
  5
137
  8
33
  6
CONTINUOUS
 62
     7
 10
1882.314413265306
 20
1290.2098214285711
 30
0.0
 11
1887.4907941673559
 21
1309.528337954353
 31
0.0
  0
TEXT
  5
138
  8
33
 62
     7
 10
1873.238037109375
 20
1308.287841796875
 30
0.0
 40
20.0
  1
6
 50
90.0
 41
0.75
 51
15.0
 72
     1
 11
1873.238037109375
 21
1313.287841796875
 31
0.0
  0
LINE
  5
139
  8
33
  6
CONTINUOUS
 62
     7
 10
1882.314413265306
 20
1202.2098214285711
 30
0.0
 11
1882.314413265306
 21
1284.2098214285711
 31
0.0
  0
LINE
  5
13A
  8
33
  6
CONTINUOUS
 62
     7
 10
1882.314413265306
 20
1202.2098214285711
 30
0.0
 11
1877.1380323632559
 21
1221.528337954353
 31
0.0
  0
LINE
  5
13B
  8
33
  6
CONTINUOUS
 62
     7
 10
1882.314413265306
 20
1202.2098214285711
 30
0.0
 11
1887.4907941673559
 21
1221.528337954353
 31
0.0
  0
LINE
  5
13C
  8
33
  6
CONTINUOUS
 62
     7
 10
1882.314413265306
 20
1284.2098214285711
 30
0.0
 11
1887.4907941673559
 21
1264.8913049027899
 31
0.0
  0
LINE
  5
13D
  8
33
  6
CONTINUOUS
 62
     7
 10
1882.314413265306
 20
1284.2098214285711
 30
0.0
 11
1877.1380323632559
 21
1264.8913049027899
 31
0.0
  0
LINE
  5
13E
  8
33
  6
CONTINUOUS
 62
     7
 10
1710.870535714286
 20
1202.2098214285711
 30
0.0
 11
1887.314413265306
 21
1202.2098214285711
 31
0.0
  0
TEXT
  5
13F
  8
33
 62
     7
 10
1877.0078125
 20
1234.528198242187
 30
0.0
 40
20.0
  1
83
 50
90.0
 41
0.75
 51
15.0
 72
     1
 11
1877.0078125
 21
1247.028198242187
 31
0.0
  0
LINE
  5
140
  8
33
  6
CONTINUOUS
 62
     7
 10
1882.314413265306
 20
1196.2098214285711
 30
0.0
 11
1882.314413265306
 21
1202.2098214285711
 31
0.0
  0
LINE
  5
141
  8
33
  6
CONTINUOUS
 62
     7
 10
1696.870535714286
 20
1196.2098214285711
 30
0.0
 11
1887.314413265306
 21
1196.2098214285711
 31
0.0
  0
TEXT
  5
142
  8
33
 62
     7
 10
1876.237060546875
 20
1204.82080078125
 30
0.0
 40
20.0
  1
6
 50
90.0
 41
0.75
 51
15.0
 72
     1
 11
1876.237060546875
 21
1209.82080078125
 31
0.0
  0
LINE
  5
143
  8
33
  6
CONTINUOUS
 62
     7
 10
1882.314413265306
 20
1184.2098214285711
 30
0.0
 11
1882.314413265306
 21
1196.2098214285711
 31
0.0
  0
CIRCLE
  5
144
  8
33
  6
CONTINUOUS
 62
     7
 10
1882.314413265306
 20
1196.2098214285711
 30
0.0
 40
2.5
  0
LINE
  5
145
  8
33
  6
CONTINUOUS
 62
     7
 10
1696.870535714286
 20
1184.2098214285711
 30
0.0
 11
1887.314413265306
 21
1184.2098214285711
 31
0.0
  0
TEXT
  5
146
  8
33
 62
     7
 10
1876.63818359375
 20
1154.224365234375
 30
0.0
 40
20.0
  1
11
 50
90.0
 41
0.75
 51
15.0
 72
     1
 11
1876.63818359375
 21
1161.724365234375
 31
0.0
  0
LINE
  5
147
  8
33
  6
CONTINUOUS
 62
     7
 10
1882.314413265306
 20
806.20982142857144
 30
0.0
 11
1882.314413265306
 21
1184.2098214285711
 31
0.0
  0
LINE
  5
148
  8
33
  6
CONTINUOUS
 62
     7
 10
1882.314413265306
 20
806.20982142857144
 30
0.0
 11
1877.1380323632559
 21
825.52833795435254
 31
0.0
  0
LINE
  5
149
  8
33
  6
CONTINUOUS
 62
     7
 10
1882.314413265306
 20
806.20982142857144
 30
0.0
 11
1887.4907941673559
 21
825.52833795435254
 31
0.0
  0
LINE
  5
14A
  8
33
  6
CONTINUOUS
 62
     7
 10
1882.314413265306
 20
1184.2098214285711
 30
0.0
 11
1887.4907941673559
 21
1164.8913049027899
 31
0.0
  0
LINE
  5
14B
  8
33
  6
CONTINUOUS
 62
     7
 10
1882.314413265306
 20
1184.2098214285711
 30
0.0
 11
1877.1380323632559
 21
1164.8913049027899
 31
0.0
  0
LINE
  5
14C
  8
33
  6
CONTINUOUS
 62
     7
 10
1696.870535714286
 20
806.20982142857144
 30
0.0
 11
1887.314413265306
 21
806.20982142857144
 31
0.0
  0
TEXT
  5
14D
  8
33
 62
     7
 10
1877.314331054687
 20
940.2098388671875
 30
0.0
 40
20.0
  1
378+2_-1
 50
90.0
 41
0.75
 51
15.0
 72
     1
 11
1877.314331054687
 21
995.20983886718739
 31
0.0
  0
LINE
  5
14E
  8
33
  6
CONTINUOUS
 62
     7
 10
1882.314413265306
 20
794.20982142857144
 30
0.0
 11
1882.314413265306
 21
806.20982142857144
 31
0.0
  0
LINE
  5
14F
  8
33
  6
CONTINUOUS
 62
     7
 10
1696.870535714286
 20
794.20982142857144
 30
0.0
 11
1887.314413265306
 21
794.20982142857144
 31
0.0
  0
LINE
  5
150
  8
33
  6
CONTINUOUS
 62
     7
 10
1882.314413265306
 20
754.20982142857144
 30
0.0
 11
1882.314413265306
 21
794.20982142857144
 31
0.0
  0
LINE
  5
151
  8
33
  6
CONTINUOUS
 62
     7
 10
1882.314413265306
 20
794.20982142857144
 30
0.0
 11
1887.4907941673559
 21
774.89130490279013
 31
0.0
  0
LINE
  5
152
  8
33
  6
CONTINUOUS
 62
     7
 10
1882.314413265306
 20
794.20982142857144
 30
0.0
 11
1877.1380323632559
 21
774.89130490279013
 31
0.0
  0
TEXT
  5
153
  8
33
 62
     7
 10
1876.690795898437
 20
816.5943603515625
 30
0.0
 40
20.0
  1
12
 50
90.0
 41
0.75
 51
15.0
 72
     1
 11
1876.690795898437
 21
826.5943603515625
 31
0.0
  0
LINE
  5
154
  8
33
  6
CONTINUOUS
 62
     7
 10
1925.248086734694
 20
779.20982142857144
 30
0.0
 11
1925.248086734694
 21
794.20982142857144
 31
0.0
  0
LINE
  5
155
  8
33
  6
CONTINUOUS
 62
     7
 10
1696.870535714286
 20
779.20982142857144
 30
0.0
 11
1930.248086734694
 21
779.20982142857144
 31
0.0
  0
LINE
  5
156
  8
33
  6
CONTINUOUS
 62
     7
 10
1696.870535714286
 20
794.20982142857144
 30
0.0
 11
1930.248086734694
 21
794.20982142857144
 31
0.0
  0
LINE
  5
157
  8
33
  6
CONTINUOUS
 62
     7
 10
1925.248086734694
 20
739.20982142857144
 30
0.0
 11
1925.248086734694
 21
779.20982142857144
 31
0.0
  0
LINE
  5
158
  8
33
  6
CONTINUOUS
 62
     7
 10
1925.248086734694
 20
779.20982142857144
 30
0.0
 11
1930.4244676367441
 21
759.89130490279013
 31
0.0
  0
LINE
  5
159
  8
33
  6
CONTINUOUS
 62
     7
 10
1925.248086734694
 20
779.20982142857144
 30
0.0
 11
1920.0717058326429
 21
759.89130490279013
 31
0.0
  0
TEXT
  5
15A
  8
33
 62
     7
 10
1919.802490234375
 20
720.3243408203125
 30
0.0
 40
20.0
  1
15%%p1_
 50
90.0
 41
0.75
 51
15.0
 72
     1
 11
1919.802490234375
 21
750.32434082031239
 31
0.0
  0
LINE
  5
15B
  8
33
  6
CONTINUOUS
 62
     7
 10
1925.248086734694
 20
794.20982142857144
 30
0.0
 11
1925.248086734694
 21
1196.2098214285711
 31
0.0
  0
LINE
  5
15C
  8
33
  6
CONTINUOUS
 62
     7
 10
1925.248086734694
 20
794.20982142857144
 30
0.0
 11
1920.0717058326429
 21
813.52833795435242
 31
0.0
  0
LINE
  5
15D
  8
33
  6
CONTINUOUS
 62
     7
 10
1925.248086734694
 20
794.20982142857144
 30
0.0
 11
1930.4244676367441
 21
813.52833795435242
 31
0.0
  0
LINE
  5
15E
  8
33
  6
CONTINUOUS
 62
     7
 10
1925.248086734694
 20
1196.2098214285711
 30
0.0
 11
1930.4244676367441
 21
1176.8913049027899
 31
0.0
  0
LINE
  5
15F
  8
33
  6
CONTINUOUS
 62
     7
 10
1925.248086734694
 20
1196.2098214285711
 30
0.0
 11
1920.0717058326429
 21
1176.8913049027899
 31
0.0
  0
LINE
  5
160
  8
33
  6
CONTINUOUS
 62
     7
 10
1696.870535714286
 20
1196.2098214285711
 30
0.0
 11
1930.248086734694
 21
1196.2098214285711
 31
0.0
  0
TEXT
  5
161
  8
33
 62
     7
 10
1920.248168945312
 20
943.9598388671875
 30
0.0
 40
20.0
  1
401+2_-1
 50
90.0
 41
0.75
 51
15.0
 72
     1
 11
1920.248168945312
 21
995.20983886718739
 31
0.0
  0
LINE
  5
162
  8
33
  6
CONTINUOUS
 62
     7
 10
1925.248086734694
 20
1196.2098214285711
 30
0.0
 11
1925.248086734694
 21
1290.2098214285711
 31
0.0
  0
LINE
  5
163
  8
33
  6
CONTINUOUS
 62
     7
 10
1925.248086734694
 20
1196.2098214285711
 30
0.0
 11
1920.0717058326429
 21
1215.528337954353
 31
0.0
  0
LINE
  5
164
  8
33
  6
CONTINUOUS
 62
     7
 10
1925.248086734694
 20
1196.2098214285711
 30
0.0
 11
1930.4244676367441
 21
1215.528337954353
 31
0.0
  0
LINE
  5
165
  8
33
  6
CONTINUOUS
 62
     7
 10
1925.248086734694
 20
1290.2098214285711
 30
0.0
 11
1930.4244676367441
 21
1270.8913049027899
 31
0.0
  0
LINE
  5
166
  8
33
  6
CONTINUOUS
 62
     7
 10
1925.248086734694
 20
1290.2098214285711
 30
0.0
 11
1920.0717058326429
 21
1270.8913049027899
 31
0.0
  0
LINE
  5
167
  8
33
  6
CONTINUOUS
 62
     7
 10
1696.870535714286
 20
1290.2098214285711
 30
0.0
 11
1930.248086734694
 21
1290.2098214285711
 31
0.0
  0
TEXT
  5
168
  8
33
 62
     7
 10
1920.248168945312
 20
1230.709716796875
 30
0.0
 40
20.0
  1
95
 50
90.0
 41
0.75
 51
15.0
 72
     1
 11
1920.248168945312
 21
1243.209716796875
 31
0.0
  0
LINE
  5
169
  8
33
  6
CONTINUOUS
 62
     7
 10
1925.248086734694
 20
1290.2098214285711
 30
0.0
 11
1925.248086734694
 21
1302.7098214285711
 31
0.0
  0
LINE
  5
16A
  8
33
  6
CONTINUOUS
 62
     7
 10
1696.870535714286
 20
1302.7098214285711
 30
0.0
 11
1930.248086734694
 21
1302.7098214285711
 31
0.0
  0
LINE
  5
16B
  8
33
  6
CONTINUOUS
 62
     7
 10
1925.248086734694
 20
1302.7098214285711
 30
0.0
 11
1925.248086734694
 21
1342.7098214285711
 31
0.0
  0
LINE
  5
16C
  8
33
  6
CONTINUOUS
 62
     7
 10
1925.248086734694
 20
1302.7098214285711
 30
0.0
 11
1920.0717058326429
 21
1322.028337954353
 31
0.0
  0
LINE
  5
16D
  8
33
  6
CONTINUOUS
 62
     7
 10
1925.248086734694
 20
1302.7098214285711
 30
0.0
 11
1930.4244676367441
 21
1322.028337954353
 31
0.0
  0
TEXT
  5
16E
  8
33
 62
     7
 10
1919.282470703125
 20
1297.276733398437
 30
0.0
 40
20.0
  1
15%%p1_
 50
90.0
 41
0.75
 51
15.0
 72
     1
 11
1919.282470703125
 21
1327.276733398437
 31
0.0
  0
LINE
  5
16F
  8
33
  6
CONTINUOUS
 62
     7
 10
737.87053571428601
 20
739.47937499999989
 30
0.0
 11
1387.8705357142851
 21
739.47937499999989
 31
0.0
  0
LINE
  5
170
  8
33
  6
CONTINUOUS
 62
     7
 10
737.87053571428601
 20
739.47937499999989
 30
0.0
 11
757.18905224006699
 21
744.65575590205037
 31
0.0
  0
LINE
  5
171
  8
33
  6
CONTINUOUS
 62
     7
 10
737.87053571428601
 20
739.47937499999989
 30
0.0
 11
757.18905224006699
 21
734.30299409794952
 31
0.0
  0
LINE
  5
172
  8
33
  6
CONTINUOUS
 62
     7
 10
1387.8705357142851
 20
739.47937499999989
 30
0.0
 11
1368.5520191885039
 21
734.30299409794952
 31
0.0
  0
LINE
  5
173
  8
33
  6
CONTINUOUS
 62
     7
 10
1387.8705357142851
 20
739.47937499999989
 30
0.0
 11
1368.5520191885039
 21
744.65575590205037
 31
0.0
  0
LINE
  5
174
  8
33
  6
CONTINUOUS
 62
     7
 10
1387.8705357142851
 20
871.20982142857144
 30
0.0
 11
1387.8705357142851
 21
734.479375
 31
0.0
  0
LINE
  5
175
  8
33
  6
CONTINUOUS
 62
     7
 10
737.87053571428601
 20
871.20982142857144
 30
0.0
 11
737.87053571428601
 21
734.479375
 31
0.0
  0
TEXT
  5
176
  8
33
 62
     7
 10
1024.12060546875
 20
744.47943115234398
 30
0.0
 40
20.0
  1
650%%p1_
 41
0.75
 51
15.0
 72
     1
 11
1062.87060546875
 21
744.47943115234398
 31
0.0
  0
LINE
  5
177
  8
33
  6
CONTINUOUS
 62
     7
 10
1387.8705357142851
 20
739.47937499999989
 30
0.0
 11
1397.8705357142851
 21
739.47937499999989
 31
0.0
  0
LINE
  5
178
  8
33
  6
CONTINUOUS
 62
     7
 10
1397.8705357142851
 20
871.20982142857099
 30
0.0
 11
1397.8705357142851
 21
734.479375
 31
0.0
  0
TEXT
  5
179
  8
33
 62
     7
 10
1350.732177734375
 20
746.53570556640659
 30
0.0
 40
20.0
  1
10
 41
0.75
 51
15.0
 72
     1
 11
1359.482177734375
 21
746.53570556640659
 31
0.0
  0
LINE
  5
17A
  8
33
  6
CONTINUOUS
 62
     7
 10
1397.8705357142851
 20
739.47937499999989
 30
0.0
 11
1761.870535714286
 21
739.47937499999989
 31
0.0
  0
LINE
  5
17B
  8
33
  6
CONTINUOUS
 62
     7
 10
1397.8705357142851
 20
739.47937499999989
 30
0.0
 11
1417.189052240067
 21
744.65575590205037
 31
0.0
  0
LINE
  5
17C
  8
33
  6
CONTINUOUS
 62
     7
 10
1397.8705357142851
 20
739.47937499999989
 30
0.0
 11
1417.189052240067
 21
734.30299409794952
 31
0.0
  0
LINE
  5
17D
  8
33
  6
CONTINUOUS
 62
     7
 10
1761.870535714286
 20
739.47937499999989
 30
0.0
 11
1742.5520191885039
 21
734.30299409794952
 31
0.0
  0
LINE
  5
17E
  8
33
  6
CONTINUOUS
 62
     7
 10
1761.870535714286
 20
739.47937499999989
 30
0.0
 11
1742.5520191885039
 21
744.65575590205037
 31
0.0
  0
LINE
  5
17F
  8
33
  6
CONTINUOUS
 62
     7
 10
1761.870535714286
 20
871.20982142857144
 30
0.0
 11
1761.870535714286
 21
734.479375
 31
0.0
  0
TEXT
  5
180
  8
33
 62
     7
 10
1539.870483398437
 20
744.47943115234398
 30
0.0
 40
20.0
  1
364%%p1_
 41
0.75
 51
15.0
 72
     1
 11
1579.870483398437
 21
744.47943115234398
 31
0.0
  0
LINE
  5
181
  8
33
  6
CONTINUOUS
 62
     7
 10
725.87053571428601
 20
694.24874999999986
 30
0.0
 11
737.87053571428601
 21
694.24874999999986
 31
0.0
  0
LINE
  5
182
  8
33
  6
CONTINUOUS
 62
     7
 10
737.87053571428601
 20
871.20982142857144
 30
0.0
 11
737.87053571428601
 21
689.24874999999986
 31
0.0
  0
LINE
  5
183
  8
33
  6
CONTINUOUS
 62
     7
 10
725.87053571428601
 20
871.20982142857144
 30
0.0
 11
725.87053571428601
 21
689.24874999999986
 31
0.0
  0
LINE
  5
184
  8
33
  6
CONTINUOUS
 62
     7
 10
685.87053571428589
 20
694.24874999999986
 30
0.0
 11
725.87053571428601
 21
694.24874999999986
 31
0.0
  0
LINE
  5
185
  8
33
  6
CONTINUOUS
 62
     7
 10
725.87053571428601
 20
694.24874999999986
 30
0.0
 11
706.55201918850435
 21
689.07236909794949
 31
0.0
  0
LINE
  5
186
  8
33
  6
CONTINUOUS
 62
     7
 10
725.87053571428601
 20
694.24874999999986
 30
0.0
 11
706.55201918850435
 21
699.42513090205046
 31
0.0
  0
TEXT
  5
187
  8
33
 62
     7
 10
672.32843017578148
 20
699.96374511718739
 30
0.0
 40
20.0
  1
12
 41
0.75
 51
15.0
 72
     1
 11
682.32843017578159
 21
699.96374511718739
 31
0.0
  0
LINE
  5
188
  8
33
  6
CONTINUOUS
 62
     7
 10
737.87053571428601
 20
694.24874999999986
 30
0.0
 11
1761.870535714286
 21
694.24874999999986
 31
0.0
  0
LINE
  5
189
  8
33
  6
CONTINUOUS
 62
     7
 10
737.87053571428601
 20
694.24874999999986
 30
0.0
 11
757.18905224006699
 21
699.42513090205046
 31
0.0
  0
LINE
  5
18A
  8
33
  6
CONTINUOUS
 62
     7
 10
737.87053571428601
 20
694.24874999999986
 30
0.0
 11
757.18905224006699
 21
689.07236909794949
 31
0.0
  0
LINE
  5
18B
  8
33
  6
CONTINUOUS
 62
     7
 10
1761.870535714286
 20
694.24874999999986
 30
0.0
 11
1742.5520191885039
 21
689.07236909794949
 31
0.0
  0
LINE
  5
18C
  8
33
  6
CONTINUOUS
 62
     7
 10
1761.870535714286
 20
694.24874999999986
 30
0.0
 11
1742.5520191885039
 21
699.42513090205046
 31
0.0
  0
LINE
  5
18D
  8
33
  6
CONTINUOUS
 62
     7
 10
1761.870535714286
 20
871.20982142857144
 30
0.0
 11
1761.870535714286
 21
689.24874999999986
 31
0.0
  0
TEXT
  5
18E
  8
33
 62
     7
 10
1191.120483398437
 20
699.24877929687489
 30
0.0
 40
20.0
  1
1024+2_-1
 41
0.75
 51
15.0
 72
     1
 11
1249.870483398437
 21
699.24877929687489
 31
0.0
  0
LINE
  5
18F
  8
33
  6
CONTINUOUS
 62
     7
 10
1761.870535714286
 20
694.24874999999986
 30
0.0
 11
1773.870535714286
 21
694.24874999999986
 31
0.0
  0
LINE
  5
190
  8
33
  6
CONTINUOUS
 62
     7
 10
1773.870535714286
 20
871.20982142857144
 30
0.0
 11
1773.870535714286
 21
689.24874999999986
 31
0.0
  0
LINE
  5
191
  8
33
  6
CONTINUOUS
 62
     7
 10
1773.870535714286
 20
694.24874999999986
 30
0.0
 11
1813.870535714286
 21
694.24874999999986
 31
0.0
  0
LINE
  5
192
  8
33
  6
CONTINUOUS
 62
     7
 10
1773.870535714286
 20
694.24874999999986
 30
0.0
 11
1793.189052240067
 21
699.42513090205046
 31
0.0
  0
LINE
  5
193
  8
33
  6
CONTINUOUS
 62
     7
 10
1773.870535714286
 20
694.24874999999986
 30
0.0
 11
1793.189052240067
 21
689.07236909794949
 31
0.0
  0
TEXT
  5
194
  8
33
 62
     7
 10
1799.958618164063
 20
699.4134521484375
 30
0.0
 40
20.0
  1
12
 41
0.75
 51
15.0
 72
     1
 11
1809.958618164062
 21
699.4134521484375
 31
0.0
  0
LINE
  5
195
  8
33
  6
CONTINUOUS
 62
     7
 10
710.87053571428589
 20
657.0
 30
0.0
 11
725.87053571428601
 21
657.0
 31
0.0
  0
LINE
  5
196
  8
33
  6
CONTINUOUS
 62
     7
 10
725.87053571428601
 20
871.20982142857144
 30
0.0
 11
725.87053571428601
 21
652.0
 31
0.0
  0
LINE
  5
197
  8
33
  6
CONTINUOUS
 62
     7
 10
710.87053571428589
 20
871.20982142857144
 30
0.0
 11
710.87053571428589
 21
652.0
 31
0.0
  0
LINE
  5
198
  8
33
  6
CONTINUOUS
 62
     7
 10
670.87053571428601
 20
657.0
 30
0.0
 11
710.87053571428589
 21
657.0
 31
0.0
  0
LINE
  5
199
  8
33
  6
CONTINUOUS
 62
     7
 10
710.87053571428589
 20
657.0
 30
0.0
 11
691.55201918850435
 21
651.82361909794952
 31
0.0
  0
LINE
  5
19A
  8
33
  6
CONTINUOUS
 62
     7
 10
710.87053571428589
 20
657.0
 30
0.0
 11
691.55201918850435
 21
662.17638090205048
 31
0.0
  0
TEXT
  5
19B
  8
33
 62
     7
 10
645.88311767578159
 20
664.05413818359386
 30
0.0
 40
20.0
  1
15%%p1_
 41
0.75
 51
15.0
 72
     1
 11
675.88311767578159
 21
664.05413818359386
 31
0.0
  0
LINE
  5
19C
  8
33
  6
CONTINUOUS
 62
     7
 10
725.87053571428601
 20
657.0
 30
0.0
 11
1773.870535714286
 21
657.0
 31
0.0
  0
LINE
  5
19D
  8
33
  6
CONTINUOUS
 62
     7
 10
725.87053571428601
 20
657.0
 30
0.0
 11
745.18905224006687
 21
662.17638090205048
 31
0.0
  0
LINE
  5
19E
  8
33
  6
CONTINUOUS
 62
     7
 10
725.87053571428601
 20
657.0
 30
0.0
 11
745.18905224006687
 21
651.82361909794952
 31
0.0
  0
LINE
  5
19F
  8
33
  6
CONTINUOUS
 62
     7
 10
1773.870535714286
 20
657.0
 30
0.0
 11
1754.5520191885039
 21
651.82361909794952
 31
0.0
  0
LINE
  5
1A0
  8
33
  6
CONTINUOUS
 62
     7
 10
1773.870535714286
 20
657.0
 30
0.0
 11
1754.5520191885039
 21
662.17638090205048
 31
0.0
  0
LINE
  5
1A1
  8
33
  6
CONTINUOUS
 62
     7
 10
1773.870535714286
 20
871.20982142857144
 30
0.0
 11
1773.870535714286
 21
652.0
 31
0.0
  0
TEXT
  5
1A2
  8
33
 62
     7
 10
1191.120483398437
 20
662.00006103515636
 30
0.0
 40
20.0
  1
1048+2_-1
 41
0.75
 51
15.0
 72
     1
 11
1249.870483398437
 21
662.00006103515636
 31
0.0
  0
LINE
  5
1A3
  8
33
  6
CONTINUOUS
 62
     7
 10
1773.870535714286
 20
657.0
 30
0.0
 11
1788.870535714286
 21
657.0
 31
0.0
  0
LINE
  5
1A4
  8
33
  6
CONTINUOUS
 62
     7
 10
1788.870535714286
 20
871.20982142857144
 30
0.0
 11
1788.870535714286
 21
652.0
 31
0.0
  0
LINE
  5
1A5
  8
33
  6
CONTINUOUS
 62
     7
 10
1788.870535714286
 20
657.0
 30
0.0
 11
1828.870535714286
 21
657.0
 31
0.0
  0
LINE
  5
1A6
  8
33
  6
CONTINUOUS
 62
     7
 10
1788.870535714286
 20
657.0
 30
0.0
 11
1808.189052240067
 21
662.17638090205048
 31
0.0
  0
LINE
  5
1A7
  8
33
  6
CONTINUOUS
 62
     7
 10
1788.870535714286
 20
657.0
 30
0.0
 11
1808.189052240067
 21
651.82361909794952
 31
0.0
  0
TEXT
  5
1A8
  8
33
 62
     7
 10
1787.992431640625
 20
662.71246337890648
 30
0.0
 40
20.0
  1
15%%p1_
 41
0.75
 51
15.0
 72
     1
 11
1817.992431640625
 21
662.71246337890648
 31
0.0
  0
LINE
  5
1A9
  8
33
  6
CONTINUOUS
 62
     7
 10
710.87053571428589
 20
617.09062500000005
 30
0.0
 11
1788.870535714286
 21
617.09062500000005
 31
0.0
  0
LINE
  5
1AA
  8
33
  6
CONTINUOUS
 62
     7
 10
710.87053571428589
 20
617.09062500000005
 30
0.0
 11
730.18905224006687
 21
622.26700590205053
 31
0.0
  0
LINE
  5
1AB
  8
33
  6
CONTINUOUS
 62
     7
 10
710.87053571428589
 20
617.09062500000005
 30
0.0
 11
730.18905224006687
 21
611.91424409794945
 31
0.0
  0
LINE
  5
1AC
  8
33
  6
CONTINUOUS
 62
     7
 10
1788.870535714286
 20
617.09062500000005
 30
0.0
 11
1769.5520191885039
 21
611.91424409794945
 31
0.0
  0
LINE
  5
1AD
  8
33
  6
CONTINUOUS
 62
     7
 10
1788.870535714286
 20
617.09062500000005
 30
0.0
 11
1769.5520191885039
 21
622.26700590205053
 31
0.0
  0
LINE
  5
1AE
  8
33
  6
CONTINUOUS
 62
     7
 10
1788.870535714286
 20
871.20982142857144
 30
0.0
 11
1788.870535714286
 21
612.09062500000005
 31
0.0
  0
LINE
  5
1AF
  8
33
  6
CONTINUOUS
 62
     7
 10
710.87053571428589
 20
871.20982142857144
 30
0.0
 11
710.87053571428589
 21
612.09062500000005
 31
0.0
  0
TEXT
  5
1B0
  8
33
 62
     7
 10
1191.120483398437
 20
622.09063720703148
 30
0.0
 40
20.0
  1
1078+2_-1
 41
0.75
 51
15.0
 72
     1
 11
1249.870483398437
 21
622.09063720703148
 31
0.0
  0
LINE
  5
1B1
  8
33
  6
CONTINUOUS
 62
     7
 10
710.87053571428589
 20
1339.5873214285709
 30
0.0
 11
938.87053571428601
 21
1339.5873214285709
 31
0.0
  0
LINE
  5
1B2
  8
33
  6
CONTINUOUS
 62
     7
 10
710.87053571428589
 20
1339.5873214285709
 30
0.0
 11
730.18905224006687
 21
1344.7637023306211
 31
0.0
  0
LINE
  5
1B3
  8
33
  6
CONTINUOUS
 62
     7
 10
710.87053571428589
 20
1339.5873214285709
 30
0.0
 11
730.18905224006687
 21
1334.410940526521
 31
0.0
  0
LINE
  5
1B4
  8
33
  6
CONTINUOUS
 62
     7
 10
938.87053571428601
 20
1339.5873214285709
 30
0.0
 11
919.55201918850435
 21
1334.410940526521
 31
0.0
  0
LINE
  5
1B5
  8
33
  6
CONTINUOUS
 62
     7
 10
938.87053571428601
 20
1339.5873214285709
 30
0.0
 11
919.55201918850435
 21
1344.7637023306211
 31
0.0
  0
LINE
  5
1B6
  8
33
  6
CONTINUOUS
 62
     7
 10
938.87053571428601
 20
1277.2098214285711
 30
0.0
 11
938.87053571428601
 21
1344.5873214285709
 31
0.0
  0
LINE
  5
1B7
  8
33
  6
CONTINUOUS
 62
     7
 10
710.87053571428589
 20
1210.7098214285711
 30
0.0
 11
710.87053571428589
 21
1344.5873214285709
 31
0.0
  0
TEXT
  5
1B8
  8
33
 62
     7
 10
787.37054443359398
 20
1344.587280273437
 30
0.0
 40
20.0
  1
212%%p1_
 41
0.75
 51
15.0
 72
     1
 11
824.87054443359409
 21
1344.587280273437
 31
0.0
  0
LINE
  5
1B9
  8
33
  6
CONTINUOUS
 62
     7
 10
710.87053571428589
 20
1210.7098214285711
 30
0.0
 11
710.87053571428589
 21
1384.4701785714281
 31
0.0
  0
LINE
  5
1BA
  8
33
  6
CONTINUOUS
 62
     7
 10
1788.870535714286
 20
1210.7098214285711
 30
0.0
 11
1788.870535714286
 21
1344.5873214285709
 31
0.0
  0
LINE
  5
1BB
  8
33
  6
CONTINUOUS
 62
     7
 10
1761.870535714286
 20
1421.0148214285709
 30
0.0
 11
1788.870535714286
 21
1421.0148214285709
 31
0.0
  0
LINE
  5
1BC
  8
33
  6
CONTINUOUS
 62
     7
 10
1788.870535714286
 20
1210.7098214285711
 30
0.0
 11
1788.870535714286
 21
1426.0148214285709
 31
0.0
  0
LINE
  5
1BD
  8
33
  6
CONTINUOUS
 62
     7
 10
1761.870535714286
 20
1119.2098214285711
 30
0.0
 11
1761.870535714286
 21
1426.0148214285709
 31
0.0
  0
LINE
  5
1BE
  8
33
  6
CONTINUOUS
 62
     7
 10
1788.870535714286
 20
1421.0148214285709
 30
0.0
 11
1828.870535714286
 21
1421.0148214285709
 31
0.0
  0
LINE
  5
1BF
  8
33
  6
CONTINUOUS
 62
     7
 10
1788.870535714286
 20
1421.0148214285709
 30
0.0
 11
1808.189052240067
 21
1426.191202330622
 31
0.0
  0
LINE
  5
1C0
  8
33
  6
CONTINUOUS
 62
     7
 10
1788.870535714286
 20
1421.0148214285709
 30
0.0
 11
1808.189052240067
 21
1415.838440526521
 31
0.0
  0
TEXT
  5
1C1
  8
33
 62
     7
 10
1749.818237304688
 20
1428.87548828125
 30
0.0
 40
20.0
  1
27%%p1_
 41
0.75
 51
15.0
 72
     1
 11
1782.318237304687
 21
1428.87548828125
 31
0.0
  0
LINE
  5
1C2
  8
33
  6
CONTINUOUS
 62
     7
 10
1406.628788120752
 20
1421.0148214285709
 30
0.0
 11
1761.870535714286
 21
1421.0148214285709
 31
0.0
  0
LINE
  5
1C3
  8
33
  6
CONTINUOUS
 62
     7
 10
1406.628788120752
 20
1421.0148214285709
 30
0.0
 11
1425.947304646533
 21
1426.191202330622
 31
0.0
  0
LINE
  5
1C4
  8
33
  6
CONTINUOUS
 62
     7
 10
1406.628788120752
 20
1421.0148214285709
 30
0.0
 11
1425.947304646533
 21
1415.838440526521
 31
0.0
  0
LINE
  5
1C5
  8
33
  6
CONTINUOUS
 62
     7
 10
1761.870535714286
 20
1421.0148214285709
 30
0.0
 11
1742.5520191885039
 21
1415.838440526521
 31
0.0
  0
LINE
  5
1C6
  8
33
  6
CONTINUOUS
 62
     7
 10
1761.870535714286
 20
1421.0148214285709
 30
0.0
 11
1742.5520191885039
 21
1426.191202330622
 31
0.0
  0
LINE
  5
1C7
  8
33
  6
CONTINUOUS
 62
     7
 10
1406.628788120752
 20
1295.2098214285711
 30
0.0
 11
1406.628788120752
 21
1426.0148214285709
 31
0.0
  0
TEXT
  5
1C8
  8
33
 62
     7
 10
1564.249633789062
 20
1426.014770507812
 30
0.0
 40
20.0
  1
358
 41
0.75
 51
15.0
 72
     1
 11
1584.249633789062
 21
1426.014770507812
 31
0.0
  0
LINE
  5
1C9
  8
33
  6
CONTINUOUS
 62
     7
 10
710.87053571428589
 20
1421.0148214285709
 30
0.0
 11
737.87053571428601
 21
1421.0148214285709
 31
0.0
  0
LINE
  5
1CA
  8
33
  6
CONTINUOUS
 62
     7
 10
737.87053571428601
 20
1213.2098214285711
 30
0.0
 11
737.87053571428601
 21
1426.0148214285709
 31
0.0
  0
LINE
  5
1CB
  8
33
  6
CONTINUOUS
 62
     7
 10
710.87053571428589
 20
1210.7098214285711
 30
0.0
 11
710.87053571428589
 21
1426.0148214285709
 31
0.0
  0
LINE
  5
1CC
  8
33
  6
CONTINUOUS
 62
     7
 10
670.87053571428601
 20
1421.0148214285709
 30
0.0
 11
710.87053571428589
 21
1421.0148214285709
 31
0.0
  0
LINE
  5
1CD
  8
33
  6
CONTINUOUS
 62
     7
 10
710.87053571428589
 20
1421.0148214285709
 30
0.0
 11
691.55201918850435
 21
1415.838440526521
 31
0.0
  0
LINE
  5
1CE
  8
33
  6
CONTINUOUS
 62
     7
 10
710.87053571428589
 20
1421.0148214285709
 30
0.0
 11
691.55201918850435
 21
1426.191202330622
 31
0.0
  0
TEXT
  5
1CF
  8
33
 62
     7
 10
694.88641357421909
 20
1426.639770507812
 30
0.0
 40
20.0
  1
27%%p1_
 41
0.75
 51
15.0
 72
     1
 11
727.38641357421909
 21
1426.639770507812
 31
0.0
  0
LINE
  5
1D0
  8
33
  6
CONTINUOUS
 62
     7
 10
737.87053571428601
 20
1421.0148214285709
 30
0.0
 11
1094.467967106377
 21
1421.0148214285709
 31
0.0
  0
LINE
  5
1D1
  8
33
  6
CONTINUOUS
 62
     7
 10
737.87053571428601
 20
1421.0148214285709
 30
0.0
 11
757.18905224006699
 21
1426.191202330622
 31
0.0
  0
LINE
  5
1D2
  8
33
  6
CONTINUOUS
 62
     7
 10
737.87053571428601
 20
1421.0148214285709
 30
0.0
 11
757.18905224006699
 21
1415.838440526521
 31
0.0
  0
LINE
  5
1D3
  8
33
  6
CONTINUOUS
 62
     7
 10
1094.467967106377
 20
1421.0148214285709
 30
0.0
 11
1075.1494505805961
 21
1415.838440526521
 31
0.0
  0
LINE
  5
1D4
  8
33
  6
CONTINUOUS
 62
     7
 10
1094.467967106377
 20
1421.0148214285709
 30
0.0
 11
1075.1494505805961
 21
1426.191202330622
 31
0.0
  0
LINE
  5
1D5
  8
33
  6
CONTINUOUS
 62
     7
 10
1094.467967106377
 20
1295.2098214285711
 30
0.0
 11
1094.467967106377
 21
1426.0148214285709
 31
0.0
  0
TEXT
  5
1D6
  8
33
 62
     7
 10
896.1692504882817
 20
1426.014770507812
 30
0.0
 40
20.0
  1
358
 41
0.75
 51
15.0
 72
     1
 11
916.16925048828159
 21
1426.014770507812
 31
0.0
  0
LINE
  5
1D7
  8
33
  6
CONTINUOUS
 62
     7
 10
798.87053571428601
 20
1152.2098214285711
 30
0.0
 11
798.87053571428601
 21
1302.7098214285711
 31
0.0
  0
LINE
  5
1D8
  8
33
  6
CONTINUOUS
 62
     7
 10
798.87053571428601
 20
1152.2098214285711
 30
0.0
 11
793.69415481223552
 21
1171.528337954353
 31
0.0
  0
LINE
  5
1D9
  8
33
  6
CONTINUOUS
 62
     7
 10
798.87053571428601
 20
1152.2098214285711
 30
0.0
 11
804.04691661633603
 21
1171.528337954353
 31
0.0
  0
LINE
  5
1DA
  8
33
  6
CONTINUOUS
 62
     7
 10
798.87053571428601
 20
1302.7098214285711
 30
0.0
 11
804.04691661633603
 21
1283.3913049027899
 31
0.0
  0
LINE
  5
1DB
  8
33
  6
CONTINUOUS
 62
     7
 10
798.87053571428601
 20
1302.7098214285711
 30
0.0
 11
793.69415481223552
 21
1283.3913049027899
 31
0.0
  0
LINE
  5
1DC
  8
33
  6
CONTINUOUS
 62
     7
 10
813.87053571428601
 20
1152.2098214285711
 30
0.0
 11
793.87053571428589
 21
1152.2098214285711
 31
0.0
  0
LINE
  5
1DD
  8
33
  6
CONTINUOUS
 62
     7
 10
802.87053571428589
 20
1302.7098214285711
 30
0.0
 11
793.87053571428589
 21
1302.7098214285711
 31
0.0
  0
TEXT
  5
1DE
  8
33
 62
     7
 10
823.71093749999989
 20
1188.203979492187
 30
0.0
 40
20.0
  1
153%%p1_
 50
90.0
 41
0.75
 51
15.0
 72
     1
 11
823.71093749999989
 21
1225.703979492187
 31
0.0
  0
LINE
  5
1DF
  8
33
  6
CONTINUOUS
 62
     7
 10
884.69082890333493
 20
1093.689552547786
 30
0.0
 11
993.05024252523629
 21
1210.7300903093569
 31
0.0
  0
LINE
  5
1E0
  8
33
  6
CONTINUOUS
 62
     7
 10
884.69082890333493
 20
1093.689552547786
 30
0.0
 11
851.87834690506804
 21
1058.2483258928571
 31
0.0
  0
LINE
  5
1E1
  8
33
  6
CONTINUOUS
 62
     7
 10
884.69082890333493
 20
1093.689552547786
 30
0.0
 11
875.36483066920346
 21
1075.9970186157291
 31
0.0
  0
LINE
  5
1E2
  8
33
  6
CONTINUOUS
 62
     7
 10
884.69082890333493
 20
1093.689552547786
 30
0.0
 11
867.76801055089993
 21
1083.030367822372
 31
0.0
  0
LINE
  5
1E3
  8
33
  6
CONTINUOUS
 62
     7
 10
851.87834690506804
 20
1058.2483258928571
 30
0.0
 11
781.87834690506804
 21
1058.2483258928571
 31
0.0
  0
LINE
  5
1E4
  8
33
  6
CONTINUOUS
 62
     7
 10
993.05024252523629
 20
1210.7300903093569
 30
0.0
 11
1013.431323457256
 21
1232.7439845591821
 31
0.0
  0
LINE
  5
1E5
  8
33
  6
CONTINUOUS
 62
     7
 10
993.05024252523629
 20
1210.7300903093569
 30
0.0
 11
1002.376240759368
 21
1228.4226242414129
 31
0.0
  0
LINE
  5
1E6
  8
33
  6
CONTINUOUS
 62
     7
 10
993.05024252523629
 20
1210.7300903093569
 30
0.0
 11
1009.973060877672
 21
1221.38927503477
 31
0.0
  0
TEXT
  5
1E7
  8
33
 62
     7
 10
756.37959710758525
 20
1062.190612792969
 30
0.0
 40
18.744029998779499
  1
%%c159.5%%p0.5_
 41
0.6031119018810001
 51
15.0
 72
     1
 11
806.30889892578148
 21
1062.190612792969
 31
0.0
  0
LINE
  5
1E8
  8
33
  6
CONTINUOUS
 62
     7
 10
1000.197062474842
 20
1085.317223815033
 30
0.0
 11
877.54400895372964
 21
1219.1024190421099
 31
0.0
  0
LINE
  5
1E9
  8
33
  6
CONTINUOUS
 62
     7
 10
1000.197062474842
 20
1085.317223815033
 30
0.0
 11
1021.805837518628
 21
1061.7472098214289
 31
0.0
  0
LINE
  5
1EA
  8
33
  6
CONTINUOUS
 62
     7
 10
1000.197062474842
 20
1085.317223815033
 30
0.0
 11
1017.06757581333
 21
1074.575446508838
 31
0.0
  0
LINE
  5
1EB
  8
33
  6
CONTINUOUS
 62
     7
 10
1000.197062474842
 20
1085.317223815033
 30
0.0
 11
1009.43646694776
 21
1067.5793151168291
 31
0.0
  0
LINE
  5
1EC
  8
33
  6
CONTINUOUS
 62
     7
 10
1021.805837518628
 20
1061.7472098214289
 30
0.0
 11
1091.8058375186281
 21
1061.7472098214289
 31
0.0
  0
LINE
  5
1ED
  8
33
  6
CONTINUOUS
 62
     7
 10
877.54400895372964
 20
1219.1024190421099
 30
0.0
 11
857.27077696676884
 21
1241.2156744515439
 31
0.0
  0
LINE
  5
1EE
  8
33
  6
CONTINUOUS
 62
     7
 10
877.54400895372964
 20
1219.1024190421099
 30
0.0
 11
860.67349561524077
 21
1229.844196348304
 31
0.0
  0
LINE
  5
1EF
  8
33
  6
CONTINUOUS
 62
     7
 10
877.54400895372964
 20
1219.1024190421099
 30
0.0
 11
868.30460448081146
 21
1236.840327740314
 31
0.0
  0
TEXT
  5
1F0
  8
33
 62
     7
 10
1024.508056640625
 20
1064.854187011719
 30
0.0
 40
20.0
  1
%%c181.5%%p0.5_
 41
0.75
 51
15.0
 72
     1
 11
1088.258056640625
 21
1064.854187011719
 31
0.0
  0
LINE
  5
1F1
  8
33
  6
CONTINUOUS
 62
     7
 10
1145.891422193878
 20
1061.7472098214289
 30
0.0
 11
1091.8058375186281
 21
1061.7472098214289
 31
0.0
  0
LINE
  5
1F2
  8
33
  6
CONTINUOUS
 62
     7
 10
756.64716198979602
 20
1058.2483258928571
 30
0.0
 11
785.05915178571388
 21
1058.2483258928571
 31
0.0
  0
LINE
  5
1F3
  8
33
  6
CONTINUOUS
 62
     7
 10
1720.2186425260661
 20
812.20681493522045
 30
0.0
 11
1694.085127525276
 21
871.20982142857099
 31
0.0
  0
LINE
  5
1F4
  8
33
  6
CONTINUOUS
 62
     7
 10
1720.2186425260661
 20
812.20681493522045
 30
0.0
 11
1707.6622523774381
 21
827.77399407710197
 31
0.0
  0
LINE
  5
1F5
  8
33
  6
CONTINUOUS
 62
     7
 10
1720.2186425260661
 20
812.20681493522045
 30
0.0
 11
1717.1280792484661
 21
831.96658261166738
 31
0.0
  0
TEXT
  5
1F6
  8
33
 62
     7
 10
1672.9983090977009
 20
854.6948706216175
 30
0.0
 40
20.0
  1
R70
 50
293.88943481445301
 41
0.75
 51
15.0
 72
     1
 11
1680.591552734375
 21
837.55120849609409
 31
0.0
  0
LINE
  5
1F7
  8
33
  6
CONTINUOUS
 62
     7
 10
1761.870535714286
 20
833.50150842044604
 30
0.0
 11
1699.4670360331629
 21
871.57505409450107
 31
0.0
  0
LINE
  5
1F8
  8
33
  6
CONTINUOUS
 62
     7
 10
1761.870535714286
 20
833.50150842044604
 30
0.0
 11
1742.6830887311301
 21
839.14436924352151
 31
0.0
  0
LINE
  5
1F9
  8
33
  6
CONTINUOUS
 62
     7
 10
1761.870535714286
 20
833.50150842044604
 30
0.0
 11
1748.075149604643
 21
847.98209273482689
 31
0.0
  0
TEXT
  5
1FA
  8
33
 62
     7
 10
1707.5613513432129
 20
873.13529060690496
 30
0.0
 40
20.0
  1
R82
 50
328.61184692382801
 41
0.75
 51
15.0
 72
     1
 11
1724.634521484375
 21
862.7186279296875
 31
0.0
  0
LINE
  5
1FB
  8
33
  6
CONTINUOUS
 62
     7
 10
1379.4730246189731
 20
1161.5086918045281
 30
0.0
 11
1324.531808035714
 21
1111.149541759095
 31
0.0
  0
LINE
  5
1FC
  8
33
  6
CONTINUOUS
 62
     7
 10
1379.4730246189731
 20
1161.5086918045281
 30
0.0
 11
1368.729502256487
 21
1144.639289703483
 31
0.0
  0
LINE
  5
1FD
  8
33
  6
CONTINUOUS
 62
     7
 10
1379.4730246189731
 20
1161.5086918045281
 30
0.0
 11
1361.7341602764111
 21
1152.271122219611
 31
0.0
  0
TEXT
  5
1FE
  8
33
 62
     7
 10
1328.607836310937
 20
1119.183687159785
 30
0.0
 40
20.0
  1
R70
 50
42.508388519287003
 41
0.75
 51
15.0
 72
     1
 11
1342.429931640625
 21
1131.85302734375
 31
0.0
  0
LINE
  5
1FF
  8
33
  6
CONTINUOUS
 62
     7
 10
1367.3873451718871
 20
826.731689075585
 30
0.0
 11
1321.2170758928571
 21
872.865895200414
 31
0.0
  0
LINE
  5
200
  8
33
  6
CONTINUOUS
 62
     7
 10
1367.3873451718871
 20
826.731689075585
 30
0.0
 11
1350.062931440576
 21
836.72492122871586
 31
0.0
  0
LINE
  5
201
  8
33
  6
CONTINUOUS
 62
     7
 10
1367.3873451718871
 20
826.731689075585
 30
0.0
 11
1357.3805788514651
 21
844.04828885176744
 31
0.0
  0
TEXT
  5
202
  8
33
 62
     7
 10
1327.2895440408979
 20
877.62904435583073
 30
0.0
 40
20.0
  1
R70
 50
315.02239990234398
 41
0.75
 51
15.0
 72
     1
 11
1340.552978515625
 21
864.3759765625
 31
0.0
  0
LINE
  5
203
  8
33
  6
CONTINUOUS
 62
     7
 10
1404.8684395113139
 20
1280.4002040048761
 30
0.0
 11
1426.977375293561
 21
1239.3616071428571
 31
0.0
  0
LINE
  5
204
  8
33
  6
CONTINUOUS
 62
     7
 10
1404.8684395113139
 20
1280.4002040048761
 30
0.0
 11
1418.5880855616699
 21
1265.8478395147681
 31
0.0
  0
LINE
  5
205
  8
33
  6
CONTINUOUS
 62
     7
 10
1404.8684395113139
 20
1280.4002040048761
 30
0.0
 11
1409.4738192768
 21
1260.9376636461341
 31
0.0
  0
TEXT
  5
206
  8
33
 62
     7
 10
1424.0420020943311
 20
1224.657358137569
 30
0.0
 40
20.0
  1
R82
 50
118.31289672851599
 41
0.75
 51
15.0
 72
     1
 11
1414.556274414062
 21
1242.264770507812
 31
0.0
  0
LINE
  5
207
  8
33
  6
CONTINUOUS
 62
     7
 10
1177.569730100166
 20
1200.7981765510719
 30
0.0
 11
1196.891880215124
 21
1241.7555803571429
 31
0.0
  0
LINE
  5
208
  8
33
  6
CONTINUOUS
 62
     7
 10
1177.569730100166
 20
1200.7981765510719
 30
0.0
 11
1181.130717405719
 21
1220.4786076797261
 31
0.0
  0
LINE
  5
209
  8
33
  6
CONTINUOUS
 62
     7
 10
1177.569730100166
 20
1200.7981765510719
 30
0.0
 11
1190.4938511336561
 21
1216.06143621314
 31
0.0
  0
TEXT
  5
20A
  8
33
 62
     7
 10
1177.779170595499
 20
1263.434620446078
 30
0.0
 40
20.0
  1
R48
 50
244.74383544921901
 41
0.75
 51
15.0
 72
     1
 11
1169.245849609375
 21
1245.346435546875
 31
0.0
  0
LINE
  5
20B
  8
33
  6
CONTINUOUS
 62
     7
 10
1169.7807424899929
 20
1191.286611500821
 30
0.0
 11
1144.9497198905481
 21
1144.7996651785711
 31
0.0
  0
LINE
  5
20C
  8
33
  6
CONTINUOUS
 62
     7
 10
1169.7807424899929
 20
1191.286611500821
 30
0.0
 11
1165.2446826090261
 21
1171.8077983758831
 31
0.0
  0
LINE
  5
20D
  8
33
  6
CONTINUOUS
 62
     7
 10
1169.7807424899929
 20
1191.286611500821
 30
0.0
 11
1156.112992837519
 21
1176.6854944395391
 31
0.0
  0
TEXT
  5
20E
  8
33
 62
     7
 10
1132.5944228287019
 20
1185.2777618625701
 30
0.0
 40
20.0
  1
R60
 50
241.89108276367199
 41
0.75
 51
15.0
 72
     1
 11
1123.760375976562
 21
1168.7392578125
 31
0.0
  0
LINE
  5
20F
  8
33
  6
CONTINUOUS
 62
     7
 10
721.7148889654585
 20
831.64296677972652
 30
0.0
 11
810.80751753826553
 21
877.72907230758995
 31
0.0
  0
LINE
  5
210
  8
33
  6
CONTINUOUS
 62
     7
 10
721.7148889654585
 20
831.64296677972652
 30
0.0
 11
736.49534535966347
 21
845.11657464024449
 31
0.0
  0
LINE
  5
211
  8
33
  6
CONTINUOUS
 62
     7
 10
721.7148889654585
 20
831.64296677972652
 30
0.0
 11
741.25194361262686
 21
835.9212252704624
 31
0.0
  0
TEXT
  5
212
  8
33
 62
     7
 10
761.47453343387474
 20
860.09984128922792
 30
0.0
 40
20.0
  1
R97
 50
27.351745605468999
 41
0.75
 51
15.0
 72
     1
 11
779.23858642578148
 21
869.28887939453159
 31
0.0
  0
LINE
  5
213
  8
33
  6
CONTINUOUS
 62
     7
 10
785.412635836768
 20
809.91017789188709
 30
0.0
 11
804.18949747167255
 21
865.3427535076529
 31
0.0
  0
LINE
  5
214
  8
33
  6
CONTINUOUS
 62
     7
 10
785.412635836768
 20
809.91017789188709
 30
0.0
 11
786.70779442679839
 21
829.86819793964446
 31
0.0
  0
LINE
  5
215
  8
33
  6
CONTINUOUS
 62
     7
 10
785.412635836768
 20
809.91017789188709
 30
0.0
 11
796.51328610154235
 21
826.54675096746848
 31
0.0
  0
TEXT
  5
216
  8
33
 62
     7
 10
815.50835665042109
 20
819.86848597473681
 30
0.0
 40
20.0
  1
R70
 50
71.287048339843992
 41
0.75
 51
15.0
 72
     1
 11
821.52386474609409
 21
837.6273193359375
 31
0.0
  0
LINE
  5
217
  8
33
  6
CONTINUOUS
 62
     7
 10
1109.5013902243129
 20
1272.0037327999139
 30
0.0
 11
1073.865590599906
 21
1227.878427933673
 31
0.0
  0
LINE
  5
218
  8
33
  6
CONTINUOUS
 62
     7
 10
1109.5013902243129
 20
1272.0037327999139
 30
0.0
 11
1101.390739614377
 21
1253.722120543782
 31
0.0
  0
LINE
  5
219
  8
33
  6
CONTINUOUS
 62
     7
 10
1109.5013902243129
 20
1272.0037327999139
 30
0.0
 11
1093.336554626823
 21
1260.226717468935
 31
0.0
  0
TEXT
  5
21A
  8
33
 62
     7
 10
1056.236329562231
 20
1222.581989085272
 30
0.0
 40
20.0
  1
R82
 50
51.075496673584013
 41
0.75
 51
15.0
 72
     1
 11
1068.80224609375
 21
1238.141479492187
 31
0.0
  0
LINE
  5
21B
  8
33
  6
CONTINUOUS
 62
     7
 10
1514.8611093497191
 20
1269.476706407542
 30
0.0
 11
1544.330117984694
 21
1245.464973882395
 31
0.0
  0
LINE
  5
21C
  8
33
  6
CONTINUOUS
 62
     7
 10
1514.8611093497191
 20
1269.476706407542
 30
0.0
 11
1533.1072877631771
 21
1261.2866530924371
 31
0.0
  0
LINE
  5
21D
  8
33
  6
CONTINUOUS
 62
     7
 10
1514.8611093497191
 20
1269.476706407542
 30
0.0
 11
1526.5677367202049
 21
1253.2608229715829
 31
0.0
  0
TEXT
  5
21E
  8
33
 62
     7
 10
1534.7667299803859
 20
1262.3595212105331
 30
0.0
 40
14.409255027771
  1
R40
 50
320.826416015625
 41
0.6806297276250001
 51
15.0
 72
     1
 11
1544.2705078125
 21
1254.61572265625
 31
0.0
  0
LINE
  5
21F
  8
33
  6
CONTINUOUS
 62
     7
 10
741.0797137663161
 20
1255.780674936939
 30
0.0
 11
791.56365593112241
 21
1219.8241745195951
 31
0.0
  0
LINE
  5
220
  8
33
  6
CONTINUOUS
 62
     7
 10
741.0797137663161
 20
1255.780674936939
 30
0.0
 11
759.81806078055149
 21
1248.7896556139731
 31
0.0
  0
LINE
  5
221
  8
33
  6
CONTINUOUS
 62
     7
 10
741.0797137663161
 20
1255.780674936939
 30
0.0
 11
753.8120886440895
 21
1240.3571010977851
 31
0.0
  0
TEXT
  5
222
  8
33
 62
     7
 10
745.07197958624602
 20
1223.100568078976
 30
0.0
 40
20.0
  1
R82
 50
324.54016113281301
 41
0.75
 51
15.0
 72
     1
 11
761.36242675781239
 21
1211.497924804687
 31
0.0
  0
LINE
  5
223
  8
33
  6
CONTINUOUS
 62
     7
 10
1788.870535714286
 20
529.20982142857144
 30
0.0
 11
710.87053571428589
 21
529.20982142857144
 31
0.0
  0
LINE
  5
224
  8
33
  6
CONTINUOUS
 62
     7
 10
710.87053571428589
 20
529.20982142857144
 30
0.0
 11
725.87053571428601
 21
529.20982142857144
 31
0.0
  0
LINE
  5
225
  8
33
  6
CONTINUOUS
 62
     7
 10
725.87053571428601
 20
529.20982142857144
 30
0.0
 11
725.87053571428601
 21
512.20982142857144
 31
0.0
  0
LINE
  5
226
  8
33
  6
CONTINUOUS
 62
     7
 10
728.87053571428601
 20
509.20982142857139
 30
0.0
 11
734.87053571428589
 21
509.20982142857139
 31
0.0
  0
LINE
  5
227
  8
33
  6
CONTINUOUS
 62
     7
 10
737.87053571428601
 20
506.20982142857139
 30
0.0
 11
737.87053571428601
 21
401.94409419277798
 31
0.0
  0
LINE
  5
228
  8
33
  6
CONTINUOUS
 62
     7
 10
848.12053571428601
 20
329.2098214285715
 30
0.0
 11
1029.6205357142851
 21
329.2098214285715
 31
0.0
  0
LINE
  5
229
  8
33
  6
CONTINUOUS
 62
     7
 10
1387.8705357142851
 20
418.31672512755091
 30
0.0
 11
1387.8705357142851
 21
463.977729475898
 31
0.0
  0
LINE
  5
22A
  8
33
  6
CONTINUOUS
 62
     7
 10
1773.870535714286
 20
529.20982142857144
 30
0.0
 11
1773.870535714286
 21
519.20982142857144
 31
0.0
  0
LINE
  5
22B
  8
33
  6
CONTINUOUS
 62
     7
 10
1770.8705357142851
 20
509.20982142857139
 30
0.0
 11
1761.870535714286
 21
509.20982142857139
 31
0.0
  0
LINE
  5
22C
  8
33
  6
CONTINUOUS
 62
     7
 10
1761.870535714286
 20
509.20982142857139
 30
0.0
 11
1761.870535714286
 21
484.07791856699038
 31
0.0
  0
LINE
  5
22D
  8
33
  6
CONTINUOUS
 62
     7
 10
1757.0041777907679
 20
479.07970490655202
 30
0.0
 11
1399.248289729047
 21
469.51403945035651
 31
0.0
  0
LINE
  5
22E
  8
33
  6
DASHDOT
 62
     7
 10
938.87053571428601
 20
564.888392857143
 30
0.0
 11
938.87053571428601
 21
295.2901785714285
 31
0.0
  0
LINE
  5
22F
  8
33
  6
CONTINUOUS
 62
     7
 10
737.87053571428601
 20
509.20982142857139
 30
0.0
 11
1769.09375
 21
509.20982142857139
 31
0.0
  0
LINE
  5
230
  8
33
  6
CONTINUOUS
 62
     7
 10
1406.628788120752
 20
521.20982142857144
 30
0.0
 11
1376.628788120752
 21
521.20982142857144
 31
0.0
  0
LINE
  5
231
  8
33
  6
CONTINUOUS
 62
     7
 10
1094.467967106377
 20
521.20982142857144
 30
0.0
 11
1381.2735092474491
 21
521.20982142857144
 31
0.0
  0
LINE
  5
232
  8
33
  6
CONTINUOUS
 62
     7
 10
1317.870535714286
 20
516.20982142857144
 30
0.0
 11
1517.870535714286
 21
516.20982142857144
 31
0.0
  0
LINE
  5
233
  8
33
  6
CONTINUOUS
 62
     7
 10
1770.8705357142851
 20
516.20982142857144
 30
0.0
 11
1510.526964285714
 21
516.20982142857144
 31
0.0
  0
LINE
  5
234
  8
33
  6
CONTINUOUS
 62
     7
 10
1029.620535714286
 20
329.2098214285715
 30
0.0
 11
1029.620535714286
 21
321.2098214285715
 31
0.0
  0
LINE
  5
235
  8
33
  6
CONTINUOUS
 62
     7
 10
848.12053571428601
 20
329.2098214285715
 30
0.0
 11
848.12053571428601
 21
321.2098214285715
 31
0.0
  0
LINE
  5
236
  8
33
  6
CONTINUOUS
 62
     7
 10
1029.6205357142851
 20
321.2098214285715
 30
0.0
 11
848.62053571428532
 21
321.2098214285715
 31
0.0
  0
LINE
  5
237
  8
33
  6
CONTINUOUS
 62
     7
 10
1029.620535714286
 20
329.2098214285715
 30
0.0
 11
1363.4834158615649
 21
347.84836323721203
 31
0.0
  0
LINE
  5
238
  8
33
  6
CONTINUOUS
 62
     7
 10
1390.008492057586
 20
466.85120833156151
 30
0.0
 11
1398.4664313182379
 21
469.38859010975688
 31
0.0
  0
LINE
  5
239
  8
33
  6
CONTINUOUS
 62
     7
 10
848.12053571428601
 20
329.2098214285715
 30
0.0
 11
763.45605947986485
 21
333.0494802147129
 31
0.0
  0
ARC
  5
23A
  8
33
  6
CONTINUOUS
 62
     7
 10
3337.8705357142858
 20
421.70982142857139
 30
0.0
 40
2600.0
 50
180.0
 51
181.395515867641
  0
ARC
  5
23B
  8
33
  6
CONTINUOUS
 62
     7
 10
764.63398706915746
 20
359.02278355861552
 30
0.0
 40
26.0
 50
181.395515867641
 51
267.40333121236398
  0
ARC
  5
23C
  8
33
  6
CONTINUOUS
 62
     7
 10
-1212.129464285714
 20
436.20982142857139
 30
0.0
 40
2600.0
 50
358.589150217662
 51
0.0
  0
ARC
  5
23D
  8
33
  6
CONTINUOUS
 62
     7
 10
1362.0899122890551
 20
372.809495979806
 30
0.0
 40
25.0
 50
273.19533102605601
 51
358.589150217662
  0
ARC
  5
23E
  8
33
  6
CONTINUOUS
 62
     7
 10
1756.8705357142851
 20
484.07791856699038
 30
0.0
 40
5.0
 50
271.53160779201198
 51
0.0
  0
ARC
  5
23F
  8
33
  6
CONTINUOUS
 62
     7
 10
1770.8705357142851
 20
512.20982142857144
 30
0.0
 40
3.0
 50
270.0
 51
0.0
  0
ARC
  5
240
  8
33
  6
CONTINUOUS
 62
     7
 10
728.87053571428601
 20
512.20982142857144
 30
0.0
 40
3.0
 50
180.0
 51
270.0
  0
ARC
  5
241
  8
33
  6
CONTINUOUS
 62
     7
 10
734.87053571428589
 20
506.20982142857139
 30
0.0
 40
3.0
 50
0.0
 51
90.0
  0
ARC
  5
242
  8
33
  6
CONTINUOUS
 62
     7
 10
1770.8705357142851
 20
519.20982142857144
 30
0.0
 40
3.0
 50
270.0
 51
0.0
  0
LINE
  5
243
  8
33
  6
CONTINUOUS
 62
     7
 10
1773.870535714286
 20
519.20982142857144
 30
0.0
 11
1773.870535714286
 21
512.20982142857144
 31
0.0
  0
ARC
  5
244
  8
33
  6
CONTINUOUS
 62
     7
 10
1399.3284749749359
 20
466.51511125409343
 30
0.0
 40
3.0
 50
91.531607792011997
 51
106.699244233991
  0
ARC
  5
245
  8
33
  6
CONTINUOUS
 62
     7
 10
1399.3284749749359
 20
466.51511125409343
 30
0.0
 40
3.0
 50
91.531607792011997
 51
106.6992442339959
  0
ARC
  5
246
  8
33
  6
CONTINUOUS
 62
     7
 10
1390.870535714286
 20
463.977729475898
 30
0.0
 40
3.0
 50
106.6992442339959
 51
180.0
  0
ARC
  5
247
  8
33
  6
CONTINUOUS
 62
     7
 10
1399.3284749749359
 20
466.51511125409343
 30
0.0
 40
3.0
 50
91.531607792011997
 51
106.699244233991
  0
LINE
  5
248
  8
33
  6
CONTINUOUS
 62
     7
 10
1880.490848214286
 20
469.38859010975688
 30
0.0
 11
1880.490848214286
 21
479.07970490655202
 31
0.0
  0
LINE
  5
249
  8
33
  6
CONTINUOUS
 62
     7
 10
1403.466431318237
 20
469.38859010975688
 30
0.0
 11
1885.490848214286
 21
469.38859010975688
 31
0.0
  0
LINE
  5
24A
  8
33
  6
CONTINUOUS
 62
     7
 10
1762.0041777907679
 20
479.07970490655202
 30
0.0
 11
1885.490848214286
 21
479.07970490655202
 31
0.0
  0
LINE
  5
24B
  8
33
  6
CONTINUOUS
 62
     7
 10
1880.490848214286
 20
429.38859010975699
 30
0.0
 11
1880.490848214286
 21
469.38859010975688
 31
0.0
  0
LINE
  5
24C
  8
33
  6
CONTINUOUS
 62
     7
 10
1880.490848214286
 20
469.38859010975688
 30
0.0
 11
1885.6672291163361
 21
450.0700735839755
 31
0.0
  0
LINE
  5
24D
  8
33
  6
CONTINUOUS
 62
     7
 10
1880.490848214286
 20
469.38859010975688
 30
0.0
 11
1875.3144673122349
 21
450.0700735839755
 31
0.0
  0
TEXT
  5
24E
  8
33
 62
     7
 10
1874.132446289062
 20
437.314453125
 30
0.0
 40
20.0
  1
10
 50
90.0
 41
0.75
 51
15.0
 72
     1
 11
1874.132446289062
 21
446.06445312499989
 31
0.0
  0
LINE
  5
24F
  8
33
  6
CONTINUOUS
 62
     7
 10
1880.490848214286
 20
479.07970490655202
 30
0.0
 11
1880.490848214286
 21
529.20982142857144
 31
0.0
  0
LINE
  5
250
  8
33
  6
CONTINUOUS
 62
     7
 10
1880.490848214286
 20
479.07970490655202
 30
0.0
 11
1875.3144673122349
 21
498.39822143233351
 31
0.0
  0
LINE
  5
251
  8
33
  6
CONTINUOUS
 62
     7
 10
1880.490848214286
 20
479.07970490655202
 30
0.0
 11
1885.6672291163361
 21
498.39822143233351
 31
0.0
  0
LINE
  5
252
  8
33
  6
CONTINUOUS
 62
     7
 10
1880.490848214286
 20
529.20982142857144
 30
0.0
 11
1885.6672291163361
 21
509.89130490279001
 31
0.0
  0
LINE
  5
253
  8
33
  6
CONTINUOUS
 62
     7
 10
1880.490848214286
 20
529.20982142857144
 30
0.0
 11
1875.3144673122349
 21
509.89130490279001
 31
0.0
  0
LINE
  5
254
  8
33
  6
CONTINUOUS
 62
     7
 10
1793.870535714286
 20
529.20982142857144
 30
0.0
 11
1885.490848214286
 21
529.20982142857144
 31
0.0
  0
TEXT
  5
255
  8
33
 62
     7
 10
1874.132446289062
 20
490.58615112304699
 30
0.0
 40
20.0
  1
50
 50
90.0
 41
0.75
 51
15.0
 72
     1
 11
1874.132446289062
 21
501.83615112304699
 31
0.0
  0
LINE
  5
256
  8
33
  6
CONTINUOUS
 62
     7
 10
1825.7977678571431
 20
509.20982142857099
 30
0.0
 11
1825.7977678571431
 21
529.20982142857144
 31
0.0
  0
LINE
  5
257
  8
33
  6
CONTINUOUS
 62
     7
 10
1775.870535714286
 20
509.20982142857139
 30
0.0
 11
1830.7977678571431
 21
509.20982142857099
 31
0.0
  0
LINE
  5
258
  8
33
  6
CONTINUOUS
 62
     7
 10
1793.870535714286
 20
529.20982142857144
 30
0.0
 11
1830.7977678571431
 21
529.20982142857144
 31
0.0
  0
LINE
  5
259
  8
33
  6
CONTINUOUS
 62
     7
 10
1825.7977678571431
 20
479.20982142857099
 30
0.0
 11
1825.7977678571431
 21
509.20982142857099
 31
0.0
  0
LINE
  5
25A
  8
33
  6
CONTINUOUS
 62
     7
 10
1825.7977678571431
 20
509.20982142857099
 30
0.0
 11
1830.974148759193
 21
489.89130490279001
 31
0.0
  0
LINE
  5
25B
  8
33
  6
CONTINUOUS
 62
     7
 10
1825.7977678571431
 20
509.20982142857099
 30
0.0
 11
1820.621386955092
 21
489.89130490279001
 31
0.0
  0
LINE
  5
25C
  8
33
  6
CONTINUOUS
 62
     7
 10
1825.7977678571431
 20
529.20982142857144
 30
0.0
 11
1825.7977678571431
 21
560.53504464285697
 31
0.0
  0
LINE
  5
25D
  8
33
  6
CONTINUOUS
 62
     7
 10
1825.7977678571431
 20
529.20982142857144
 30
0.0
 11
1820.621386955092
 21
548.52833795435254
 31
0.0
  0
LINE
  5
25E
  8
33
  6
CONTINUOUS
 62
     7
 10
1825.7977678571431
 20
529.20982142857144
 30
0.0
 11
1830.974148759193
 21
548.52833795435254
 31
0.0
  0
TEXT
  5
25F
  8
33
 62
     7
 10
1818.360717773438
 20
539.38635253906239
 30
0.0
 40
20.0
  1
20
 50
90.0
 41
0.75
 51
15.0
 72
     1
 11
1818.360717773438
 21
550.63635253906239
 31
0.0
  0
LINE
  5
260
  8
33
  6
DASHED
 62
     7
 10
1745.870535714286
 20
516.20982142857144
 30
0.0
 11
1745.870535714286
 21
479.07970490655202
 31
0.0
  0
LINE
  5
261
  8
33
  6
DASHED
 62
     7
 10
1505.870535714286
 20
516.20982142857144
 30
0.0
 11
1505.870535714286
 21
473.27173920640399
 31
0.0
  0
LINE
  5
262
  8
33
  6
CONTINUOUS
 62
     7
 10
1505.8705357142851
 20
447.83971692518747
 30
0.0
 11
1505.870535714286
 21
473.27173920640399
 31
0.0
  0
LINE
  5
263
  8
33
  6
CONTINUOUS
 62
     7
 10
1745.870535714286
 20
447.83971692518747
 30
0.0
 11
1745.870535714286
 21
478.21497062579499
 31
0.0
  0
LINE
  5
264
  8
33
  6
DASHDOT
 62
     7
 10
1625.870535714286
 20
529.20982142857144
 30
0.0
 11
1625.870535714286
 21
418.43026785714289
 31
0.0
  0
LINE
  5
265
  8
33
  6
DASHDOT
 62
     7
 10
1625.870535714286
 20
542.31006855867338
 30
0.0
 11
1625.870535714286
 21
529.20982142857144
 31
0.0
  0
LINE
  5
266
  8
33
  6
CONTINUOUS
 62
     7
 10
1760.1920377130939
 20
480.34059004625391
 30
0.0
 11
1740.5652588353871
 21
502.4244907924105
 31
0.0
  0
LINE
  5
267
  8
33
  6
CONTINUOUS
 62
     7
 10
1760.1920377130939
 20
480.34059004625391
 30
0.0
 11
1743.4895722663291
 21
491.341846701728
 31
0.0
  0
LINE
  5
268
  8
33
  6
CONTINUOUS
 62
     7
 10
1760.1920377130939
 20
480.34059004625391
 30
0.0
 11
1751.2279066581009
 21
498.21919050682948
 31
0.0
  0
TEXT
  5
269
  8
33
 62
     7
 10
1715.26806503692
 20
498.91865043037302
 30
0.0
 40
15.1738681793215
  1
R5
 50
311.628662109375
 41
0.721173852932
 51
15.0
 72
     1
 11
1721.325927734375
 21
492.10238647460949
 31
0.0
  0
LINE
  5
26A
  8
33
  6
CONTINUOUS
 62
     7
 10
1387.8705357142851
 20
486.18323501275489
 30
0.0
 11
1398.4664313182379
 21
486.18323501275489
 31
0.0
  0
LINE
  5
26B
  8
33
  6
CONTINUOUS
 62
     7
 10
1398.4664313182379
 20
474.38859010975688
 30
0.0
 11
1398.4664313182379
 21
491.18323501275489
 31
0.0
  0
LINE
  5
26C
  8
33
  6
CONTINUOUS
 62
     7
 10
1387.8705357142851
 20
468.977729475898
 30
0.0
 11
1387.8705357142851
 21
491.18323501275489
 31
0.0
  0
LINE
  5
26D
  8
33
  6
CONTINUOUS
 62
     7
 10
1398.4664313182379
 20
486.18323501275489
 30
0.0
 11
1428.4664313182379
 21
486.18323501275489
 31
0.0
  0
LINE
  5
26E
  8
33
  6
CONTINUOUS
 62
     7
 10
1398.4664313182379
 20
486.18323501275489
 30
0.0
 11
1417.784947844018
 21
491.35961591480549
 31
0.0
  0
LINE
  5
26F
  8
33
  6
CONTINUOUS
 62
     7
 10
1398.4664313182379
 20
486.18323501275489
 30
0.0
 11
1417.784947844018
 21
481.00685411070452
 31
0.0
  0
LINE
  5
270
  8
33
  6
CONTINUOUS
 62
     7
 10
1357.870535714286
 20
486.18323501275489
 30
0.0
 11
1387.8705357142851
 21
486.18323501275489
 31
0.0
  0
LINE
  5
271
  8
33
  6
CONTINUOUS
 62
     7
 10
1387.8705357142851
 20
486.18323501275489
 30
0.0
 11
1368.5520191885039
 21
481.00685411070452
 31
0.0
  0
LINE
  5
272
  8
33
  6
CONTINUOUS
 62
     7
 10
1387.8705357142851
 20
486.18323501275489
 30
0.0
 11
1368.5520191885039
 21
491.35961591480549
 31
0.0
  0
TEXT
  5
273
  8
33
 62
     7
 10
1383.982403198874
 20
491.0361633300779
 30
0.0
 40
15.863363265991
  1
10
 41
0.7505653801130001
 51
15.0
 72
     1
 11
1390.927856445312
 21
491.0361633300779
 31
0.0
  0
LINE
  5
274
  8
33
  6
CONTINUOUS
 62
     7
 10
1360.123893537605
 20
466.85120833156151
 30
0.0
 11
1360.123893537605
 21
469.51403945035651
 31
0.0
  0
LINE
  5
275
  8
33
  6
CONTINUOUS
 62
     7
 10
1385.008492057586
 20
466.85120833156151
 30
0.0
 11
1355.123893537605
 21
466.85120833156151
 31
0.0
  0
LINE
  5
276
  8
33
  6
CONTINUOUS
 62
     7
 10
1394.248289729047
 20
469.51403945035651
 30
0.0
 11
1355.123893537605
 21
469.51403945035651
 31
0.0
  0
LINE
  5
277
  8
33
  6
CONTINUOUS
 62
     7
 10
1360.123893537605
 20
436.85120833156139
 30
0.0
 11
1360.123893537605
 21
466.85120833156151
 31
0.0
  0
LINE
  5
278
  8
33
  6
CONTINUOUS
 62
     7
 10
1360.123893537605
 20
466.85120833156151
 30
0.0
 11
1365.3002744396549
 21
447.53269180578042
 31
0.0
  0
LINE
  5
279
  8
33
  6
CONTINUOUS
 62
     7
 10
1360.123893537605
 20
466.85120833156151
 30
0.0
 11
1354.9475126355539
 21
447.53269180578042
 31
0.0
  0
LINE
  5
27A
  8
33
  6
CONTINUOUS
 62
     7
 10
1360.123893537605
 20
469.51403945035651
 30
0.0
 11
1360.123893537605
 21
499.51403945035651
 31
0.0
  0
LINE
  5
27B
  8
33
  6
CONTINUOUS
 62
     7
 10
1360.123893537605
 20
469.51403945035651
 30
0.0
 11
1354.9475126355539
 21
488.832555976138
 31
0.0
  0
LINE
  5
27C
  8
33
  6
CONTINUOUS
 62
     7
 10
1360.123893537605
 20
469.51403945035651
 30
0.0
 11
1365.3002744396549
 21
488.832555976138
 31
0.0
  0
TEXT
  5
27D
  8
33
 62
     7
 10
1352.621215820312
 20
447.92410278320301
 30
0.0
 40
20.0
  1
3
 50
90.0
 41
0.75
 51
15.0
 72
     1
 11
1352.621215820312
 21
452.9241027832029
 31
0.0
  0
LINE
  5
27E
  8
33
  6
CONTINUOUS
 62
     7
 10
1398.4664313182379
 20
469.38859010975688
 30
0.0
 11
1407.48457432999
 21
439.32811340391351
 31
0.0
  0
LINE
  5
27F
  8
33
  6
CONTINUOUS
 62
     7
 10
1398.4664313182379
 20
469.38859010975688
 30
0.0
 11
1408.9756398844991
 21
452.37222929697441
 31
0.0
  0
LINE
  5
280
  8
33
  6
CONTINUOUS
 62
     7
 10
1398.4664313182379
 20
469.38859010975688
 30
0.0
 11
1399.0594925038979
 21
449.39738508279402
 31
0.0
  0
TEXT
  5
281
  8
33
 62
     7
 10
1420.995047863611
 20
411.75007214091403
 30
0.0
 40
20.0
  1
R3
 50
106.699249267578
 41
0.75
 51
15.0
 72
     1
 11
1417.403198242187
 21
423.72290039062489
 31
0.0
  0
LINE
  5
282
  8
33
  6
CONTINUOUS
 62
     7
 10
1381.3499462608311
 20
356.87051572992749
 30
0.0
 11
1350.174744897959
 21
382.6701025601979
 31
0.0
  0
LINE
  5
283
  8
33
  6
CONTINUOUS
 62
     7
 10
1381.3499462608311
 20
356.87051572992749
 30
0.0
 11
1363.166685559451
 21
365.19932298340899
 31
0.0
  0
LINE
  5
284
  8
33
  6
CONTINUOUS
 62
     7
 10
1381.3499462608311
 20
356.87051572992749
 30
0.0
 11
1369.7671841965409
 21
373.17510474535652
 31
0.0
  0
TEXT
  5
285
  8
33
 62
     7
 10
1307.748831083582
 20
383.59621341203427
 30
0.0
 40
20.0
  1
R25
 50
320.38995361328091
 41
0.75
 51
15.0
 72
     1
 11
1323.156860351562
 21
370.84503173828159
 31
0.0
  0
LINE
  5
286
  8
33
  6
CONTINUOUS
 62
     7
 10
1419.941964285714
 20
329.2098214285715
 30
0.0
 11
1419.941964285714
 21
347.84836323721203
 31
0.0
  0
LINE
  5
287
  8
33
  6
CONTINUOUS
 62
     7
 10
1034.620535714286
 20
329.2098214285715
 30
0.0
 11
1424.941964285714
 21
329.2098214285715
 31
0.0
  0
LINE
  5
288
  8
33
  6
CONTINUOUS
 62
     7
 10
1368.4834158615649
 20
347.84836323721203
 30
0.0
 11
1424.941964285714
 21
347.84836323721203
 31
0.0
  0
LINE
  5
289
  8
33
  6
CONTINUOUS
 62
     7
 10
1419.941964285714
 20
306.3392857142855
 30
0.0
 11
1419.941964285714
 21
329.2098214285715
 31
0.0
  0
LINE
  5
28A
  8
33
  6
CONTINUOUS
 62
     7
 10
1419.941964285714
 20
329.2098214285715
 30
0.0
 11
1425.118345187765
 21
309.89130490279001
 31
0.0
  0
LINE
  5
28B
  8
33
  6
CONTINUOUS
 62
     7
 10
1419.941964285714
 20
329.2098214285715
 30
0.0
 11
1414.7655833836641
 21
309.89130490279001
 31
0.0
  0
LINE
  5
28C
  8
33
  6
CONTINUOUS
 62
     7
 10
1419.941964285714
 20
347.84836323721203
 30
0.0
 11
1419.941964285714
 21
377.84836323721203
 31
0.0
  0
LINE
  5
28D
  8
33
  6
CONTINUOUS
 62
     7
 10
1419.941964285714
 20
347.84836323721203
 30
0.0
 11
1414.7655833836641
 21
367.16687976299352
 31
0.0
  0
LINE
  5
28E
  8
33
  6
CONTINUOUS
 62
     7
 10
1419.941964285714
 20
347.84836323721203
 30
0.0
 11
1425.118345187765
 21
367.16687976299352
 31
0.0
  0
TEXT
  5
28F
  8
33
 62
     7
 10
1451.536987304687
 20
303.81695556640648
 30
0.0
 40
20.0
  1
20%%p1_
 50
90.0
 41
0.75
 51
15.0
 72
     1
 11
1451.536987304687
 21
335.06695556640648
 31
0.0
  0
LINE
  5
290
  8
33
  6
CONTINUOUS
 62
     7
 10
737.94566399115752
 20
401.94466533317348
 30
0.0
 11
737.87053571428544
 21
401.94409419277798
 31
0.0
  0
LINE
  5
291
  8
33
  6
CONTINUOUS
 62
     7
 10
746.03223715677996
 20
340.85757229649801
 30
0.0
 11
775.05419642857134
 21
369.19845548737851
 31
0.0
  0
LINE
  5
292
  8
33
  6
CONTINUOUS
 62
     7
 10
746.03223715677996
 20
340.85757229649801
 30
0.0
 11
756.23716640415637
 21
358.05813679467798
 31
0.0
  0
LINE
  5
293
  8
33
  6
CONTINUOUS
 62
     7
 10
746.03223715677996
 20
340.85757229649801
 30
0.0
 11
763.47024737792049
 21
350.6512334876665
 31
0.0
  0
TEXT
  5
294
  8
33
 62
     7
 10
759.89793451654077
 20
362.13326415464059
 30
0.0
 40
20.0
  1
R25
 50
44.319763183593992
 41
0.75
 51
15.0
 72
     1
 11
774.20697021484409
 21
376.10650634765648
 31
0.0
  0
LINE
  5
295
  8
33
  6
CONTINUOUS
 62
     7
 10
682.30883290816348
 20
509.20982142857139
 30
0.0
 11
682.30883290816348
 21
529.20982142857144
 31
0.0
  0
LINE
  5
296
  8
33
  6
CONTINUOUS
 62
     7
 10
732.87053571428601
 20
509.20982142857139
 30
0.0
 11
677.30883290816348
 21
509.20982142857139
 31
0.0
  0
LINE
  5
297
  8
33
  6
CONTINUOUS
 62
     7
 10
705.87053571428589
 20
529.20982142857144
 30
0.0
 11
677.30883290816348
 21
529.20982142857144
 31
0.0
  0
LINE
  5
298
  8
33
  6
CONTINUOUS
 62
     7
 10
682.30883290816348
 20
479.20982142857139
 30
0.0
 11
682.30883290816348
 21
509.20982142857139
 31
0.0
  0
LINE
  5
299
  8
33
  6
CONTINUOUS
 62
     7
 10
682.30883290816348
 20
509.20982142857139
 30
0.0
 11
687.48521381021396
 21
489.89130490279001
 31
0.0
  0
LINE
  5
29A
  8
33
  6
CONTINUOUS
 62
     7
 10
682.30883290816348
 20
509.20982142857139
 30
0.0
 11
677.132452006113
 21
489.89130490279001
 31
0.0
  0
LINE
  5
29B
  8
33
  6
CONTINUOUS
 62
     7
 10
682.30883290816348
 20
529.20982142857144
 30
0.0
 11
682.30883290816348
 21
559.20982142857144
 31
0.0
  0
LINE
  5
29C
  8
33
  6
CONTINUOUS
 62
     7
 10
682.30883290816348
 20
529.20982142857144
 30
0.0
 11
677.132452006113
 21
548.52833795435254
 31
0.0
  0
LINE
  5
29D
  8
33
  6
CONTINUOUS
 62
     7
 10
682.30883290816348
 20
529.20982142857144
 30
0.0
 11
687.48521381021396
 21
548.52833795435254
 31
0.0
  0
TEXT
  5
29E
  8
33
 62
     7
 10
675.43585205078159
 20
537.47906494140636
 30
0.0
 40
20.0
  1
20
 50
90.0
 41
0.75
 51
15.0
 72
     1
 11
675.43585205078159
 21
548.72906494140636
 31
0.0
  0
LINE
  5
29F
  8
33
  6
CONTINUOUS
 62
     7
 10
682.30883290816348
 20
329.2098214285715
 30
0.0
 11
682.30883290816348
 21
509.20982142857139
 31
0.0
  0
LINE
  5
2A0
  8
33
  6
CONTINUOUS
 62
     7
 10
682.30883290816348
 20
329.2098214285715
 30
0.0
 11
677.132452006113
 21
348.52833795435248
 31
0.0
  0
LINE
  5
2A1
  8
33
  6
CONTINUOUS
 62
     7
 10
682.30883290816348
 20
329.2098214285715
 30
0.0
 11
687.48521381021396
 21
348.52833795435248
 31
0.0
  0
LINE
  5
2A2
  8
33
  6
CONTINUOUS
 62
     7
 10
682.30883290816348
 20
509.20982142857139
 30
0.0
 11
687.48521381021396
 21
489.89130490279001
 31
0.0
  0
LINE
  5
2A3
  8
33
  6
CONTINUOUS
 62
     7
 10
682.30883290816348
 20
509.20982142857139
 30
0.0
 11
677.132452006113
 21
489.89130490279001
 31
0.0
  0
LINE
  5
2A4
  8
33
  6
CONTINUOUS
 62
     7
 10
843.12053571428589
 20
329.2098214285715
 30
0.0
 11
677.30883290816348
 21
329.2098214285715
 31
0.0
  0
LINE
  5
2A5
  8
33
  6
CONTINUOUS
 62
     7
 10
732.87053571428601
 20
509.20982142857139
 30
0.0
 11
677.30883290816348
 21
509.20982142857139
 31
0.0
  0
TEXT
  5
2A6
  8
33
 62
     7
 10
677.80914306640659
 20
389.6894226074221
 30
0.0
 40
20.0
  1
180%%p2_
 50
90.0
 41
0.75
 51
15.0
 72
     1
 11
677.80914306640659
 21
428.43942260742199
 31
0.0
  0
LINE
  5
2A7
  8
33
  6
CONTINUOUS
 62
     7
 10
635.38958864795939
 20
329.2098214285715
 30
0.0
 11
635.38958864795939
 21
529.20982142857144
 31
0.0
  0
LINE
  5
2A8
  8
33
  6
CONTINUOUS
 62
     7
 10
635.38958864795939
 20
329.2098214285715
 30
0.0
 11
630.21320774590902
 21
348.52833795435248
 31
0.0
  0
LINE
  5
2A9
  8
33
  6
CONTINUOUS
 62
     7
 10
635.38958864795939
 20
329.2098214285715
 30
0.0
 11
640.5659695500101
 21
348.52833795435248
 31
0.0
  0
LINE
  5
2AA
  8
33
  6
CONTINUOUS
 62
     7
 10
635.38958864795939
 20
529.20982142857144
 30
0.0
 11
640.5659695500101
 21
509.89130490279001
 31
0.0
  0
LINE
  5
2AB
  8
33
  6
CONTINUOUS
 62
     7
 10
635.38958864795939
 20
529.20982142857144
 30
0.0
 11
630.21320774590902
 21
509.89130490279001
 31
0.0
  0
LINE
  5
2AC
  8
33
  6
CONTINUOUS
 62
     7
 10
843.12053571428589
 20
329.2098214285715
 30
0.0
 11
630.38958864795939
 21
329.2098214285715
 31
0.0
  0
LINE
  5
2AD
  8
33
  6
CONTINUOUS
 62
     7
 10
705.87053571428589
 20
529.20982142857144
 30
0.0
 11
630.38958864795939
 21
529.20982142857144
 31
0.0
  0
TEXT
  5
2AE
  8
33
 62
     7
 10
630.38958740234398
 20
389.2098388671875
 30
0.0
 40
20.0
  1
200%%p2_
 50
90.0
 41
0.75
 51
15.0
 72
     1
 11
630.38958740234398
 21
429.2098388671875
 31
0.0
  0
LINE
  5
2AF
  8
33
  6
CONTINUOUS
 62
     7
 10
714.1276307397959
 20
329.2098214285715
 30
0.0
 11
714.1276307397959
 21
333.0494802147129
 31
0.0
  0
LINE
  5
2B0
  8
33
  6
CONTINUOUS
 62
     7
 10
843.12053571428589
 20
329.2098214285715
 30
0.0
 11
709.12763073979602
 21
329.2098214285715
 31
0.0
  0
LINE
  5
2B1
  8
33
  6
CONTINUOUS
 62
     7
 10
758.45605947986496
 20
333.0494802147129
 30
0.0
 11
709.12763073979602
 21
333.0494802147129
 31
0.0
  0
LINE
  5
2B2
  8
33
  6
CONTINUOUS
 62
     7
 10
714.1276307397959
 20
300.06497130102048
 30
0.0
 11
714.1276307397959
 21
329.2098214285715
 31
0.0
  0
LINE
  5
2B3
  8
33
  6
CONTINUOUS
 62
     7
 10
714.1276307397959
 20
329.2098214285715
 30
0.0
 11
719.30401164184639
 21
309.89130490279001
 31
0.0
  0
LINE
  5
2B4
  8
33
  6
CONTINUOUS
 62
     7
 10
714.1276307397959
 20
329.2098214285715
 30
0.0
 11
708.95124983774599
 21
309.89130490279001
 31
0.0
  0
LINE
  5
2B5
  8
33
  6
CONTINUOUS
 62
     7
 10
714.1276307397959
 20
333.0494802147129
 30
0.0
 11
714.1276307397959
 21
363.04948021471301
 31
0.0
  0
LINE
  5
2B6
  8
33
  6
CONTINUOUS
 62
     7
 10
714.1276307397959
 20
333.0494802147129
 30
0.0
 11
708.95124983774599
 21
352.36799674049399
 31
0.0
  0
LINE
  5
2B7
  8
33
  6
CONTINUOUS
 62
     7
 10
714.1276307397959
 20
333.0494802147129
 30
0.0
 11
719.30401164184639
 21
352.36799674049399
 31
0.0
  0
TEXT
  5
2B8
  8
33
 62
     7
 10
707.20202636718739
 20
281.0433349609375
 30
0.0
 40
20.0
  1
8%%p1_
 50
90.0
 41
0.75
 51
15.0
 72
     1
 11
707.20202636718739
 21
306.0433349609375
 31
0.0
  0
LINE
  5
2B9
  8
33
  6
CONTINUOUS
 62
     7
 10
1275.95
 20
469.38859010975688
 30
0.0
 11
1275.95
 21
529.20982142857144
 31
0.0
  0
LINE
  5
2BA
  8
33
  6
CONTINUOUS
 62
     7
 10
1275.95
 20
469.38859010975688
 30
0.0
 11
1270.7736190979499
 21
488.70710663553803
 31
0.0
  0
LINE
  5
2BB
  8
33
  6
CONTINUOUS
 62
     7
 10
1275.95
 20
469.38859010975688
 30
0.0
 11
1281.12638090205
 21
488.70710663553803
 31
0.0
  0
LINE
  5
2BC
  8
33
  6
CONTINUOUS
 62
     7
 10
1275.95
 20
529.20982142857144
 30
0.0
 11
1281.12638090205
 21
509.89130490279001
 31
0.0
  0
LINE
  5
2BD
  8
33
  6
CONTINUOUS
 62
     7
 10
1275.95
 20
529.20982142857144
 30
0.0
 11
1270.7736190979499
 21
509.89130490279001
 31
0.0
  0
LINE
  5
2BE
  8
33
  6
CONTINUOUS
 62
     7
 10
1398.466431318237
 20
469.38859010975688
 30
0.0
 11
1270.95
 21
469.38859010975688
 31
0.0
  0
TEXT
  5
2BF
  8
33
 62
     7
 10
1267.66845703125
 20
474.7610168457029
 30
0.0
 40
20.0
  1
60
 50
90.0
 41
0.75
 51
15.0
 72
     1
 11
1267.66845703125
 21
486.0110168457029
 31
0.0
  0
LINE
  5
2C0
  8
33
  6
CONTINUOUS
 62
     7
 10
360.8705357142855
 20
779.20982142857144
 30
0.0
 11
360.8705357142855
 21
791.20982142857144
 31
0.0
  0
LINE
  5
2C1
  8
33
  6
CONTINUOUS
 62
     7
 10
360.8705357142855
 20
1305.2098214285711
 30
0.0
 11
360.8705357142855
 21
1292.2098214285711
 31
0.0
  0
LINE
  5
2C2
  8
33
  6
CONTINUOUS
 62
     7
 10
358.8705357142855
 20
1290.2098214285711
 30
0.0
 11
343.8705357142855
 21
1290.2098214285711
 31
0.0
  0
LINE
  5
2C3
  8
33
  6
CONTINUOUS
 62
     7
 10
340.8705357142855
 20
1193.2098214285711
 30
0.0
 11
340.8705357142855
 21
1187.2098214285711
 31
0.0
  0
LINE
  5
2C4
  8
33
  6
CONTINUOUS
 62
     7
 10
343.8705357142855
 20
794.20982142857144
 30
0.0
 11
357.8705357142855
 21
794.20982142857144
 31
0.0
  0
LINE
  5
2C5
  8
33
  6
CONTINUOUS
 62
     7
 10
343.8705357142855
 20
1196.2098214285711
 30
0.0
 11
349.8705357142855
 21
1196.2098214285711
 31
0.0
  0
LINE
  5
2C6
  8
33
  6
CONTINUOUS
 62
     7
 10
337.8705357142855
 20
806.20982142857144
 30
0.0
 11
310.87053571428498
 21
806.20982142857144
 31
0.0
  0
LINE
  5
2C7
  8
33
  6
CONTINUOUS
 62
     7
 10
300.8705357142855
 20
1174.2098214285711
 30
0.0
 11
300.8705357142855
 21
816.20982142857144
 31
0.0
  0
LINE
  5
2C8
  8
33
  6
CONTINUOUS
 62
     7
 10
300.8705357142855
 20
1121.7098214285711
 30
0.0
 11
297.8705357142855
 21
1121.7098214285711
 31
0.0
  0
LINE
  5
2C9
  8
33
  6
CONTINUOUS
 62
     7
 10
300.8705357142855
 20
1101.7098214285711
 30
0.0
 11
297.8705357142855
 21
1101.7098214285711
 31
0.0
  0
LINE
  5
2CA
  8
33
  6
CONTINUOUS
 62
     7
 10
300.8705357142855
 20
1044.2098214285711
 30
0.0
 11
297.8705357142855
 21
1044.2098214285711
 31
0.0
  0
LINE
  5
2CB
  8
33
  6
CONTINUOUS
 62
     7
 10
300.8705357142855
 20
1024.2098214285711
 30
0.0
 11
297.8705357142855
 21
1024.2098214285711
 31
0.0
  0
LINE
  5
2CC
  8
33
  6
CONTINUOUS
 62
     7
 10
300.8705357142855
 20
966.70982142857099
 30
0.0
 11
297.8705357142855
 21
966.70982142857099
 31
0.0
  0
LINE
  5
2CD
  8
33
  6
CONTINUOUS
 62
     7
 10
300.8705357142855
 20
946.70982142857099
 30
0.0
 11
297.8705357142855
 21
946.70982142857099
 31
0.0
  0
LINE
  5
2CE
  8
33
  6
CONTINUOUS
 62
     7
 10
300.8705357142855
 20
889.20982142857088
 30
0.0
 11
297.46666988881998
 21
889.20982142857088
 31
0.0
  0
LINE
  5
2CF
  8
33
  6
CONTINUOUS
 62
     7
 10
300.8705357142855
 20
869.20982142857099
 30
0.0
 11
297.46666988881998
 21
869.20982142857099
 31
0.0
  0
LINE
  5
2D0
  8
33
  6
CONTINUOUS
 62
     7
 10
297.8705357142855
 20
1101.7098214285711
 30
0.0
 11
297.8705357142855
 21
1121.7098214285711
 31
0.0
  0
LINE
  5
2D1
  8
33
  6
CONTINUOUS
 62
     7
 10
297.8705357142855
 20
1044.2098214285711
 30
0.0
 11
297.8705357142855
 21
1024.2098214285711
 31
0.0
  0
LINE
  5
2D2
  8
33
  6
CONTINUOUS
 62
     7
 10
297.46666988881998
 20
946.70982142857099
 30
0.0
 11
297.46666988881998
 21
966.70982142857099
 31
0.0
  0
LINE
  5
2D3
  8
33
  6
CONTINUOUS
 62
     7
 10
297.46666988881998
 20
889.20982142857088
 30
0.0
 11
297.46666988881998
 21
869.20982142857099
 31
0.0
  0
LINE
  5
2D4
  8
33
  6
CONTINUOUS
 62
     7
 10
337.8705357142855
 20
1184.2098214285711
 30
0.0
 11
310.8705357142855
 21
1184.2098214285711
 31
0.0
  0
LINE
  5
2D5
  8
33
  6
CONTINUOUS
 62
     7
 10
205.891777755102
 20
806.20982142857144
 30
0.0
 11
235.28037308673501
 21
806.20982142857144
 31
0.0
  0
LINE
  5
2D6
  8
33
  6
CONTINUOUS
 62
     7
 10
340.8705357142855
 20
1278.2098214285711
 30
0.0
 11
227.1259266071429
 21
1278.2098214285711
 31
0.0
  0
LINE
  5
2D7
  8
33
  6
CONTINUOUS
 62
     7
 10
160.8705357142855
 20
1252.735732731627
 30
0.0
 11
160.8705357142855
 21
1242.7098214285711
 31
0.0
  0
LINE
  5
2D8
  8
33
  6
DASHDOT
 62
     7
 10
938.87053571428601
 20
1148.28125
 30
0.0
 11
938.87053571428601
 21
1157.120535714286
 31
0.0
  0
LINE
  5
2D9
  8
33
  6
DASHDOT
 62
     7
 10
360.8705357142855
 20
1152.2098214285711
 30
0.0
 11
138.24553571428601
 21
1152.2098214285711
 31
0.0
  0
LINE
  5
2DA
  8
33
  6
DASHDOT
 62
     7
 10
366.34330357142898
 20
1152.2098214285711
 30
0.0
 11
360.8705357142855
 21
1152.2098214285711
 31
0.0
  0
LINE
  5
2DB
  8
33
  6
CONTINUOUS
 62
     7
 10
160.87053571428501
 20
1061.7098214285711
 30
0.0
 11
152.87053571428501
 21
1061.7098214285711
 31
0.0
  0
LINE
  5
2DC
  8
33
  6
CONTINUOUS
 62
     7
 10
152.87053571428501
 20
1061.7098214285711
 30
0.0
 11
152.87053571428501
 21
1242.7098214285711
 31
0.0
  0
LINE
  5
2DD
  8
33
  6
CONTINUOUS
 62
     7
 10
152.87053571428501
 20
1242.7098214285711
 30
0.0
 11
160.87053571428501
 21
1242.7098214285711
 31
0.0
  0
ARC
  5
2DE
  8
33
  6
CONTINUOUS
 62
     7
 10
235.28037308673501
 20
-1321.790178571428
 30
0.0
 40
2600.0
 50
90.0
 51
91.099475300818014
  0
LINE
  5
2DF
  8
33
  6
CONTINUOUS
 62
     7
 10
235.28037308673501
 20
806.20982142857144
 30
0.0
 11
282.46290178571451
 21
806.20982142857144
 31
0.0
  0
ARC
  5
2E0
  8
33
  6
CONTINUOUS
 62
     7
 10
185.87053571428501
 20
1252.735732731627
 30
0.0
 40
25.0
 50
91.099475300818014
 51
180.0
  0
ARC
  5
2E1
  8
33
  6
CONTINUOUS
 62
     7
 10
223.286198979592
 20
3406.209821428572
 30
0.0
 40
2600.0
 50
269.40927883448791
 51
270.0
  0
LINE
  5
2E2
  8
33
  6
CONTINUOUS
 62
     7
 10
160.87053571428501
 20
1061.7098214285711
 30
0.0
 11
171.76597721915351
 21
830.17155844762135
 31
0.0
  0
ARC
  5
2E3
  8
33
  6
CONTINUOUS
 62
     7
 10
196.73834386438801
 20
831.34667722288691
 30
0.0
 40
25.0
 50
182.694166574615
 51
269.40927883448899
  0
ARC
  5
2E4
  8
33
  6
CONTINUOUS
 62
     7
 10
310.8705357142855
 20
1174.2098214285711
 30
0.0
 40
10.0
 50
90.0
 51
180.0
  0
ARC
  5
2E5
  8
33
  6
CONTINUOUS
 62
     7
 10
310.87053571428498
 20
816.20982142857144
 30
0.0
 40
10.0
 50
180.0
 51
270.0
  0
LINE
  5
2E6
  8
33
  6
CONTINUOUS
 62
     7
 10
262.27176339285751
 20
806.20982142857144
 30
0.0
 11
310.87053571428498
 21
806.20982142857144
 31
0.0
  0
LINE
  5
2E7
  8
33
  6
CONTINUOUS
 62
     7
 10
177.66433035714289
 20
1184.2098214285711
 30
0.0
 11
311.47343750000061
 21
1184.2098214285711
 31
0.0
  0
LINE
  5
2E8
  8
33
  6
CONTINUOUS
 62
     7
 10
352.8705357142855
 20
1246.2098214285711
 30
0.0
 11
352.8705357142855
 21
1199.209821428572
 31
0.0
  0
LINE
  5
2E9
  8
33
  6
CONTINUOUS
 62
     7
 10
352.8705357142855
 20
1290.2098214285711
 30
0.0
 11
352.8705357142855
 21
1246.2098214285711
 31
0.0
  0
ARC
  5
2EA
  8
33
  6
CONTINUOUS
 62
     7
 10
349.8705357142855
 20
1199.209821428572
 30
0.0
 40
3.0
 50
270.0
 51
0.0
  0
ARC
  5
2EB
  8
33
  6
CONTINUOUS
 62
     7
 10
343.8705357142855
 20
1287.2098214285711
 30
0.0
 40
3.0
 50
90.0
 51
180.0
  0
ARC
  5
2EC
  8
33
  6
CONTINUOUS
 62
     7
 10
337.8705357142855
 20
1187.2098214285711
 30
0.0
 40
3.0
 50
270.0
 51
0.0
  0
ARC
  5
2ED
  8
33
  6
CONTINUOUS
 62
     7
 10
343.8705357142855
 20
1193.2098214285711
 30
0.0
 40
3.0
 50
90.0
 51
180.0
  0
LINE
  5
2EE
  8
33
  6
CONTINUOUS
 62
     7
 10
340.8705357142855
 20
803.20982142857144
 30
0.0
 11
340.8705357142855
 21
797.20982142857144
 31
0.0
  0
ARC
  5
2EF
  8
33
  6
CONTINUOUS
 62
     7
 10
357.8705357142855
 20
791.20982142857144
 30
0.0
 40
3.0
 50
0.0
 51
90.0
  0
ARC
  5
2F0
  8
33
  6
CONTINUOUS
 62
     7
 10
343.8705357142855
 20
797.20982142857144
 30
0.0
 40
3.0
 50
180.0
 51
270.0
  0
ARC
  5
2F1
  8
33
  6
CONTINUOUS
 62
     7
 10
337.8705357142855
 20
803.20982142857144
 30
0.0
 40
3.0
 50
0.0
 51
90.0
  0
ARC
  5
2F2
  8
33
  6
CONTINUOUS
 62
     7
 10
358.8705357142855
 20
1292.2098214285711
 30
0.0
 40
2.0
 50
270.0
 51
0.0
  0
LINE
  5
2F3
  8
33
  6
CONTINUOUS
 62
     7
 10
360.8705357142855
 20
1292.2098214285711
 30
0.0
 11
360.8705357142855
 21
787.21221301020398
 31
0.0
  0
LINE
  5
2F4
  8
33
  6
CONTINUOUS
 62
     7
 10
340.8705357142855
 20
797.20982142857144
 30
0.0
 11
340.8705357142855
 21
1184.2098214285711
 31
0.0
  0
LINE
  5
2F5
  8
33
  6
CONTINUOUS
 62
     7
 10
340.8705357142855
 20
1287.2098214285711
 30
0.0
 11
340.8705357142855
 21
1164.8812181122451
 31
0.0
  0
LINE
  5
2F6
  8
33
  6
DASHED
 62
     7
 10
347.8705357142855
 20
1290.2098214285711
 30
0.0
 11
347.8705357142855
 21
1240.2098214285711
 31
0.0
  0
LINE
  5
2F7
  8
33
  6
DASHED
 62
     7
 10
347.8705357142855
 20
1196.2098214285711
 30
0.0
 11
347.8705357142855
 21
1241.204147116435
 31
0.0
  0
LINE
  5
2F8
  8
33
  6
CONTINUOUS
 62
     7
 10
340.8705357142855
 20
752.54563934948999
 30
0.0
 11
360.8705357142855
 21
752.54563934948999
 31
0.0
  0
LINE
  5
2F9
  8
33
  6
CONTINUOUS
 62
     7
 10
360.8705357142855
 20
774.20982142857144
 30
0.0
 11
360.8705357142855
 21
747.54563934948999
 31
0.0
  0
LINE
  5
2FA
  8
33
  6
CONTINUOUS
 62
     7
 10
340.8705357142855
 20
792.20982142857144
 30
0.0
 11
340.8705357142855
 21
747.54563934948999
 31
0.0
  0
LINE
  5
2FB
  8
33
  6
CONTINUOUS
 62
     7
 10
360.8705357142855
 20
752.54563934948999
 30
0.0
 11
390.8705357142855
 21
752.54563934948999
 31
0.0
  0
LINE
  5
2FC
  8
33
  6
CONTINUOUS
 62
     7
 10
360.8705357142855
 20
752.54563934948999
 30
0.0
 11
380.18905224006699
 21
757.72202025154002
 31
0.0
  0
LINE
  5
2FD
  8
33
  6
CONTINUOUS
 62
     7
 10
360.8705357142855
 20
752.54563934948999
 30
0.0
 11
380.18905224006699
 21
747.36925844743962
 31
0.0
  0
LINE
  5
2FE
  8
33
  6
CONTINUOUS
 62
     7
 10
310.8705357142855
 20
752.54563934948999
 30
0.0
 11
340.8705357142855
 21
752.54563934948999
 31
0.0
  0
LINE
  5
2FF
  8
33
  6
CONTINUOUS
 62
     7
 10
340.8705357142855
 20
752.54563934948999
 30
0.0
 11
321.552019188504
 21
747.36925844743962
 31
0.0
  0
LINE
  5
300
  8
33
  6
CONTINUOUS
 62
     7
 10
340.8705357142855
 20
752.54563934948999
 30
0.0
 11
321.552019188504
 21
757.72202025154002
 31
0.0
  0
TEXT
  5
301
  8
33
 62
     7
 10
369.37860107421898
 20
759.91168212890648
 30
0.0
 40
20.0
  1
20
 41
0.75
 51
15.0
 72
     1
 11
380.62860107421898
 21
759.91168212890648
 31
0.0
  0
LINE
  5
302
  8
33
  6
CONTINUOUS
 62
     7
 10
300.8705357142855
 20
684.85012755102036
 30
0.0
 11
360.8705357142855
 21
684.85012755102036
 31
0.0
  0
LINE
  5
303
  8
33
  6
CONTINUOUS
 62
     7
 10
300.8705357142855
 20
684.85012755102036
 30
0.0
 11
320.18905224006699
 21
690.02650845307085
 31
0.0
  0
LINE
  5
304
  8
33
  6
CONTINUOUS
 62
     7
 10
300.8705357142855
 20
684.85012755102036
 30
0.0
 11
320.18905224006699
 21
679.67374664897
 31
0.0
  0
LINE
  5
305
  8
33
  6
CONTINUOUS
 62
     7
 10
360.8705357142855
 20
684.85012755102036
 30
0.0
 11
341.552019188504
 21
679.67374664897
 31
0.0
  0
LINE
  5
306
  8
33
  6
CONTINUOUS
 62
     7
 10
360.8705357142855
 20
684.85012755102036
 30
0.0
 11
341.552019188504
 21
690.02650845307085
 31
0.0
  0
LINE
  5
307
  8
33
  6
CONTINUOUS
 62
     7
 10
360.8705357142855
 20
782.21221301020387
 30
0.0
 11
360.8705357142855
 21
679.85012755102036
 31
0.0
  0
LINE
  5
308
  8
33
  6
CONTINUOUS
 62
     7
 10
300.8705357142855
 20
811.20982142857144
 30
0.0
 11
300.8705357142855
 21
679.85012755102036
 31
0.0
  0
TEXT
  5
309
  8
33
 62
     7
 10
319.77464199066048
 20
690.69195556640648
 30
0.0
 40
18.880548477173001
  1
60
 41
0.8917005973929999
 51
15.0
 72
     1
 11
332.4014892578125
 21
690.69195556640648
 31
0.0
  0
LINE
  5
30A
  8
33
  6
CONTINUOUS
 62
     7
 10
160.87053571428501
 20
752.54563934948999
 30
0.0
 11
171.76597721915351
 21
752.54563934948999
 31
0.0
  0
LINE
  5
30B
  8
33
  6
CONTINUOUS
 62
     7
 10
171.76597721915351
 20
825.17155844762135
 30
0.0
 11
171.76597721915351
 21
747.54563934948999
 31
0.0
  0
LINE
  5
30C
  8
33
  6
CONTINUOUS
 62
     7
 10
160.87053571428501
 20
1056.7098214285711
 30
0.0
 11
160.87053571428501
 21
747.54563934948999
 31
0.0
  0
LINE
  5
30D
  8
33
  6
CONTINUOUS
 62
     7
 10
171.76597721915351
 20
752.54563934948999
 30
0.0
 11
201.76597721915351
 21
752.54563934948999
 31
0.0
  0
LINE
  5
30E
  8
33
  6
CONTINUOUS
 62
     7
 10
171.76597721915351
 20
752.54563934948999
 30
0.0
 11
191.084493744935
 21
757.72202025154002
 31
0.0
  0
LINE
  5
30F
  8
33
  6
CONTINUOUS
 62
     7
 10
171.76597721915351
 20
752.54563934948999
 30
0.0
 11
191.084493744935
 21
747.36925844743962
 31
0.0
  0
LINE
  5
310
  8
33
  6
CONTINUOUS
 62
     7
 10
130.87053571428501
 20
752.54563934948999
 30
0.0
 11
160.87053571428501
 21
752.54563934948999
 31
0.0
  0
LINE
  5
311
  8
33
  6
CONTINUOUS
 62
     7
 10
160.87053571428501
 20
752.54563934948999
 30
0.0
 11
141.55201918850349
 21
747.36925844743962
 31
0.0
  0
LINE
  5
312
  8
33
  6
CONTINUOUS
 62
     7
 10
160.87053571428501
 20
752.54563934948999
 30
0.0
 11
141.55201918850349
 21
757.72202025154002
 31
0.0
  0
TEXT
  5
313
  8
33
 62
     7
 10
99.590240478515511
 20
759.82623291015648
 30
0.0
 40
20.0
  1
12%%p1_
 41
0.75
 51
15.0
 72
     1
 11
129.59024047851551
 21
759.82623291015648
 31
0.0
  0
LINE
  5
314
  8
33
  6
CONTINUOUS
 62
     7
 10
352.8705357142855
 20
1335.4715401785711
 30
0.0
 11
360.8705357142855
 21
1335.4715401785711
 31
0.0
  0
LINE
  5
315
  8
33
  6
CONTINUOUS
 62
     7
 10
360.8705357142855
 20
1310.209821428572
 30
0.0
 11
360.8705357142855
 21
1340.4715401785711
 31
0.0
  0
LINE
  5
316
  8
33
  6
CONTINUOUS
 62
     7
 10
352.8705357142855
 20
1295.2098214285711
 30
0.0
 11
352.8705357142855
 21
1340.4715401785711
 31
0.0
  0
LINE
  5
317
  8
33
  6
CONTINUOUS
 62
     7
 10
360.8705357142855
 20
1335.4715401785711
 30
0.0
 11
390.8705357142855
 21
1335.4715401785711
 31
0.0
  0
LINE
  5
318
  8
33
  6
CONTINUOUS
 62
     7
 10
360.8705357142855
 20
1335.4715401785711
 30
0.0
 11
380.18905224006699
 21
1340.647921080621
 31
0.0
  0
LINE
  5
319
  8
33
  6
CONTINUOUS
 62
     7
 10
360.8705357142855
 20
1335.4715401785711
 30
0.0
 11
380.18905224006699
 21
1330.295159276521
 31
0.0
  0
LINE
  5
31A
  8
33
  6
CONTINUOUS
 62
     7
 10
322.8705357142855
 20
1335.4715401785711
 30
0.0
 11
352.8705357142855
 21
1335.4715401785711
 31
0.0
  0
LINE
  5
31B
  8
33
  6
CONTINUOUS
 62
     7
 10
352.8705357142855
 20
1335.4715401785711
 30
0.0
 11
333.552019188504
 21
1330.295159276521
 31
0.0
  0
LINE
  5
31C
  8
33
  6
CONTINUOUS
 62
     7
 10
352.8705357142855
 20
1335.4715401785711
 30
0.0
 11
333.552019188504
 21
1340.647921080621
 31
0.0
  0
TEXT
  5
31D
  8
33
 62
     7
 10
351.9058837890625
 20
1342.69287109375
 30
0.0
 40
20.0
  1
8
 41
0.75
 51
15.0
 72
     1
 11
356.9058837890625
 21
1342.69287109375
 31
0.0
  0
LINE
  5
31E
  8
33
  6
CONTINUOUS
 62
     7
 10
205.89216701411601
 20
806.26800522345047
 30
0.0
 11
205.891777755102
 21
806.20982142857179
 31
0.0
  0
LINE
  5
31F
  8
33
  6
CONTINUOUS
 62
     7
 10
303.07555458336151
 20
1180.473867179405
 30
0.0
 11
326.55639577259501
 21
1161.604666471025
 31
0.0
  0
LINE
  5
320
  8
33
  6
CONTINUOUS
 62
     7
 10
303.07555458336151
 20
1180.473867179405
 30
0.0
 11
321.37681044237053
 21
1172.4076391896269
 31
0.0
  0
LINE
  5
321
  8
33
  6
CONTINUOUS
 62
     7
 10
303.07555458336151
 20
1180.473867179405
 30
0.0
 11
314.891793083533
 21
1164.3376808980361
 31
0.0
  0
TEXT
  5
322
  8
33
 62
     7
 10
303.54856796111142
 20
1149.3891146382041
 30
0.0
 40
18.256715774536001
  1
R10
 50
321.21466064453102
 41
0.6786741375190001
 51
15.0
 72
     1
 11
314.0116882324221
 21
1140.98095703125
 31
0.0
  0
LINE
  5
323
  8
33
  6
CONTINUOUS
 62
     7
 10
1745.870535714286
 20
1377.5502232142851
 30
0.0
 11
1788.870535714286
 21
1377.5502232142851
 31
0.0
  0
LINE
  5
324
  8
33
  6
CONTINUOUS
 62
     7
 10
1745.870535714286
 20
1377.5502232142851
 30
0.0
 11
1765.189052240067
 21
1382.726604116335
 31
0.0
  0
LINE
  5
325
  8
33
  6
CONTINUOUS
 62
     7
 10
1745.870535714286
 20
1377.5502232142851
 30
0.0
 11
1765.189052240067
 21
1372.373842312235
 31
0.0
  0
LINE
  5
326
  8
33
  6
CONTINUOUS
 62
     7
 10
1788.870535714286
 20
1377.5502232142851
 30
0.0
 11
1769.5520191885039
 21
1372.373842312235
 31
0.0
  0
LINE
  5
327
  8
33
  6
CONTINUOUS
 62
     7
 10
1788.870535714286
 20
1377.5502232142851
 30
0.0
 11
1769.5520191885039
 21
1382.726604116335
 31
0.0
  0
LINE
  5
328
  8
33
  6
CONTINUOUS
 62
     7
 10
1788.870535714286
 20
1210.7098214285711
 30
0.0
 11
1788.870535714286
 21
1382.5502232142851
 31
0.0
  0
LINE
  5
329
  8
33
  6
CONTINUOUS
 62
     7
 10
1745.870535714286
 20
1248.2098214285711
 30
0.0
 11
1745.870535714286
 21
1382.5502232142851
 31
0.0
  0
TEXT
  5
32A
  8
33
 62
     7
 10
1762.9052100181621
 20
1384.619506835937
 30
0.0
 40
19.859668731689499
  1
45
 41
0.6373395077650002
 51
15.0
 72
     1
 11
1773.453002929687
 21
1384.619506835937
 31
0.0
  0
LINE
  5
32B
  8
33
  6
CONTINUOUS
 62
     7
 10
1739.870535714286
 20
1377.5502232142851
 30
0.0
 11
1745.870535714286
 21
1377.5502232142851
 31
0.0
  0
LINE
  5
32C
  8
33
  6
CONTINUOUS
 62
     7
 10
1739.870535714286
 20
1249.209821428572
 30
0.0
 11
1739.870535714286
 21
1382.5502232142851
 31
0.0
  0
TEXT
  5
32D
  8
33
 62
     7
 10
1733.912719726562
 20
1383.258544921875
 30
0.0
 40
20.0
  1
5
 41
0.75
 51
15.0
 72
     1
 11
1738.912719726562
 21
1383.258544921875
 31
0.0
  0
LINE
  5
32E
  8
33
  6
CONTINUOUS
 62
     7
 10
1511.870535714286
 20
1377.5502232142851
 30
0.0
 11
1739.870535714286
 21
1377.5502232142851
 31
0.0
  0
LINE
  5
32F
  8
33
  6
CONTINUOUS
 62
     7
 10
1511.870535714286
 20
1377.5502232142851
 30
0.0
 11
1531.189052240067
 21
1382.726604116335
 31
0.0
  0
LINE
  5
330
  8
33
  6
CONTINUOUS
 62
     7
 10
1511.870535714286
 20
1377.5502232142851
 30
0.0
 11
1531.189052240067
 21
1372.373842312235
 31
0.0
  0
LINE
  5
331
  8
33
  6
CONTINUOUS
 62
     7
 10
1739.870535714286
 20
1377.5502232142851
 30
0.0
 11
1720.5520191885039
 21
1372.373842312235
 31
0.0
  0
LINE
  5
332
  8
33
  6
CONTINUOUS
 62
     7
 10
1739.870535714286
 20
1377.5502232142851
 30
0.0
 11
1720.5520191885039
 21
1382.726604116335
 31
0.0
  0
LINE
  5
333
  8
33
  6
CONTINUOUS
 62
     7
 10
1511.870535714286
 20
1249.209821428572
 30
0.0
 11
1511.870535714286
 21
1382.5502232142851
 31
0.0
  0
TEXT
  5
334
  8
33
 62
     7
 10
1607.120483398437
 20
1382.550170898438
 30
0.0
 40
20.0
  1
230
 41
0.75
 51
15.0
 72
     1
 11
1625.870483398437
 21
1382.550170898438
 31
0.0
  0
LINE
  5
335
  8
33
  6
CONTINUOUS
 62
     7
 10
1505.870535714286
 20
1377.5502232142851
 30
0.0
 11
1511.870535714286
 21
1377.5502232142851
 31
0.0
  0
LINE
  5
336
  8
33
  6
CONTINUOUS
 62
     7
 10
1505.870535714286
 20
1249.209821428572
 30
0.0
 11
1505.870535714286
 21
1382.5502232142851
 31
0.0
  0
LINE
  5
337
  8
33
  6
CONTINUOUS
 62
     7
 10
1480.8705357142851
 20
1377.5502232142851
 30
0.0
 11
1505.870535714286
 21
1377.5502232142851
 31
0.0
  0
LINE
  5
338
  8
33
  6
CONTINUOUS
 62
     7
 10
1505.870535714286
 20
1377.5502232142851
 30
0.0
 11
1486.5520191885039
 21
1372.373842312235
 31
0.0
  0
LINE
  5
339
  8
33
  6
CONTINUOUS
 62
     7
 10
1505.870535714286
 20
1377.5502232142851
 30
0.0
 11
1486.5520191885039
 21
1382.726604116335
 31
0.0
  0
TEXT
  5
33A
  8
33
 62
     7
 10
1500.870483398437
 20
1382.550170898438
 30
0.0
 40
20.0
  1
5
 41
0.75
 51
15.0
 72
     1
 11
1505.870483398437
 21
1382.550170898438
 31
0.0
  0
LINE
  5
33B
  8
33
  6
CONTINUOUS
 62
     7
 10
1690.0174999999999
 20
1284.2098214285711
 30
0.0
 11
1717.171785714286
 21
1334.4542857142851
 31
0.0
  0
LINE
  5
33C
  8
33
  6
CONTINUOUS
 62
     7
 10
1717.171785714286
 20
1334.4542857142851
 30
0.0
 11
1533.8803571428571
 21
1334.4542857142851
 31
0.0
  0
TEXT
  5
33D
  8
33
 62
     7
 10
1567.403488349898
 20
1338.0806264877319
 30
0.0
 40
19.636354446411001
  1
ポケツト(Ｔig溶接)
 41
0.68031540232
  7
BIGFONT
 72
     1
 11
1639.541625976562
 21
1347.898803710937
 31
0.0
 73
     2
  0
LINE
  5
33E
  8
33
  6
CONTINUOUS
 62
     7
 10
94.049107142857508
 20
453.65214285714302
 30
0.0
 11
562.53125000000045
 21
453.65214285714302
 31
0.0
  0
LINE
  5
33F
  8
33
  6
CONTINUOUS
 62
     7
 10
94.049107142857508
 20
403.65214285714302
 30
0.0
 11
562.53125000000045
 21
403.65214285714302
 31
0.0
  0
LINE
  5
340
  8
33
  6
CONTINUOUS
 62
     7
 10
94.049107142857508
 20
353.65214285714291
 30
0.0
 11
562.53125000000045
 21
353.65214285714291
 31
0.0
  0
LINE
  5
341
  8
33
  6
CONTINUOUS
 62
     7
 10
94.049107142857508
 20
353.65214285714291
 30
0.0
 11
562.53125000000045
 21
353.65214285714291
 31
0.0
  0
LINE
  5
342
  8
33
  6
CONTINUOUS
 62
     7
 10
94.049107142857508
 20
353.65214285714291
 30
0.0
 11
562.53125000000045
 21
353.65214285714291
 31
0.0
  0
LINE
  5
343
  8
33
  6
CONTINUOUS
 62
     7
 10
94.049107142857508
 20
303.65214285714291
 30
0.0
 11
562.53125000000045
 21
303.65214285714291
 31
0.0
  0
TEXT
  5
344
  8
33
 62
     7
 10
95.754048665281687
 20
458.543212890625
 30
0.0
 40
30.0
  1
1) 材質はＳＵＳ３０４とする。
 41
0.6666666666670001
  7
BIGFONT
 72
     1
 11
262.42071533203148
 21
473.543212890625
 31
0.0
 73
     2
  0
TEXT
  5
345
  8
33
 62
     7
 10
95.418579101489513
 20
409.5382080078125
 30
0.0
 40
30.0
  1
2) 板厚はｔ１．０とする。
 41
0.6666666666670001
  7
BIGFONT
 72
     1
 11
241.4185791015625
 21
424.53820800781239
 31
0.0
 73
     2
  0
TEXT
  5
346
  8
33
 62
     7
 10
91.087381998612585
 20
361.70001220703159
 30
0.0
 40
30.0
  1
3) 表面仕上げはBA材をプレス
 41
0.6666666666670001
  7
BIGFONT
 72
     1
 11
262.42071533203148
 21
376.70001220703148
 31
0.0
 73
     2
  0
TEXT
  5
347
  8
33
 62
     7
 10
414.11189778641398
 20
362.86679077148449
 30
0.0
 40
30.0
  1
したままとする。
 41
0.6666666666670001
  7
BIGFONT
 72
     1
 11
502.778564453125
 21
377.86679077148449
 31
0.0
 73
     2
  0
LINE
  5
348
  8
33
  6
CONTINUOUS
 62
     7
 10
710.87053571428589
 20
1377.5502232142851
 30
0.0
 11
1250.870535714286
 21
1377.5502232142851
 31
0.0
  0
LINE
  5
349
  8
33
  6
CONTINUOUS
 62
     7
 10
710.87053571428589
 20
1377.5502232142851
 30
0.0
 11
730.18905224006687
 21
1382.726604116335
 31
0.0
  0
LINE
  5
34A
  8
33
  6
CONTINUOUS
 62
     7
 10
710.87053571428589
 20
1377.5502232142851
 30
0.0
 11
730.18905224006687
 21
1372.373842312235
 31
0.0
  0
LINE
  5
34B
  8
33
  6
CONTINUOUS
 62
     7
 10
1250.870535714286
 20
1377.5502232142851
 30
0.0
 11
1231.5520191885039
 21
1372.373842312235
 31
0.0
  0
LINE
  5
34C
  8
33
  6
CONTINUOUS
 62
     7
 10
1250.870535714286
 20
1377.5502232142851
 30
0.0
 11
1231.5520191885039
 21
1382.726604116335
 31
0.0
  0
LINE
  5
34D
  8
33
  6
CONTINUOUS
 62
     7
 10
1250.870535714286
 20
1327.2098214285711
 30
0.0
 11
1250.870535714286
 21
1382.5502232142851
 31
0.0
  0
LINE
  5
34E
  8
33
  6
CONTINUOUS
 62
     7
 10
710.87053571428589
 20
1210.7098214285711
 30
0.0
 11
710.87053571428589
 21
1382.5502232142851
 31
0.0
  0
TEXT
  5
34F
  8
33
 62
     7
 10
940.87060546874989
 20
1382.550170898438
 30
0.0
 40
20.0
  1
539%%p1_
 41
0.75
 51
15.0
 72
     1
 11
980.87060546874989
 21
1382.550170898438
 31
0.0
  0
LINE
  5
350
  8
33
  6
CONTINUOUS
 62
     7
 10
167.55109998928191
 20
1269.7474426608931
 30
0.0
 11
195.66784917091849
 21
1243.6377966864211
 31
0.0
  0
LINE
  5
351
  8
33
  6
CONTINUOUS
 62
     7
 10
167.55109998928191
 20
1269.7474426608931
 30
0.0
 11
185.22963647670349
 21
1260.3949377738099
 31
0.0
  0
LINE
  5
352
  8
33
  6
CONTINUOUS
 62
     7
 10
167.55109998928191
 20
1269.7474426608931
 30
0.0
 11
178.1849092455775
 21
1252.8086675959501
 31
0.0
  0
TEXT
  5
353
  8
33
 62
     7
 10
191.10119593567481
 20
1255.3082206234501
 30
0.0
 40
20.0
  1
R25
 50
317.11974334716803
 41
0.75
 51
15.0
 72
     1
 11
205.75674438476551
 21
1241.698852539062
 31
0.0
  0
LINE
  5
355
  8
33
  6
DIVIDE
 62
     7
 10
263.8705357142855
 20
902.99107142857144
 30
0.0
 11
263.8705357142855
 21
1002.991071428571
 31
0.0
  0
LINE
  5
356
  8
33
  6
DIVIDE
 62
     7
 10
263.8705357142855
 20
806.20982142857144
 30
0.0
 11
263.8705357142855
 21
1278.2098214285711
 31
0.0
  0
LINE
  5
357
  8
33
  6
DIVIDE
 62
     7
 10
868.4509821428569
 20
432.20982142857139
 30
0.0
 11
968.45098214285713
 21
432.20982142857139
 31
0.0
  0
LINE
  5
358
  8
33
  6
DIVIDE
 62
     7
 10
737.87053571428601
 20
432.20982142857139
 30
0.0
 11
1387.60996533044
 21
432.20982142857139
 31
0.0
  0
LINE
  5
359
  8
33
  6
CONTINUOUS
 62
     7
 10
280.96301020408151
 20
1327.382015306122
 30
0.0
 11
194.13723214285699
 21
1327.382015306122
 31
0.0
  0
LINE
  5
35A
  8
33
  6
CONTINUOUS
 62
     7
 10
297.46666988881998
 20
869.20982142857099
 30
0.0
 11
256.28119021045899
 21
697.68766798013837
 31
0.0
  0
LINE
  5
35B
  8
33
  6
CONTINUOUS
 62
     7
 10
143.51484204172749
 20
697.68766798013837
 30
0.0
 11
255.16469171373899
 21
697.68766798013837
 31
0.0
  0
LINE
  5
35C
  8
33
  6
CONTINUOUS
 62
     7
 10
256.28119021045899
 20
697.68766798013837
 30
0.0
 11
254.70612983115751
 21
697.68766798013837
 31
0.0
  0
CIRCLE
  5
35D
  8
33
  6
CONTINUOUS
 62
     7
 10
297.46666988881998
 20
869.20982142857099
 30
0.0
 40
3.0
  0
CIRCLE
  5
35E
  8
33
  6
CONTINUOUS
 62
     7
 10
1690.0174999999999
 20
1284.2098214285711
 30
0.0
 40
3.0
  0
TEXT
  5
35F
  8
33
 62
     7
 10
137.6216201782332
 20
704.34155750274658
 30
0.0
 40
21.813589096069499
  1
コルゲート
 41
0.9403512564
  7
BIGFONT
 72
     1
 11
195.74018859863301
 21
715.24835205078136
 31
0.0
 73
     2
  0
LINE
  5
360
  8
33
  6
CONTINUOUS
 62
     7
 10
1241.897125683623
 20
1255.583766500145
 30
0.0
 11
1230.9691884566321
 21
1330.709901147959
 31
0.0
  0
LINE
  5
361
  8
33
  6
CONTINUOUS
 62
     7
 10
1230.9691884566321
 20
1330.709901147959
 30
0.0
 11
1140.9175446428569
 21
1330.709901147959
 31
0.0
  0
LINE
  5
362
  8
33
  6
CONTINUOUS
 62
     7
 10
1237.4126218567781
 20
1265.6667387937309
 30
0.0
 11
1241.897125683623
 21
1255.583766500145
 31
0.0
  0
LINE
  5
363
  8
33
  6
CONTINUOUS
 62
     7
 10
1241.897125683623
 20
1255.583766500145
 30
0.0
 11
1243.0950198159619
 21
1265.8696815779881
 31
0.0
  0
TEXT
  5
364
  8
33
 62
     7
 10
1145.4627225239981
 20
1335.276478767395
 30
0.0
 40
23.158712387085
  1
給水栓穴
 41
0.7750634891680001
  7
BIGFONT
 72
     1
 11
1186.148193359375
 21
1346.855834960937
 31
0.0
 73
     2
  0
LINE
  5
365
  8
33
  6
CONTINUOUS
 62
     7
 10
1285.870535714286
 20
1237.7098214285711
 30
0.0
 11
1319.4754464285711
 21
1237.7098214285711
 31
0.0
  0
TEXT
  5
366
  8
33
 62
     7
 10
1309.161376953125
 20
1232.257690429687
 30
0.0
 40
20.0
  1
50%%p1_
 50
90.0
 41
0.75
 51
15.0
 72
     1
 11
1309.161376953125
 21
1263.507690429687
 31
0.0
  0
TEXT
  5
367
  8
33
 62
     7
 10
105.07404073078099
 20
312.69500732421898
 30
0.0
 40
30.0
  1
4) 
 41
0.6666666666670001
 72
     1
 11
131.74070739746099
 21
327.69500732421898
 31
0.0
 73
     2
  0
TEXT
  5
368
  8
33
 62
     7
 10
152.04959831243579
 20
314.27589321136469
 30
0.0
 40
29.171785354614499
  1
給水栓%%c径は顧客指示。
 41
0.6500236654980001
  7
BIGFONT
 72
     1
 11
267.08786010742199
 21
328.86178588867199
 31
0.0
 73
     2
  0
LINE
  5
369
  8
33
  6
CONTINUOUS
 62
     7
 10
1563.065809151786
 20
1339.456216517857
 30
0.0
 11
1547.254536830357
 21
1339.456216517857
 31
0.0
  0
LINE
  5
36A
  8
33
  6
CONTINUOUS
 62
     7
 10
1547.254536830357
 20
1339.456216517857
 30
0.0
 11
1554.861847098214
 21
1354.6708370535709
 31
0.0
  0
LINE
  5
36B
  8
33
  6
CONTINUOUS
 62
     7
 10
1554.861847098214
 20
1354.6708370535709
 30
0.0
 11
1563.065809151786
 21
1339.456216517857
 31
0.0
  0
TEXT
  5
36C
  8
33
 62
     7
 10
1554.015567938487
 20
1340.011008739471
 30
0.0
 40
10.823441505431999
  1
1
 41
0.634505195564
 72
     1
 11
1555.16015625
 21
1345.422729492187
 31
0.0
 73
     2
  0
LINE
  5
36D
  8
33
  6
CONTINUOUS
 62
     7
 10
1597.870535714286
 20
436.20982142857139
 30
0.0
 11
1653.870535714286
 21
436.20982142857139
 31
0.0
  0
LINE
  5
36E
  8
33
  6
CONTINUOUS
 62
     7
 10
1597.870535714286
 20
436.20982142857139
 30
0.0
 11
1597.870535714286
 21
429.20982142857139
 31
0.0
  0
LINE
  5
36F
  8
33
  6
CONTINUOUS
 62
     7
 10
1597.870535714286
 20
429.20982142857139
 30
0.0
 11
1653.870535714286
 21
429.20982142857139
 31
0.0
  0
LINE
  5
370
  8
33
  6
CONTINUOUS
 62
     7
 10
1653.870535714286
 20
429.20982142857139
 30
0.0
 11
1653.870535714286
 21
436.20982142857139
 31
0.0
  0
LINE
  5
371
  8
33
  6
CONTINUOUS
 62
     7
 10
1653.870535714286
 20
436.20982142857139
 30
0.0
 11
1739.2504098959851
 21
440.85003198192447
 31
0.0
  0
LINE
  5
372
  8
33
  6
CONTINUOUS
 62
     7
 10
1597.870535714286
 20
436.20982142857139
 30
0.0
 11
1512.490661532587
 21
440.85003198192447
 31
0.0
  0
ARC
  5
373
  8
33
  6
CONTINUOUS
 62
     7
 10
1738.8705357142851
 20
447.83971692518747
 30
0.0
 40
7.0
 50
273.11084065349098
 51
0.0
  0
ARC
  5
374
  8
33
  6
CONTINUOUS
 62
     7
 10
1512.8705357142851
 20
447.83971692518747
 30
0.0
 40
7.0
 50
180.0
 51
266.88915934650902
  0
LINE
  5
375
  8
33
  6
CONTINUOUS
 62
     7
 10
1569.6008035714281
 20
458.73741071428549
 30
0.0
 11
1533.3243749999999
 21
390.21526785714298
 31
0.0
  0
LINE
  5
376
  8
33
  6
CONTINUOUS
 62
     7
 10
1533.3243749999999
 20
390.21526785714298
 30
0.0
 11
1643.409723214286
 21
390.21526785714298
 31
0.0
  0
CIRCLE
  5
377
  8
33
  6
CONTINUOUS
 62
     7
 10
1569.6008035714281
 20
458.73741071428549
 30
0.0
 40
3.0
  0
TEXT
  5
378
  8
33
 62
     7
 10
115.439259529114
 20
891.53950080869276
 30
0.0
 40
21.366403579711999
  1
防滴シート
 50
90.0
 41
0.6443394477260001
  7
BIGFONT
 72
     1
 11
104.756057739258
 21
930.08770751953159
 31
0.0
 73
     2
  0
LINE
  5
379
  8
33
  6
CONTINUOUS
 62
     7
 10
121.1192602040815
 20
970.96938775510193
 30
0.0
 11
121.1192602040815
 21
889.07445790816348
 31
0.0
  0
LINE
  5
37A
  8
33
  6
CONTINUOUS
 62
     7
 10
121.1192602040815
 20
889.07445790816348
 30
0.0
 11
217.404336734694
 21
921.16948341836735
 31
0.0
  0
CIRCLE
  5
37B
  8
33
  6
CONTINUOUS
 62
     7
 10
217.404336734694
 20
921.16948341836735
 30
0.0
 40
3.0
  0
LINE
  5
37C
  8
33
  6
CONTINUOUS
 62
     7
 10
347.8705357142855
 20
1281.167590082908
 30
0.0
 11
274.8705357142855
 21
1281.167590082908
 31
0.0
  0
LINE
  5
37D
  8
33
  6
DOT
 62
     7
 10
267.8705357142855
 20
1274.167590082908
 30
0.0
 11
267.8705357142855
 21
1215.167590082908
 31
0.0
  0
LINE
  5
37E
  8
33
  6
DOT
 62
     7
 10
274.8705357142855
 20
1208.167590082908
 30
0.0
 11
347.8705357142855
 21
1208.167590082908
 31
0.0
  0
LINE
  5
37F
  8
33
  6
DOT
 62
     7
 10
267.8705357142855
 20
1271.2098214285711
 30
0.0
 11
264.46827168367349
 21
1271.2098214285711
 31
0.0
  0
LINE
  5
380
  8
33
  6
DOT
 62
     7
 10
267.8705357142855
 20
1215.2098214285711
 30
0.0
 11
264.46827168367349
 21
1215.2098214285711
 31
0.0
  0
LINE
  5
381
  8
33
  6
DOT
 62
     7
 10
264.46827168367349
 20
1215.2098214285711
 30
0.0
 11
264.46827168367349
 21
1271.209821428572
 31
0.0
  0
ARC
  5
382
  8
33
  6
DOT
 62
     7
 10
274.8705357142855
 20
1215.167590082908
 30
0.0
 40
7.0
 50
180.0
 51
270.0
  0
ARC
  5
383
  8
33
  6
DOT
 62
     7
 10
274.8705357142855
 20
1274.167590082908
 30
0.0
 40
7.0
 50
90.0
 51
180.0
  0
LINE
  5
384
  8
33
  6
CONTINUOUS
 62
     7
 10
302.77184311224511
 20
1260.9295280612239
 30
0.0
 11
280.96301020408151
 21
1327.382015306122
 31
0.0
  0
CIRCLE
  5
385
  8
33
  6
CONTINUOUS
 62
     7
 10
302.77184311224511
 20
1260.9295280612239
 30
0.0
 40
3.0
  0
TEXT
  5
386
  8
33
 62
     7
 10
214.88403949736889
 20
1331.3716421127319
 30
0.0
 40
19.636354446411001
  1
ポケツト
 41
0.68031540232
  7
BIGFONT
 72
     1
 11
244.27365112304699
 21
1341.189819335937
 31
0.0
 73
     2
  0
LINE
  5
387
  8
33
  6
CONTINUOUS
 62
     7
 10
213.9963492857145
 20
1332.3515257142849
 30
0.0
 11
198.185076964286
 21
1332.3515257142849
 31
0.0
  0
LINE
  5
388
  8
33
  6
CONTINUOUS
 62
     7
 10
198.185076964286
 20
1332.3515257142849
 30
0.0
 11
205.792387232143
 21
1347.56614625
 31
0.0
  0
LINE
  5
389
  8
33
  6
CONTINUOUS
 62
     7
 10
205.792387232143
 20
1347.56614625
 30
0.0
 11
213.9963492857145
 21
1332.3515257142849
 31
0.0
  0
TEXT
  5
38A
  8
33
 62
     7
 10
204.9461099306742
 20
1332.906272411346
 30
0.0
 40
10.823441505431999
  1
1
 41
0.634505195564
 72
     1
 11
206.0906982421875
 21
1338.317993164062
 31
0.0
 73
     2
  0
TEXT
  5
38B
  8
33
 62
     7
 10
1580.790686225884
 20
393.81555080413852
 30
0.0
 40
19.636354446411001
  1
ポケツト
 41
0.68031540232
  7
BIGFONT
 72
     1
 11
1610.180297851562
 21
403.63372802734392
 31
0.0
 73
     2
  0
LINE
  5
38C
  8
33
  6
CONTINUOUS
 62
     7
 10
1579.9029026785711
 20
394.79543214285701
 30
0.0
 11
1564.091630357143
 21
394.79543214285701
 31
0.0
  0
LINE
  5
38D
  8
33
  6
CONTINUOUS
 62
     7
 10
1564.091630357143
 20
394.79543214285701
 30
0.0
 11
1571.698940625
 21
410.01005267857141
 31
0.0
  0
LINE
  5
38E
  8
33
  6
CONTINUOUS
 62
     7
 10
1571.698940625
 20
410.01005267857141
 30
0.0
 11
1579.9029026785711
 21
394.79543214285701
 31
0.0
  0
TEXT
  5
38F
  8
33
 62
     7
 10
1570.852726141612
 20
395.35018110275303
 30
0.0
 40
10.823441505431999
  1
1
 41
0.634505195564
 72
     1
 11
1571.997314453125
 21
400.76190185546898
 31
0.0
 73
     2
  0
LINE
  5
398
  8
33
  6
CONTINUOUS
 62
     7
 10
1743.7784944389321
 20
442.93950486608799
 30
0.0
 11
1724.1517155612239
 21
465.02340561224491
 31
0.0
  0
LINE
  5
399
  8
33
  6
CONTINUOUS
 62
     7
 10
1743.7784944389321
 20
442.93950486608799
 30
0.0
 11
1727.0760289921659
 21
453.94076152156242
 31
0.0
  0
LINE
  5
39A
  8
33
  6
CONTINUOUS
 62
     7
 10
1743.7784944389321
 20
442.93950486608799
 30
0.0
 11
1734.8143633839379
 21
460.81810532666401
 31
0.0
  0
TEXT
  5
39B
  8
33
 62
     7
 10
1700.73681503692
 20
460.49085502021649
 30
0.0
 40
15.1738681793215
  1
R7
 50
311.628662109375
 41
0.721173852932
 51
15.0
 72
     1
 11
1706.794677734375
 21
453.6745910644529
 31
0.0
  0
LINE
  5
39C
  8
33
  6
CONTINUOUS
 62
     7
 10
1471.802946428571
 20
516.20982142857144
 30
0.0
 11
1471.802946428571
 21
529.20982142857144
 31
0.0
  0
LINE
  5
39D
  8
33
  6
CONTINUOUS
 62
     7
 10
1474.121875
 20
516.20982142857144
 30
0.0
 11
1466.802946428571
 21
516.20982142857144
 31
0.0
  0
LINE
  5
39E
  8
33
  6
CONTINUOUS
 62
     7
 10
1471.802946428571
 20
529.20982142857144
 30
0.0
 11
1471.802946428571
 21
569.20982142857144
 31
0.0
  0
LINE
  5
39F
  8
33
  6
CONTINUOUS
 62
     7
 10
1471.802946428571
 20
529.20982142857144
 30
0.0
 11
1466.6265655265211
 21
548.52833795435254
 31
0.0
  0
LINE
  5
3A0
  8
33
  6
CONTINUOUS
 62
     7
 10
1471.802946428571
 20
529.20982142857144
 30
0.0
 11
1476.979327330622
 21
548.52833795435254
 31
0.0
  0
TEXT
  5
3A1
  8
33
 62
     7
 10
1466.802978515625
 20
539.2098083496096
 30
0.0
 40
20.0
  1
13
 50
90.0
 41
0.75
 51
15.0
 72
     1
 11
1466.802978515625
 21
549.20980834960949
 31
0.0
  0
LINE
  5
3A2
  8
33
  6
CONTINUOUS
 62
     7
 10
1471.802946428571
 20
436.20982142857139
 30
0.0
 11
1471.802946428571
 21
516.20982142857144
 31
0.0
  0
LINE
  5
3A3
  8
33
  6
CONTINUOUS
 62
     7
 10
1471.802946428571
 20
436.20982142857139
 30
0.0
 11
1466.6265655265211
 21
455.52833795435311
 31
0.0
  0
LINE
  5
3A4
  8
33
  6
CONTINUOUS
 62
     7
 10
1471.802946428571
 20
436.20982142857139
 30
0.0
 11
1476.979327330622
 21
455.52833795435311
 31
0.0
  0
LINE
  5
3A5
  8
33
  6
CONTINUOUS
 62
     7
 10
1471.802946428571
 20
516.20982142857144
 30
0.0
 11
1476.979327330622
 21
496.89130490279001
 31
0.0
  0
LINE
  5
3A6
  8
33
  6
CONTINUOUS
 62
     7
 10
1471.802946428571
 20
516.20982142857144
 30
0.0
 11
1466.6265655265211
 21
496.89130490279001
 31
0.0
  0
LINE
  5
3A7
  8
33
  6
CONTINUOUS
 62
     7
 10
1592.870535714286
 20
436.20982142857139
 30
0.0
 11
1466.802946428571
 21
436.20982142857139
 31
0.0
  0
TEXT
  5
3A8
  8
33
 62
     7
 10
1466.916381835937
 20
458.1385803222654
 30
0.0
 40
20.0
  1
80
 50
90.0
 41
0.75
 51
15.0
 72
     1
 11
1466.916381835937
 21
469.3885803222654
 31
0.0
  0
LINE
  5
3A9
  8
33
  6
DASHDOT
 62
     7
 10
1216.7829241071429
 20
1237.7098214285711
 30
0.0
 11
1280.870535714286
 21
1237.7098214285711
 31
0.0
  0
CIRCLE
  5
3AA
  8
33
  6
CONTINUOUS
 62
     7
 10
1250.870535714286
 20
1237.7098214285711
 30
0.0
 40
20.0
  0
LINE
  5
3BC
  8
33
  6
CONTINUOUS
 62
     7
 10
586.78714285714295
 20
353.65214285714291
 30
0.0
 11
562.53125000000045
 21
353.65214285714291
 31
0.0
  0
LINE
  5
3BD
  8
33
  6
CONTINUOUS
 62
     7
 10
586.78714285714295
 20
303.65214285714291
 30
0.0
 11
562.53125000000045
 21
303.65214285714291
 31
0.0
  0
LINE
  5
3BE
  8
33
  6
CONTINUOUS
 62
     7
 10
586.78714285714295
 20
403.65214285714302
 30
0.0
 11
562.53125000000045
 21
403.65214285714302
 31
0.0
  0
LINE
  5
3BF
  8
33
  6
CONTINUOUS
 62
     7
 10
586.78714285714295
 20
453.65214285714302
 30
0.0
 11
562.53125000000045
 21
453.65214285714302
 31
0.0
  0
LINE
  5
3C0
  8
33
  6
CONTINUOUS
 62
     7
 10
1314.4754464285711
 20
1237.7098214285711
 30
0.0
 11
1314.4754464285711
 21
1290.2098214285711
 31
0.0
  0
LINE
  5
3C1
  8
33
  6
CONTINUOUS
 62
     7
 10
1285.870535714286
 20
1237.7098214285711
 30
0.0
 11
1319.4754464285711
 21
1237.7098214285711
 31
0.0
  0
LINE
  5
3C2
  8
33
  6
CONTINUOUS
 62
     7
 10
1314.4754464285711
 20
1219.311224489795
 30
0.0
 11
1314.4754464285711
 21
1237.7098214285711
 31
0.0
  0
LINE
  5
3C3
  8
33
  6
CONTINUOUS
 62
     7
 10
1314.4754464285711
 20
1237.7098214285711
 30
0.0
 11
1319.6518273306219
 21
1218.3913049027899
 31
0.0
  0
LINE
  5
3C4
  8
33
  6
CONTINUOUS
 62
     7
 10
1314.4754464285711
 20
1237.7098214285711
 30
0.0
 11
1309.299065526521
 21
1218.3913049027899
 31
0.0
  0
LINE
  5
3C5
  8
33
  6
CONTINUOUS
 62
     7
 10
1314.4754464285711
 20
1290.2098214285711
 30
0.0
 11
1314.4754464285711
 21
1320.2098214285711
 31
0.0
  0
LINE
  5
3C6
  8
33
  6
CONTINUOUS
 62
     7
 10
1314.4754464285711
 20
1290.2098214285711
 30
0.0
 11
1309.299065526521
 21
1309.5283379543521
 31
0.0
  0
LINE
  5
3C7
  8
33
  6
CONTINUOUS
 62
     7
 10
1314.4754464285711
 20
1290.2098214285711
 30
0.0
 11
1319.6518273306219
 21
1309.5283379543521
 31
0.0
  0
LINE
  5
3C8
  8
33
  6
CONTINUOUS
 62
     7
 10
1314.4754464285711
 20
1210.4719387755099
 30
0.0
 11
1314.4754464285711
 21
1219.311224489795
 31
0.0
  0
LINE
  5
3C9
  8
33
  6
HIDDEN
 62
     7
 10
1381.3137081579659
 20
1261.3555490498959
 30
0.0
 11
1411.2208928571431
 21
1295.4439285714291
 31
0.0
  0
LINE
  5
3CA
  8
33
  6
HIDDEN
 62
     7
 10
1120.427363270604
 20
1261.3555490498959
 30
0.0
 11
1090.7840003188769
 21
1294.3046077806121
 31
0.0
  0
LINE
  5
3CB
  8
33
  6
HIDDEN
 62
     7
 10
1094.467967106377
 20
474.35148278061189
 30
0.0
 11
1094.467967106377
 21
581.36997767857144
 31
0.0
  0
LINE
  5
3CC
  8
33
  6
HIDDEN
 62
     7
 10
1406.628788120752
 20
486.24242665816291
 30
0.0
 11
1406.628788120752
 21
554.61535395408146
 31
0.0
  0
LINE
  5
3CD
  8
33
  6
HIDDEN
 62
     7
 10
1317.870535714286
 20
471.3787468112244
 30
0.0
 11
1317.870535714286
 21
529.20982142857144
 31
0.0
  0
LINE
  5
3DB
  8
33
  6
HIDDEN
 62
     7
 10
1314.4754464285711
 20
1210.4719387755099
 30
0.0
 11
1314.4754464285711
 21
1251.511479591836
 31
0.0
  0
INSERT
  5
403
  8
0
  6
CONTINUOUS
  2
*U6
 10
0.0
 20
0.0
 30
0.0
  0
INSERT
  5
404
  8
0
  6
CONTINUOUS
  2
*U7
 10
0.0
 20
0.0
 30
0.0
  0
INSERT
  5
405
  8
0
  6
CONTINUOUS
  2
*U8
 10
0.0
 20
0.0
 30
0.0
  0
INSERT
  5
406
  8
0
  6
CONTINUOUS
  2
*U9
 10
0.0
 20
0.0
 30
0.0
  0
INSERT
  5
407
  8
0
  6
CONTINUOUS
  2
*U10
 10
0.0
 20
0.0
 30
0.0
  0
LINE
  5
408
  8
一般
 62
     7
 10
1425.0
 20
100.0
 30
0.0
 11
1425.0
 21
246.24999999999989
 31
0.0
  0
LINE
  5
409
  8
一般
 62
     7
 10
1425.0
 20
148.74999999999989
 30
0.0
 11
1965.0
 21
148.74999999999989
 31
0.0
  0
LINE
  5
40A
  8
一般
 62
     7
 10
1965.0
 20
197.49999999999989
 30
0.0
 11
1965.0
 21
246.24999999999989
 31
0.0
  0
LINE
  5
40B
  8
一般
 62
     7
 10
1965.0
 20
100.0
 30
0.0
 11
1965.0
 21
148.74999999999989
 31
0.0
  0
LINE
  5
40C
  8
一般
 62
     7
 10
1425.0
 20
246.24999999999989
 30
0.0
 11
1965.0
 21
246.24999999999989
 31
0.0
  0
LINE
  5
40D
  8
一般
 62
     7
 10
1425.0
 20
197.49999999999989
 30
0.0
 11
1965.0
 21
197.49999999999989
 31
0.0
  0
LINE
  5
40E
  8
一般
 62
     7
 10
1515.0
 20
148.74999999999989
 30
0.0
 11
1965.0
 21
148.74999999999989
 31
0.0
  0
LINE
  5
40F
  8
一般
 62
     7
 10
1515.0
 20
148.74999999999989
 30
0.0
 11
1515.0
 21
246.24999999999989
 31
0.0
  0
LINE
  5
410
  8
一般
 62
     7
 10
1965.0
 20
1470.0
 30
0.0
 11
-120.0
 21
1470.0
 31
0.0
  0
LINE
  5
411
  8
一般
 62
     7
 10
-120.0
 20
1470.0
 30
0.0
 11
-120.0
 21
100.0
 31
0.0
  0
LINE
  5
412
  8
一般
 62
     7
 10
-120.0
 20
100.0
 30
0.0
 11
1965.0
 21
100.0
 31
0.0
  0
ENDSEC
  0
EOF
