  0
SECTION
  2
HEADER
  9
$ACADVER
  1
AC1015
  9
$ACADMAINTVER
 70
    20
  9
$DWGCODEPAGE
  3
ANSI_932
  9
$INSBASE
 10
0.0
 20
0.0
 30
0.0
  9
$EXTMIN
 10
1278.966777013886
 20
521.5442325705017
 30
-0.000000000000013
  9
$EXTMAX
 10
4059.208120701394
 20
2441.846376725249
 30
0.0000000000000023
  9
$LIMMIN
 10
0.0
 20
0.0
  9
$LIMMAX
 10
0.0
 20
0.0
  9
$ORTHOMODE
 70
     0
  9
$REGENMODE
 70
     1
  9
$FILLMODE
 70
     1
  9
$QTEXTMODE
 70
     0
  9
$MIRRTEXT
 70
     1
  9
$LTSCALE
 40
127.0
  9
$ATTMODE
 70
     1
  9
$TEXTSIZE
 40
0.0
  9
$TRACEWID
 40
1.0
  9
$TEXTSTYLE
  7
Standard
  9
$CLAYER
  8
一般
  9
$CELTYPE
  6
Continuous
  9
$CECOLOR
 62
     7
  9
$CELTSCALE
 40
1.0
  9
$DISPSILH
 70
     0
  9
$DIMSCALE
 40
1.0
  9
$DIMASZ
 40
0.18
  9
$DIMEXO
 40
0.0625
  9
$DIMDLI
 40
0.38
  9
$DIMRND
 40
0.0
  9
$DIMDLE
 40
0.0
  9
$DIMEXE
 40
0.18
  9
$DIMTP
 40
0.0
  9
$DIMTM
 40
0.0
  9
$DIMTXT
 40
0.18
  9
$DIMCEN
 40
0.09
  9
$DIMTSZ
 40
0.0
  9
$DIMTOL
 70
     0
  9
$DIMLIM
 70
     0
  9
$DIMTIH
 70
     1
  9
$DIMTOH
 70
     1
  9
$DIMSE1
 70
     0
  9
$DIMSE2
 70
     0
  9
$DIMTAD
 70
     0
  9
$DIMZIN
 70
     0
  9
$DIMBLK
  1

  9
$DIMASO
 70
     1
  9
$DIMSHO
 70
     1
  9
$DIMPOST
  1

  9
$DIMAPOST
  1

  9
$DIMALT
 70
     0
  9
$DIMALTD
 70
     2
  9
$DIMALTF
 40
25.4
  9
$DIMLFAC
 40
1.0
  9
$DIMTOFL
 70
     0
  9
$DIMTVP
 40
0.0
  9
$DIMTIX
 70
     0
  9
$DIMSOXD
 70
     0
  9
$DIMSAH
 70
     0
  9
$DIMBLK1
  1

  9
$DIMBLK2
  1

  9
$DIMSTYLE
  2
Standard
  9
$DIMCLRD
 70
     0
  9
$DIMCLRE
 70
     0
  9
$DIMCLRT
 70
     0
  9
$DIMTFAC
 40
1.0
  9
$DIMGAP
 40
0.09
  9
$DIMJUST
 70
     0
  9
$DIMSD1
 70
     0
  9
$DIMSD2
 70
     0
  9
$DIMTOLJ
 70
     1
  9
$DIMTZIN
 70
     0
  9
$DIMALTZ
 70
     0
  9
$DIMALTTZ
 70
     0
  9
$DIMUPT
 70
     0
  9
$DIMDEC
 70
     4
  9
$DIMTDEC
 70
     4
  9
$DIMALTU
 70
     2
  9
$DIMALTTD
 70
     2
  9
$DIMTXSTY
  7
Standard
  9
$DIMAUNIT
 70
     0
  9
$DIMADEC
 70
     0
  9
$DIMALTRND
 40
0.0
  9
$DIMAZIN
 70
     0
  9
$DIMDSEP
 70
     0
  9
$DIMATFIT
 70
     3
  9
$DIMFRAC
 70
     0
  9
$DIMLDRBLK
  1

  9
$DIMLUNIT
 70
     2
  9
$DIMLWD
 70
     0
  9
$DIMLWE
 70
     0
  9
$DIMTMOVE
 70
     0
  9
$LUNITS
 70
     2
  9
$LUPREC
 70
     4
  9
$SKETCHINC
 40
0.1
  9
$FILLETRAD
 40
0.0
  9
$AUNITS
 70
     0
  9
$AUPREC
 70
     0
  9
$MENU
  1
acad
  9
$ELEVATION
 40
0.0
  9
$PELEVATION
 40
0.0
  9
$THICKNESS
 40
0.0
  9
$LIMCHECK
 70
     0
  9
$CHAMFERA
 40
0.0
  9
$CHAMFERB
 40
0.0
  9
$CHAMFERC
 40
0.0
  9
$CHAMFERD
 40
0.0
  9
$SKPOLY
 70
     0
  9
$TDCREATE
 40
2453837.489419664
  9
$TDUCREATE
 40
2453837.114419664
  9
$TDUPDATE
 40
2454456.628061516
  9
$TDUUPDATE
 40
2454456.253061517
  9
$TDINDWG
 40
0.0966086111
  9
$TDUSRTIMER
 40
0.0966008449
  9
$USRTIMER
 70
     1
  9
$ANGBASE
 50
0.0
  9
$ANGDIR
 70
     0
  9
$PDMODE
 70
     1
  9
$PDSIZE
 40
-2.0
  9
$PLINEWID
 40
0.0
  9
$SPLFRAME
 70
     0
  9
$SPLINETYPE
 70
     6
  9
$SPLINESEGS
 70
     8
  9
$HANDSEED
  5
1580
  9
$SURFTAB1
 70
     6
  9
$SURFTAB2
 70
     6
  9
$SURFTYPE
 70
     6
  9
$SURFU
 70
     6
  9
$SURFV
 70
     6
  9
$UCSBASE
  2

  9
$UCSNAME
  2

  9
$UCSORG
 10
0.0
 20
0.0
 30
0.0
  9
$UCSXDIR
 10
1.0
 20
0.0
 30
0.0
  9
$UCSYDIR
 10
0.0
 20
1.0
 30
0.0
  9
$UCSORTHOREF
  2

  9
$UCSORTHOVIEW
 70
     0
  9
$UCSORGTOP
 10
0.0
 20
0.0
 30
0.0
  9
$UCSORGBOTTOM
 10
0.0
 20
0.0
 30
0.0
  9
$UCSORGLEFT
 10
0.0
 20
0.0
 30
0.0
  9
$UCSORGRIGHT
 10
0.0
 20
0.0
 30
0.0
  9
$UCSORGFRONT
 10
0.0
 20
0.0
 30
0.0
  9
$UCSORGBACK
 10
0.0
 20
0.0
 30
0.0
  9
$PUCSBASE
  2

  9
$PUCSNAME
  2

  9
$PUCSORG
 10
0.0
 20
0.0
 30
0.0
  9
$PUCSXDIR
 10
1.0
 20
0.0
 30
0.0
  9
$PUCSYDIR
 10
0.0
 20
1.0
 30
0.0
  9
$PUCSORTHOREF
  2

  9
$PUCSORTHOVIEW
 70
     0
  9
$PUCSORGTOP
 10
0.0
 20
0.0
 30
0.0
  9
$PUCSORGBOTTOM
 10
0.0
 20
0.0
 30
0.0
  9
$PUCSORGLEFT
 10
0.0
 20
0.0
 30
0.0
  9
$PUCSORGRIGHT
 10
0.0
 20
0.0
 30
0.0
  9
$PUCSORGFRONT
 10
0.0
 20
0.0
 30
0.0
  9
$PUCSORGBACK
 10
0.0
 20
0.0
 30
0.0
  9
$USERI1
 70
     0
  9
$USERI2
 70
     0
  9
$USERI3
 70
     0
  9
$USERI4
 70
     0
  9
$USERI5
 70
     0
  9
$USERR1
 40
0.0
  9
$USERR2
 40
0.0
  9
$USERR3
 40
0.0
  9
$USERR4
 40
0.0
  9
$USERR5
 40
0.0
  9
$WORLDVIEW
 70
     1
  9
$SHADEDGE
 70
     3
  9
$SHADEDIF
 70
    70
  9
$TILEMODE
 70
     1
  9
$MAXACTVP
 70
    16
  9
$PINSBASE
 10
0.0
 20
0.0
 30
0.0
  9
$PLIMCHECK
 70
     0
  9
$PEXTMIN
 10
1.000000000000000E+20
 20
1.000000000000000E+20
 30
1.000000000000000E+20
  9
$PEXTMAX
 10
-1.000000000000000E+20
 20
-1.000000000000000E+20
 30
-1.000000000000000E+20
  9
$PLIMMIN
 10
0.0
 20
0.0
  9
$PLIMMAX
 10
12.0
 20
9.0
  9
$UNITMODE
 70
     0
  9
$VISRETAIN
 70
     0
  9
$PLINEGEN
 70
     1
  9
$PSLTSCALE
 70
     0
  9
$TREEDEPTH
 70
  3020
  9
$CMLSTYLE
  2
Standard
  9
$CMLJUST
 70
     0
  9
$CMLSCALE
 40
1.0
  9
$PROXYGRAPHICS
 70
     0
  9
$MEASUREMENT
 70
     1
  9
$CELWEIGHT
370
     0
  9
$ENDCAPS
280
     0
  9
$JOINSTYLE
280
     0
  9
$LWDISPLAY
290
     1
  9
$INSUNITS
 70
     4
  9
$HYPERLINKBASE
  1

  9
$STYLESHEET
  1

  9
$XEDIT
290
     1
  9
$CEPSNTYPE
380
     0
  9
$PSTYLEMODE
290
     1
  9
$FINGERPRINTGUID
  2

  9
$VERSIONGUID
  2
{10CC96C2-0A77-4A01-B6A2-613955F62302}
  9
$EXTNAMES
290
     1
  9
$PSVPSCALE
 40
0.0
  9
$OLESTARTUP
290
     0
  0
ENDSEC
  0
SECTION
  2
CLASSES
  0
CLASS
  1
IMAGE
  2
AcDbRasterImage
  3
ISM
 90
    32895
280
     0
281
     1
  0
CLASS
  1
DICTIONARYVAR
  2
AcDbDictionaryVar
  3
ObjectDBX Classes
 90
        0
280
     0
281
     0
  0
CLASS
  1
RASTERVARIABLES
  2
AcDbRasterVariables
  3
ISM
 90
    32768
280
     0
281
     0
  0
CLASS
  1
IMAGEDEF
  2
AcDbRasterImageDef
  3
ISM
 90
    32768
280
     0
281
     0
  0
CLASS
  1
IMAGEDEF_REACTOR
  2
AcDbRasterImageDefReactor
  3
ISM
 90
    32769
280
     0
281
     0
  0
CLASS
  1
IDBUFFER
  2
AcDbIdBuffer
  3
ObjectDBX Classes
 90
    32768
280
     0
281
     0
  0
CLASS
  1
SPATIAL_FILTER
  2
AcDbSpatialFilter
  3
ObjectDBX Classes
 90
    32768
280
     0
281
     0
  0
CLASS
  1
SORTENTSTABLE
  2
AcDbSortentsTable
  3
ObjectDBX Classes
 90
    32768
280
     0
281
     0
  0
CLASS
  1
LAYER_INDEX
  2
AcDbLayerIndex
  3
ObjectDBX Classes
 90
    32768
280
     0
281
     0
  0
CLASS
  1
SPATIAL_INDEX
  2
AcDbSpatialIndex
  3
ObjectDBX Classes
 90
    32768
280
     0
281
     0
  0
CLASS
  1
OBJECT_PTR
  2
CAseDLPNTableRecord
  3
"ASE-LPNTableRecord"
 90
    32769
280
     0
281
     0
  0
CLASS
  1
LAYOUT
  2
AcDbLayout
  3
ObjectDBX Classes
 90
        0
280
     0
281
     0
  0
CLASS
  1
PLOTSETTINGS
  2
AcDbPlotSettings
  3
ObjectDBX Classes
 90
    32768
280
     0
281
     0
  0
CLASS
  1
ACDBDICTIONARYWDFLT
  2
AcDbDictionaryWithDefault
  3
ObjectDBX Classes
 90
        0
280
     0
281
     0
  0
CLASS
  1
ACDBPLACEHOLDER
  2
AcDbPlaceHolder
  3
ObjectDBX Classes
 90
        0
280
     0
281
     0
  0
CLASS
  1
VBA_PROJECT
  2
AcDbVbaProject
  3
acad
 90
    32768
280
     0
281
     0
  0
CLASS
  1
WIPEOUT
  2
AcDbWipeout
  3
"WipeOut|Product Desc: Object Enabler for WipeOut entity^I^I^I^I^I^I|Company: Autodesk, Inc.^I^I^I^I^I^I|WEB Address: www.autodesk.com"
 90
    32895
280
     0
281
     1
  0
CLASS
  1
WIPEOUTVARIABLES
  2
AcDbWipeoutVariables
  3
"WipeOut|Product Desc:     WipeOut Dbx Application|Company:          Autodesk, Inc.|WEB Address:      www.autodesk.com"
 90
        0
280
     0
281
     0
  0
CLASS
  1
RTEXT
  2
RText
  3
RText|AutoCAD Express Tool|expresstools@autodesk.com
 90
    32768
280
     0
281
     1
  0
CLASS
  1
ARCALIGNEDTEXT
  2
AcDbArcAlignedText
  3
ATEXT|AutoCAD Express Tool|expresstools@autodesk.com
 90
    32768
280
     0
281
     1
  0
ENDSEC
  0
SECTION
  2
TABLES
  0
TABLE
  2
VPORT
  5
7
330
0
100
AcDbSymbolTable
 70
     3
  0
VPORT
  5
1575
330
7
100
AcDbSymbolTableRecord
100
AcDbViewportTableRecord
  2
*Active
 70
     0
 10
0.0
 20
0.0
 11
1.0
 21
1.0
 12
2669.08744885764
 22
1481.695304647875
 13
0.0
 23
0.0
 14
1.0
 24
1.0
 15
0.0
 25
0.0
 16
0.0
 26
0.0
 36
1.0
 17
0.0
 27
0.0
 37
0.0
 40
1939.47321381353
 41
1.796666666666666
 42
50.0
 43
0.0
 44
0.0
 50
0.0
 51
0.0
 71
     0
 72
   100
 73
     1
 74
     1
 75
     0
 76
     0
 77
     0
 78
     0
281
     0
 65
     0
110
0.0
120
0.0
130
0.0
111
1.0
121
0.0
131
0.0
112
0.0
122
1.0
132
0.0
 79
     0
146
0.0
  0
ENDTAB
  0
TABLE
  2
LTYPE
  5
4
330
0
100
AcDbSymbolTable
 70
    17
  0
LTYPE
  5
11
330
4
100
AcDbSymbolTableRecord
100
AcDbLinetypeTableRecord
  2
ByBlock
 70
     0
  3

 72
    65
 73
     0
 40
0.0
  0
LTYPE
  5
12
330
4
100
AcDbSymbolTableRecord
100
AcDbLinetypeTableRecord
  2
ByLayer
 70
     0
  3

 72
    65
 73
     0
 40
0.0
  0
LTYPE
  5
13
330
4
100
AcDbSymbolTableRecord
100
AcDbLinetypeTableRecord
  2
Continuous
 70
     0
  3
Solid line
 72
    65
 73
     0
 40
0.0
  0
LTYPE
  5
26
330
4
100
AcDbSymbolTableRecord
100
AcDbLinetypeTableRecord
  2
STYLE_01
 70
     0
  3

 72
    65
 73
     2
 40
0.4429133858267717
 49
0.2952755905511811
 74
     0
 49
-0.1476377952755906
 74
     0
  0
LTYPE
  5
27
330
4
100
AcDbSymbolTableRecord
100
AcDbLinetypeTableRecord
  2
STYLE_02
 70
     0
  3

 72
    65
 73
     2
 40
0.2214566929133859
 49
0.1476377952755906
 74
     0
 49
-0.0738188976377953
 74
     0
  0
LTYPE
  5
28
330
4
100
AcDbSymbolTableRecord
100
AcDbLinetypeTableRecord
  2
STYLE_03
 70
     0
  3

 72
    65
 73
     2
 40
0.1476377952755906
 49
0.0002
 74
     0
 49
-0.1474377952755906
 74
     0
  0
LTYPE
  5
29
330
4
100
AcDbSymbolTableRecord
100
AcDbLinetypeTableRecord
  2
STYLE_04
 70
     0
  3

 72
    65
 73
     4
 40
0.5905511811023623
 49
0.2952755905511811
 74
     0
 49
-0.1476377952755906
 74
     0
 49
0.0002
 74
     0
 49
-0.1474377952755906
 74
     0
  0
LTYPE
  5
2A
330
4
100
AcDbSymbolTableRecord
100
AcDbLinetypeTableRecord
  2
STYLE_05
 70
     0
  3

 72
    65
 73
     6
 40
0.7381889763779528
 49
0.2952755905511811
 74
     0
 49
-0.1476377952755906
 74
     0
 49
0.0002
 74
     0
 49
-0.1474377952755906
 74
     0
 49
0.0002
 74
     0
 49
-0.1474377952755905
 74
     0
  0
LTYPE
  5
2B
330
4
100
AcDbSymbolTableRecord
100
AcDbLinetypeTableRecord
  2
STYLE_06
 70
     0
  3

 72
    65
 73
     4
 40
0.4166560000000001
 49
0.25
 74
     0
 49
-0.083312
 74
     0
 49
0.027772
 74
     0
 49
-0.055572
 74
     0
  0
LTYPE
  5
2C
330
4
100
AcDbSymbolTableRecord
100
AcDbLinetypeTableRecord
  2
STYLE_07
 70
     0
  3

 72
    65
 73
     6
 40
0.75
 49
0.25
 74
     0
 49
-0.083312
 74
     0
 49
0.2500000000000001
 74
     0
 49
-0.083344
 74
     0
 49
0.027772
 74
     0
 49
-0.055572
 74
     0
  0
LTYPE
  5
2D
330
4
100
AcDbSymbolTableRecord
100
AcDbLinetypeTableRecord
  2
STYLE_08
 70
     0
  3

 72
    65
 73
     6
 40
0.5
 49
0.25
 74
     0
 49
-0.083312
 74
     0
 49
0.027772
 74
     0
 49
-0.055572
 74
     0
 49
0.027772
 74
     0
 49
-0.055572
 74
     0
  0
LTYPE
  5
2E
330
4
100
AcDbSymbolTableRecord
100
AcDbLinetypeTableRecord
  2
STYLE_09
 70
     0
  3

 72
    65
 73
     4
 40
2.0
 49
1.5
 74
     0
 49
-0.1111139999999999
 74
     0
 49
0.2777720000000001
 74
     0
 49
-0.1111139999999999
 74
     0
  0
LTYPE
  5
2F
330
4
100
AcDbSymbolTableRecord
100
AcDbLinetypeTableRecord
  2
STYLE_10
 70
     0
  3

 72
    65
 73
     6
 40
2.375
 49
1.5
 74
     0
 49
-0.1111139999999999
 74
     0
 49
0.2777720000000001
 74
     0
 49
-0.1111139999999999
 74
     0
 49
0.25
 74
     0
 49
-0.125
 74
     0
  0
LTYPE
  5
360
330
4
100
AcDbSymbolTableRecord
100
AcDbLinetypeTableRecord
  2
CENTER2
 70
     0
  3
Center (.5x) ___ _ ___ _ ___ _ ___ _ ___ _ ___
 72
    65
 73
     4
 40
28.575
 49
19.05
 74
     0
 49
-3.174999999999998
 74
     0
 49
3.174999999999998
 74
     0
 49
-3.174999999999998
 74
     0
  0
LTYPE
  5
4F1
330
4
100
AcDbSymbolTableRecord
100
AcDbLinetypeTableRecord
  2
DASHED
 70
     0
  3
__ __ __ __ __ __ __ __ __ __ __ __ __ __ __
 72
    65
 73
     2
 40
0.75
 49
0.5
 74
     0
 49
-0.25
 74
     0
  0
LTYPE
  5
4F2
330
4
100
AcDbSymbolTableRecord
100
AcDbLinetypeTableRecord
  2
HIDDEN
 70
     0
  3
_ _ _ _ _ _ _ _ _ _ _ _ _ _ _ _ _ _ _ _ _ _ _
 72
    65
 73
     2
 40
0.375
 49
0.25
 74
     0
 49
-0.125
 74
     0
  0
LTYPE
  5
4F3
330
4
100
AcDbSymbolTableRecord
100
AcDbLinetypeTableRecord
  2
DOT
 70
     0
  3
...............................................
 72
    65
 73
     2
 40
0.25
 49
0.0
 74
     0
 49
-0.25
 74
     0
  0
LTYPE
  5
4F4
330
4
100
AcDbSymbolTableRecord
100
AcDbLinetypeTableRecord
  2
DASHDOT
 70
     0
  3
__ . __ . __ . __ . __ . __ . __ . __ . __ . __
 72
    65
 73
     4
 40
1.0
 49
0.5
 74
     0
 49
-0.25
 74
     0
 49
0.0
 74
     0
 49
-0.25
 74
     0
  0
LTYPE
  5
4F5
330
4
100
AcDbSymbolTableRecord
100
AcDbLinetypeTableRecord
  2
DIVIDE
 70
     0
  3
__ . . __ . . __ . . __ . . __ . . __ . . __
 72
    65
 73
     6
 40
1.25
 49
0.5
 74
     0
 49
-0.25
 74
     0
 49
0.0
 74
     0
 49
-0.25
 74
     0
 49
0.0
 74
     0
 49
-0.25
 74
     0
  0
ENDTAB
  0
TABLE
  2
LAYER
  5
2
330
0
100
AcDbSymbolTable
 70
     9
  0
LAYER
  5
14
330
2
100
AcDbSymbolTableRecord
100
AcDbLayerTableRecord
  2
0
 70
     0
 62
     7
  6
Continuous
370
    -3
390
1D
  0
LAYER
  5
30
330
2
100
AcDbSymbolTableRecord
100
AcDbLayerTableRecord
  2
Defpoints
 70
     0
 62
     7
  6
Continuous
290
     0
370
    -3
390
1D
  0
LAYER
  5
31
330
2
100
AcDbSymbolTableRecord
100
AcDbLayerTableRecord
  2
一般
 70
     0
 62
     7
  6
Continuous
370
     5
390
1D
  0
LAYER
  5
32
330
2
100
AcDbSymbolTableRecord
100
AcDbLayerTableRecord
  2
寸法
 70
     0
 62
     7
  6
Continuous
370
     5
390
1D
  0
LAYER
  5
33
330
2
100
AcDbSymbolTableRecord
100
AcDbLayerTableRecord
  2
実形
 70
     0
 62
     7
  6
Continuous
370
    18
390
1D
  0
LAYER
  5
361
330
2
100
AcDbSymbolTableRecord
100
AcDbLayerTableRecord
  2
補助
 70
     0
 62
    -4
  6
Continuous
290
     0
370
    -3
390
1D
  0
LAYER
  5
362
330
2
100
AcDbSymbolTableRecord
100
AcDbLayerTableRecord
  2
Cen
 70
     0
 62
     7
  6
CENTER2
370
    15
390
1D
  0
LAYER
  5
4F6
330
2
100
AcDbSymbolTableRecord
100
AcDbLayerTableRecord
  2
1
 70
     0
 62
     7
  6
Continuous
370
    -3
390
1D
  0
LAYER
  5
4F7
330
2
100
AcDbSymbolTableRecord
100
AcDbLayerTableRecord
  2
4
 70
     0
 62
     7
  6
Continuous
370
    -3
390
1D
  0
ENDTAB
  0
TABLE
  2
STYLE
  5
3
330
0
100
AcDbSymbolTable
 70
     4
  0
STYLE
  5
17
330
3
100
AcDbSymbolTableRecord
100
AcDbTextStyleTableRecord
  2
Standard
 70
     0
 40
0.0
 41
1.0
 50
0.0
 71
     0
 42
0.0
  3
txt
  4
BIGFONT.SHX
  0
STYLE
  5
24
330
3
100
AcDbSymbolTableRecord
100
AcDbTextStyleTableRecord
  2
Arial
 70
     0
 40
0.0
 41
1.0
 50
0.0
 71
     0
 42
0.0
  3
ARIAL.TTF
  4

1001
ACAD
1000
Arial
1071
        0
  0
STYLE
  5
25
330
3
100
AcDbSymbolTableRecord
100
AcDbTextStyleTableRecord
  2
ＭＳ ゴシック
 70
     0
 40
0.0
 41
1.0
 50
0.0
 71
     0
 42
0.0
  3
MS Gothic.ttf
  4

1001
ACAD
1000
ＭＳ ゴシック
1071
        0
  0
STYLE
  5
4F8
330
3
100
AcDbSymbolTableRecord
100
AcDbTextStyleTableRecord
  2
BIGFONT
 70
     0
 40
1.0
 41
1.0
 50
0.0
 71
     0
 42
1.0
  3
TXT
  4
BIGFONT
  0
ENDTAB
  0
TABLE
  2
VIEW
  5
5
330
0
100
AcDbSymbolTable
 70
     0
  0
ENDTAB
  0
TABLE
  2
UCS
  5
6
330
0
100
AcDbSymbolTable
 70
     0
  0
ENDTAB
  0
TABLE
  2
APPID
  5
8
330
0
100
AcDbSymbolTable
 70
     1
  0
APPID
  5
16
330
8
100
AcDbSymbolTableRecord
100
AcDbRegAppTableRecord
  2
ACAD
 70
     0
  0
ENDTAB
  0
TABLE
  2
DIMSTYLE
  5
9
330
0
100
AcDbSymbolTable
 70
     2
100
AcDbDimStyleTable
 71
     0
  0
DIMSTYLE
105
18
330
9
100
AcDbSymbolTableRecord
100
AcDbDimStyleTableRecord
  2
Standard
 70
     0
340
17
  0
DIMSTYLE
105
363
330
9
100
AcDbSymbolTableRecord
100
AcDbDimStyleTableRecord
  2
ISO-25
 70
     0
 41
35.0
 42
65.0
 43
3.75
 44
0.0
 73
     0
 74
     0
 77
     1
 78
     8
140
25.0
141
2.5
143
0.03937007874016
147
6.25
171
     3
172
     1
271
     2
272
     2
274
     3
283
     0
284
     8
340
17
341
35A
342
356
371
    15
372
    15
  0
ENDTAB
  0
TABLE
  2
BLOCK_RECORD
  5
1
330
0
100
AcDbSymbolTable
 70
     3
  0
BLOCK_RECORD
  5
A
330
1
100
AcDbSymbolTableRecord
100
AcDbBlockTableRecord
  2
*MODEL_SPACE
340
20
  0
BLOCK_RECORD
  5
B
330
1
100
AcDbSymbolTableRecord
100
AcDbBlockTableRecord
  2
*PAPER_SPACE
340
21
  0
BLOCK_RECORD
  5
356
330
1
100
AcDbSymbolTableRecord
100
AcDbBlockTableRecord
  2
_DotSmall
340
0
  0
BLOCK_RECORD
  5
35A
330
1
100
AcDbSymbolTableRecord
100
AcDbBlockTableRecord
  2
_Open30
340
0
  0
ENDTAB
  0
ENDSEC
  0
SECTION
  2
BLOCKS
  0
BLOCK
  5
D
330
A
100
AcDbEntity
  8
0
100
AcDbBlockBegin
  2
*MODEL_SPACE
 70
     0
 10
0.0
 20
0.0
 30
0.0
  3
*MODEL_SPACE
  1

  0
ENDBLK
  5
E
330
A
100
AcDbEntity
  8
0
100
AcDbBlockEnd
  0
BLOCK
  5
F
330
B
100
AcDbEntity
 67
     1
  8
0
100
AcDbBlockBegin
  2
*PAPER_SPACE
 70
     0
 10
0.0
 20
0.0
 30
0.0
  3
*PAPER_SPACE
  1

  0
ENDBLK
  5
10
330
B
100
AcDbEntity
 67
     1
  8
0
100
AcDbBlockEnd
  0
BLOCK
  5
357
330
356
100
AcDbEntity
  8
0
100
AcDbBlockBegin
  2
_DotSmall
 70
     0
 10
0.0
 20
0.0
 30
0.0
  3
_DotSmall
  1

  0
LWPOLYLINE
  5
358
330
356
100
AcDbEntity
  8
0
 62
     0
100
AcDbPolyline
 90
        2
 70
     1
 43
0.5
 10
-0.0625
 20
0.0
 42
1.0
 10
0.0625
 20
0.0
 42
1.0
  0
ENDBLK
  5
359
330
356
100
AcDbEntity
  8
0
100
AcDbBlockEnd
  0
BLOCK
  5
35B
330
35A
100
AcDbEntity
  8
0
100
AcDbBlockBegin
  2
_Open30
 70
     0
 10
0.0
 20
0.0
 30
0.0
  3
_Open30
  1

  0
LINE
  5
35C
330
35A
100
AcDbEntity
  8
0
 62
     0
370
    -2
100
AcDbLine
 10
-1.0
 20
0.26794919
 30
0.0
 11
0.0
 21
0.0
 31
0.0
  0
LINE
  5
35D
330
35A
100
AcDbEntity
  8
0
 62
     0
370
    -2
100
AcDbLine
 10
0.0
 20
0.0
 30
0.0
 11
-1.0
 21
-0.26794919
 31
0.0
  0
LINE
  5
35E
330
35A
100
AcDbEntity
  8
0
 62
     0
370
    -2
100
AcDbLine
 10
0.0
 20
0.0
 30
0.0
 11
-1.0
 21
0.0
 31
0.0
  0
ENDBLK
  5
35F
330
35A
100
AcDbEntity
  8
0
100
AcDbBlockEnd
  0
ENDSEC
  0
SECTION
  2
ENTITIES
  0
LINE
  5
3AF
330
A
100
AcDbEntity
  8
0
100
AcDbLine
 10
4059.126701682209
 20
2441.709131718699
 30
0.0
 11
4059.126701682209
 21
521.6783295177569
 31
0.0
  0
LINE
  5
3BE
330
A
100
AcDbEntity
  8
0
100
AcDbLine
 10
4059.126701682209
 20
2246.709131718699
 30
0.0
 11
4059.126701682209
 21
2441.709131718699
 31
0.0
  0
LINE
  5
3BF
330
A
100
AcDbEntity
  8
実形
100
AcDbLine
 10
4059.126701682209
 20
2441.709131718699
 30
0.0
 11
4059.126701682209
 21
2246.709131718699
 31
0.0
  0
LINE
  5
3D0
330
A
100
AcDbEntity
  8
補助
100
AcDbLine
 10
3457.371916419397
 20
666.678329517757
 30
0.0
 11
4057.371916419397
 21
731.678329517757
 31
0.0
  0
LINE
  5
3D1
330
A
100
AcDbEntity
  8
補助
100
AcDbLine
 10
4057.371916419397
 20
601.6783295177567
 30
0.0
 11
3617.371916419398
 21
662.5293933475441
 31
0.0
  0
LINE
  5
3D2
330
A
100
AcDbEntity
  8
補助
100
AcDbLine
 10
3617.371916419398
 20
536.678329517757
 30
0.0
 11
4057.371916419397
 21
601.6783295177567
 31
0.0
  0
LINE
  5
3D3
330
A
100
AcDbEntity
  8
補助
100
AcDbLine
 10
3617.371916419398
 20
601.6783295177567
 30
0.0
 11
4057.371916419397
 21
536.678329517757
 31
0.0
  0
LINE
  5
3D4
330
A
100
AcDbEntity
  8
補助
100
AcDbLine
 10
4057.371916419397
 20
666.678329517757
 30
0.0
 11
3617.371916419398
 21
601.6783295177567
 31
0.0
  0
LINE
  5
3D5
330
A
100
AcDbEntity
  8
補助
100
AcDbLine
 10
3457.371916419397
 20
731.678329517757
 30
0.0
 11
4057.371916419397
 21
666.678329517757
 31
0.0
  0
LINE
  5
3D6
330
A
100
AcDbEntity
  8
補助
100
AcDbLine
 10
3457.371916419397
 20
601.6783295177567
 30
0.0
 11
3617.371916419398
 21
662.5293933475441
 31
0.0
  0
LINE
  5
3D7
330
A
100
AcDbEntity
  8
補助
100
AcDbLine
 10
3617.371916419398
 20
536.678329517757
 30
0.0
 11
3457.371916419397
 21
601.6783295177567
 31
0.0
  0
LINE
  5
3D8
330
A
100
AcDbEntity
  8
補助
100
AcDbLine
 10
3617.371916419398
 20
601.6783295177567
 30
0.0
 11
3457.371916419397
 21
536.678329517757
 31
0.0
  0
LINE
  5
3D9
330
A
100
AcDbEntity
  8
補助
100
AcDbLine
 10
3457.371916419397
 20
666.678329517757
 30
0.0
 11
3617.371916419398
 21
601.6783295177567
 31
0.0
  0
LINE
  5
3DA
330
A
100
AcDbEntity
  8
補助
100
AcDbLine
 10
1863.101669610269
 20
1042.353785193776
 30
0.0
 11
4035.595761267005
 21
1042.353785193776
 31
0.0
  0
LINE
  5
3DB
330
A
100
AcDbEntity
  8
補助
100
AcDbLine
 10
2976.96554620887
 20
2121.353785193777
 30
0.0
 11
2976.96554620887
 21
1640.702275405103
 31
0.0
  0
LINE
  5
3DC
330
A
100
AcDbEntity
  8
補助
100
AcDbLine
 10
2431.96554620887
 20
1681.353785193777
 30
0.0
 11
2431.96554620887
 21
2200.346374234629
 31
0.0
  0
LINE
  5
3DD
330
A
100
AcDbEntity
  8
補助
100
AcDbLine
 10
2976.96554620887
 20
2240.090071255157
 30
0.0
 11
2976.96554620887
 21
819.0875953030831
 31
0.0
  0
LINE
  5
3DE
330
A
100
AcDbEntity
  8
補助
100
AcDbLine
 10
2431.96554620887
 20
2240.090071255157
 30
0.0
 11
2431.96554620887
 21
819.0875953030831
 31
0.0
  0
LINE
  5
3DF
330
A
100
AcDbEntity
  8
補助
100
AcDbLine
 10
2061.965546208869
 20
2151.356661467201
 30
0.0
 11
2061.965546208869
 21
2223.282535680899
 31
0.0
  0
LINE
  5
3E0
330
A
100
AcDbEntity
  8
補助
100
AcDbLine
 10
2071.96554620887
 20
2161.356661467201
 30
0.0
 11
1957.688328695208
 21
2161.323792214825
 31
0.0
  0
LINE
  5
3E1
330
A
100
AcDbEntity
  8
補助
100
AcDbLine
 10
2796.96554620887
 20
2240.090071255157
 30
0.0
 11
2796.96554620887
 21
819.0875953030831
 31
0.0
  0
LINE
  5
3E2
330
A
100
AcDbEntity
  8
補助
100
AcDbLine
 10
2756.965546208869
 20
2240.090071255157
 30
0.0
 11
2756.965546208869
 21
819.0875953030831
 31
0.0
  0
LINE
  5
3E3
330
A
100
AcDbEntity
  8
補助
100
AcDbLine
 10
3156.96554620887
 20
2240.090071255157
 30
0.0
 11
3156.96554620887
 21
819.0875953030831
 31
0.0
  0
LINE
  5
3E4
330
A
100
AcDbEntity
  8
補助
100
AcDbLine
 10
2106.965546208869
 20
2240.090071255157
 30
0.0
 11
2106.965546208869
 21
819.0875953030831
 31
0.0
  0
LINE
  5
3E5
330
A
100
AcDbEntity
  8
補助
100
AcDbLine
 10
1863.101669610269
 20
1681.353785193777
 30
0.0
 11
4035.595761267005
 21
1681.353785193777
 31
0.0
  0
LINE
  5
3E6
330
A
100
AcDbEntity
  8
補助
100
AcDbLine
 10
1863.101669610269
 20
2121.353785193777
 30
0.0
 11
4035.595761267005
 21
2121.353785193777
 31
0.0
  0
LINE
  5
3E7
330
A
100
AcDbEntity
  8
補助
100
AcDbLine
 10
3183.96554620887
 20
2240.090071255157
 30
0.0
 11
3183.96554620887
 21
819.0875953030831
 31
0.0
  0
LINE
  5
3E8
330
A
100
AcDbEntity
  8
補助
100
AcDbLine
 10
2079.965546208869
 20
2240.090071255157
 30
0.0
 11
2079.965546208869
 21
819.0875953030831
 31
0.0
  0
LINE
  5
3E9
330
A
100
AcDbEntity
  8
補助
100
AcDbLine
 10
1863.101669610269
 20
1659.353785193777
 30
0.0
 11
4035.595761267005
 21
1659.353785193777
 31
0.0
  0
LINE
  5
3EA
330
A
100
AcDbEntity
  8
補助
100
AcDbLine
 10
1863.101669610269
 20
2143.353785193777
 30
0.0
 11
4035.595761267005
 21
2143.353785193777
 31
0.0
  0
LINE
  5
3EB
330
A
100
AcDbEntity
  8
補助
100
AcDbLine
 10
3201.96554620887
 20
2240.090071255157
 30
0.0
 11
3201.96554620887
 21
819.0875953030831
 31
0.0
  0
LINE
  5
3EC
330
A
100
AcDbEntity
  8
補助
100
AcDbLine
 10
2061.965546208869
 20
2240.090071255157
 30
0.0
 11
2061.965546208869
 21
819.0875953030831
 31
0.0
  0
LINE
  5
3ED
330
A
100
AcDbEntity
  8
補助
100
AcDbLine
 10
1863.101669610269
 20
1241.353785193777
 30
0.0
 11
4035.595761267005
 21
1241.353785193777
 31
0.0
  0
LINE
  5
3EE
330
A
100
AcDbEntity
  8
補助
100
AcDbLine
 10
1863.101669610269
 20
1641.353785193777
 30
0.0
 11
4035.595761267005
 21
1641.353785193777
 31
0.0
  0
LINE
  5
3EF
330
A
100
AcDbEntity
  8
補助
100
AcDbLine
 10
1863.101669610269
 20
2161.353785193777
 30
0.0
 11
4035.595761267005
 21
2161.353785193777
 31
0.0
  0
LINE
  5
3F1
330
A
100
AcDbEntity
  8
0
100
AcDbLine
 10
4059.126701682209
 20
2441.709131718699
 30
0.0
 11
1279.126701682208
 21
2441.709131718699
 31
0.0
  0
LINE
  5
3F2
330
A
100
AcDbEntity
  8
0
100
AcDbLine
 10
1279.126701682208
 20
2441.709131718699
 30
0.0
 11
1279.126701682208
 21
521.6783295177569
 31
0.0
  0
LINE
  5
3F3
330
A
100
AcDbEntity
  8
0
100
AcDbLine
 10
1279.126701682208
 20
521.6783295177569
 30
0.0
 11
4057.371916419397
 21
521.6783295177569
 31
0.0
  0
LINE
  5
3F4
330
A
100
AcDbEntity
  8
0
100
AcDbLine
 10
1279.126701682208
 20
521.6783295177569
 30
0.0
 11
1551.371916419397
 21
521.6783295177569
 31
0.0
  0
MTEXT
  5
477
102
{ACAD_XDICTIONARY
360
157E
102
}
330
A
100
AcDbEntity
  8
実形
100
AcDbMText
 10
3473.895784273542
 20
580.4519938501003
 30
0.0
 40
25.0
 41
612.2988505747128
 71
     1
 72
     5
  1
{\fArial|b0|i0|c0|p32;\H1.8x; e\H0.7778x;-KITCHEN \H0.3428x;U-ARCHITECTURE WORKS}
 73
     1
 44
1.0
1001
ACAD
1000
MTEXTBEGIN
1070
    73
1070
     1
1070
    44
1040
1.0
1070
    74
1070
     0
1000
MTEXTEND
  0
LINE
  5
478
330
A
100
AcDbEntity
  8
0
100
AcDbLine
 10
4059.126701682209
 20
521.7091317186991
 30
0.0
 11
4059.126701682209
 21
586.7091317186991
 31
0.0
  0
LINE
  5
479
330
A
100
AcDbEntity
  8
0
100
AcDbLine
 10
4059.126701682209
 20
651.7091317186991
 30
0.0
 11
4059.126701682209
 21
716.7091317186991
 31
0.0
  0
LINE
  5
47A
330
A
100
AcDbEntity
  8
Cen
100
AcDbLine
 10
4059.126701682209
 20
586.7091317186991
 30
0.0
 11
4059.126701682209
 21
651.7091317186991
 31
0.0
  0
TEXT
  5
47B
330
A
100
AcDbEntity
  8
0
100
AcDbText
 10
3702.273909804037
 20
601.8867966933185
 30
0.0
 40
35.0
  1
1：10
  7
ＭＳ ゴシック
 72
     4
 11
3759.126701682209
 21
619.2091317186991
 31
0.0
100
AcDbText
  0
LINE
  5
47C
330
A
100
AcDbEntity
  8
0
100
AcDbLine
 10
3459.126701682209
 20
586.7091317186991
 30
0.0
 11
3459.126701682209
 21
716.7091317186991
 31
0.0
  0
TEXT
  5
47D
330
A
100
AcDbEntity
  8
0
100
AcDbText
 10
3702.273909804037
 20
666.8867966933184
 30
0.0
 40
35.0
  1
IK-ek
  7
ＭＳ ゴシック
 72
     4
 11
3759.126701682209
 21
684.2091317186991
 31
0.0
100
AcDbText
  0
LINE
  5
47E
330
A
100
AcDbEntity
  8
0
100
AcDbLine
 10
3459.126701682209
 20
586.7091317186991
 30
0.0
 11
4059.126701682209
 21
586.7091317186991
 31
0.0
  0
LINE
  5
47F
330
A
100
AcDbEntity
  8
0
100
AcDbLine
 10
3339.126701682209
 20
521.7091317186991
 30
0.0
 11
3339.126701682209
 21
716.7091317186991
 31
0.0
  0
LINE
  5
480
330
A
100
AcDbEntity
  8
0
100
AcDbLine
 10
3339.126701682209
 20
651.7091317186991
 30
0.0
 11
4059.126701682209
 21
651.7091317186991
 31
0.0
  0
LINE
  5
481
330
A
100
AcDbEntity
  8
0
100
AcDbLine
 10
3339.126701682209
 20
716.7091317186991
 30
0.0
 11
4059.126701682209
 21
716.7091317186991
 31
0.0
  0
LINE
  5
482
330
A
100
AcDbEntity
  8
0
100
AcDbLine
 10
3339.126701682209
 20
586.7091317186991
 30
0.0
 11
4059.126701682209
 21
586.7091317186991
 31
0.0
  0
TEXT
  5
483
330
A
100
AcDbEntity
  8
実形
100
AcDbText
 10
3353.644468179671
 20
668.3081164902727
 30
0.0
 40
35.0
  1
品番
  7
ＭＳ ゴシック
 72
     4
 11
3399.126701682209
 21
684.2091317186991
 31
0.0
100
AcDbText
  0
TEXT
  5
484
330
A
100
AcDbEntity
  8
実形
100
AcDbText
 10
3353.644468179671
 20
602.9527865410341
 30
0.0
 40
35.0
  1
尺度
  7
ＭＳ ゴシック
 72
     4
 11
3399.126701682209
 21
619.2091317186991
 31
0.0
100
AcDbText
  0
LINE
  5
485
330
A
100
AcDbEntity
  8
0
100
AcDbLine
 10
3784.126701682209
 20
2311.709131718699
 30
0.0
 11
3784.126701682209
 21
2441.709131718699
 31
0.0
  0
LINE
  5
486
330
A
100
AcDbEntity
  8
0
100
AcDbLine
 10
3509.126701682209
 20
2311.709131718699
 30
0.0
 11
3509.126701682209
 21
2441.709131718699
 31
0.0
  0
TEXT
  5
487
330
A
100
AcDbEntity
  8
実形
100
AcDbText
 10
3355.903351428402
 20
2326.62029923139
 30
0.0
 40
35.0
  1
ボール
  7
ＭＳ ゴシック
 72
     4
 11
3424.126701682209
 21
2344.209131718699
 31
0.0
100
AcDbText
  0
TEXT
  5
488
330
A
100
AcDbEntity
  8
実形
100
AcDbText
 10
3355.903351428402
 20
2392.863954053725
 30
0.0
 40
35.0
  1
部品名
  7
ＭＳ ゴシック
 72
     4
 11
3424.126701682209
 21
2409.209131718699
 31
0.0
100
AcDbText
  0
TEXT
  5
489
330
A
100
AcDbEntity
  8
実形
100
AcDbText
 10
3578.403351428402
 20
2326.886796693319
 30
0.0
 40
35.0
  1
SUS304
  7
ＭＳ ゴシック
 72
     4
 11
3646.626701682209
 21
2344.209131718699
 31
0.0
100
AcDbText
  0
TEXT
  5
48A
330
A
100
AcDbEntity
  8
実形
100
AcDbText
 10
3601.144468179671
 20
2393.219284002963
 30
0.0
 40
35.0
  1
材質
  7
ＭＳ ゴシック
 72
     4
 11
3646.626701682209
 21
2409.209131718699
 31
0.0
100
AcDbText
  0
TEXT
  5
48B
330
A
100
AcDbEntity
  8
実形
100
AcDbText
 10
3876.144468179671
 20
2392.863954053725
 30
0.0
 40
35.0
  1
板厚
  7
ＭＳ ゴシック
 72
     4
 11
3921.626701682209
 21
2409.209131718699
 31
0.0
100
AcDbText
  0
TEXT
  5
48C
330
A
100
AcDbEntity
  8
実形
100
AcDbText
 10
3842.032793052768
 20
2326.886796693319
 30
0.0
 40
35.0
  1
0.8ｍｍ
  7
ＭＳ ゴシック
 72
     4
 11
3921.626701682209
 21
2344.209131718699
 31
0.0
100
AcDbText
  0
LINE
  5
48D
330
A
100
AcDbEntity
  8
実形
100
AcDbLine
 10
3339.126701682209
 20
2311.709131718699
 30
0.0
 11
3339.126701682209
 21
2441.709131718699
 31
0.0
  0
LINE
  5
48E
330
A
100
AcDbEntity
  8
0
100
AcDbLine
 10
4059.126701682209
 20
2376.709131718699
 30
0.0
 11
3339.126701682209
 21
2376.709131718699
 31
0.0
  0
LINE
  5
48F
330
A
100
AcDbEntity
  8
0
100
AcDbLine
 10
4059.126701682209
 20
2311.709131718699
 30
0.0
 11
3339.126701682209
 21
2311.709131718699
 31
0.0
  0
TEXT
  5
496
330
A
100
AcDbEntity
  8
0
100
AcDbText
 10
1412.233101951982
 20
803.9814913800578
 30
0.0
 40
30.0
  1
※実寸には製造上の誤差が多少生ずる場合があります。シンクの穴あけ加工は現物合わせにてお願いします。
100
AcDbText
  0
TEXT
  5
FC7
330
A
100
AcDbEntity
  8
0
100
AcDbText
 10
1402.558273152892
 20
937.5866769072086
 30
0.0
 40
30.0
  1
・表面仕様はBA材をプレスしたままとする。
100
AcDbText
  0
LINE
  5
12C4
330
A
100
AcDbEntity
  8
1
  6
HIDDEN
 62
     3
100
AcDbLine
 10
2345.526228161273
 20
2089.969456281778
 30
0.0
 11
2345.526228161273
 21
2077.969456281778
 31
0.0
  0
LINE
  5
12C5
330
A
100
AcDbEntity
  8
1
  6
HIDDEN
 62
     3
100
AcDbLine
 10
2351.526228161273
 20
2083.969456281778
 30
0.0
 11
2033.526228161273
 21
2083.969456281778
 31
0.0
  0
LINE
  5
12C6
330
A
100
AcDbEntity
  8
1
  6
HIDDEN
 62
     3
100
AcDbLine
 10
2039.526228161273
 20
2089.969456281778
 30
0.0
 11
2039.526228161273
 21
2077.969456281778
 31
0.0
  0
LINE
  5
12C7
330
A
100
AcDbEntity
  8
1
  6
Continuous
 62
     3
100
AcDbLine
 10
2313.776228161273
 20
2052.219456281779
 30
0.0
 11
2071.276228161274
 21
2052.219456281778
 31
0.0
  0
LINE
  5
12C8
330
A
100
AcDbEntity
  8
1
  6
Continuous
 62
     3
100
AcDbLine
 10
2313.776228161273
 20
2049.719456281779
 30
0.0
 11
2071.276228161274
 21
2049.719456281778
 31
0.0
  0
LINE
  5
12C9
330
A
100
AcDbEntity
  8
1
  6
Continuous
 62
     3
100
AcDbLine
 10
2283.776228161273
 20
2064.269456281778
 30
0.0
 11
2283.776228161273
 21
2087.969456281779
 31
0.0
  0
LINE
  5
12CA
330
A
100
AcDbEntity
  8
1
  6
Continuous
 62
     3
100
AcDbLine
 10
2281.276228161273
 20
2064.269456281778
 30
0.0
 11
2281.276228161273
 21
2087.969456281779
 31
0.0
  0
LINE
  5
12CB
330
A
100
AcDbEntity
  8
1
  6
Continuous
 62
     3
100
AcDbLine
 10
2251.276228161273
 20
2064.269456281778
 30
0.0
 11
2251.276228161273
 21
2087.969456281779
 31
0.0
  0
LINE
  5
12CC
330
A
100
AcDbEntity
  8
1
  6
Continuous
 62
     3
100
AcDbLine
 10
2253.776228161273
 20
2064.269456281778
 30
0.0
 11
2253.776228161273
 21
2087.969456281779
 31
0.0
  0
LINE
  5
12CD
330
A
100
AcDbEntity
  8
1
  6
Continuous
 62
     3
100
AcDbLine
 10
2223.776228161273
 20
2064.269456281778
 30
0.0
 11
2223.776228161273
 21
2087.969456281779
 31
0.0
  0
LINE
  5
12CE
330
A
100
AcDbEntity
  8
1
  6
Continuous
 62
     3
100
AcDbLine
 10
2221.276228161273
 20
2064.269456281778
 30
0.0
 11
2221.276228161273
 21
2087.969456281779
 31
0.0
  0
LINE
  5
12CF
330
A
100
AcDbEntity
  8
1
  6
Continuous
 62
     3
100
AcDbLine
 10
2193.776228161273
 20
2064.269456281778
 30
0.0
 11
2193.776228161273
 21
2087.969456281779
 31
0.0
  0
LINE
  5
12D0
330
A
100
AcDbEntity
  8
1
  6
Continuous
 62
     3
100
AcDbLine
 10
2191.276228161273
 20
2064.269456281778
 30
0.0
 11
2191.276228161273
 21
2087.969456281779
 31
0.0
  0
LINE
  5
12D1
330
A
100
AcDbEntity
  8
1
  6
Continuous
 62
     3
100
AcDbLine
 10
2163.776228161273
 20
2064.269456281778
 30
0.0
 11
2163.776228161273
 21
2087.969456281779
 31
0.0
  0
LINE
  5
12D2
330
A
100
AcDbEntity
  8
1
  6
Continuous
 62
     3
100
AcDbLine
 10
2161.276228161273
 20
2064.269456281778
 30
0.0
 11
2161.276228161273
 21
2087.969456281779
 31
0.0
  0
LINE
  5
12D3
330
A
100
AcDbEntity
  8
1
  6
Continuous
 62
     3
100
AcDbLine
 10
2133.776228161273
 20
2064.269456281778
 30
0.0
 11
2133.776228161273
 21
2087.969456281779
 31
0.0
  0
LINE
  5
12D4
330
A
100
AcDbEntity
  8
1
  6
Continuous
 62
     3
100
AcDbLine
 10
2131.276228161273
 20
2064.269456281778
 30
0.0
 11
2131.276228161273
 21
2087.969456281779
 31
0.0
  0
LINE
  5
12D5
330
A
100
AcDbEntity
  8
1
  6
Continuous
 62
     3
100
AcDbLine
 10
2103.776228161273
 20
2064.269456281778
 30
0.0
 11
2103.776228161273
 21
2087.969456281779
 31
0.0
  0
LINE
  5
12D6
330
A
100
AcDbEntity
  8
1
  6
Continuous
 62
     3
100
AcDbLine
 10
2101.276228161273
 20
2064.269456281778
 30
0.0
 11
2101.276228161273
 21
2087.969456281779
 31
0.0
  0
LINE
  5
12D7
330
A
100
AcDbEntity
  8
1
  6
Continuous
 62
     3
100
AcDbLine
 10
2313.776228161273
 20
2006.969456281778
 30
0.0
 11
2313.776228161273
 21
2087.969456281779
 31
0.0
  0
LINE
  5
12D8
330
A
100
AcDbEntity
  8
1
  6
Continuous
 62
     3
100
AcDbLine
 10
2311.276228161273
 20
2006.969456281778
 30
0.0
 11
2311.276228161273
 21
2087.969456281779
 31
0.0
  0
LINE
  5
12D9
330
A
100
AcDbEntity
  8
1
  6
Continuous
 62
     3
100
AcDbLine
 10
2283.776228161273
 20
2006.969456281778
 30
0.0
 11
2283.776228161273
 21
2059.269456281779
 31
0.0
  0
LINE
  5
12DA
330
A
100
AcDbEntity
  8
1
  6
Continuous
 62
     3
100
AcDbLine
 10
2281.276228161273
 20
2006.969456281778
 30
0.0
 11
2281.276228161273
 21
2059.269456281779
 31
0.0
  0
LINE
  5
12DB
330
A
100
AcDbEntity
  8
1
  6
Continuous
 62
     3
100
AcDbLine
 10
2253.776228161273
 20
2006.969456281778
 30
0.0
 11
2253.776228161274
 21
2059.269456281779
 31
0.0
  0
LINE
  5
12DC
330
A
100
AcDbEntity
  8
1
  6
Continuous
 62
     3
100
AcDbLine
 10
2251.276228161273
 20
2006.969456281778
 30
0.0
 11
2251.276228161274
 21
2059.269456281779
 31
0.0
  0
LINE
  5
12DD
330
A
100
AcDbEntity
  8
1
  6
Continuous
 62
     3
100
AcDbLine
 10
2223.776228161273
 20
2006.969456281778
 30
0.0
 11
2223.776228161273
 21
2059.269456281779
 31
0.0
  0
LINE
  5
12DE
330
A
100
AcDbEntity
  8
1
  6
Continuous
 62
     3
100
AcDbLine
 10
2221.276228161273
 20
2006.969456281778
 30
0.0
 11
2221.276228161273
 21
2059.269456281779
 31
0.0
  0
LINE
  5
12DF
330
A
100
AcDbEntity
  8
1
  6
Continuous
 62
     3
100
AcDbLine
 10
2193.776228161273
 20
2006.969456281778
 30
0.0
 11
2193.776228161274
 21
2059.269456281779
 31
0.0
  0
LINE
  5
12E0
330
A
100
AcDbEntity
  8
1
  6
Continuous
 62
     3
100
AcDbLine
 10
2191.276228161273
 20
2006.969456281778
 30
0.0
 11
2191.276228161274
 21
2059.269456281779
 31
0.0
  0
LINE
  5
12E1
330
A
100
AcDbEntity
  8
1
  6
Continuous
 62
     3
100
AcDbLine
 10
2163.776228161273
 20
2006.969456281778
 30
0.0
 11
2163.776228161273
 21
2059.269456281779
 31
0.0
  0
LINE
  5
12E2
330
A
100
AcDbEntity
  8
1
  6
Continuous
 62
     3
100
AcDbLine
 10
2161.276228161273
 20
2006.969456281778
 30
0.0
 11
2161.276228161273
 21
2059.269456281779
 31
0.0
  0
LINE
  5
12E3
330
A
100
AcDbEntity
  8
1
  6
Continuous
 62
     3
100
AcDbLine
 10
2133.776228161273
 20
2006.969456281778
 30
0.0
 11
2133.776228161273
 21
2059.269456281779
 31
0.0
  0
LINE
  5
12E4
330
A
100
AcDbEntity
  8
1
  6
Continuous
 62
     3
100
AcDbLine
 10
2131.276228161273
 20
2006.969456281778
 30
0.0
 11
2131.276228161273
 21
2059.269456281779
 31
0.0
  0
LINE
  5
12E5
330
A
100
AcDbEntity
  8
1
  6
Continuous
 62
     3
100
AcDbLine
 10
2103.776228161273
 20
2006.969456281778
 30
0.0
 11
2103.776228161273
 21
2059.269456281779
 31
0.0
  0
LINE
  5
12E6
330
A
100
AcDbEntity
  8
1
  6
Continuous
 62
     3
100
AcDbLine
 10
2101.276228161273
 20
2006.969456281778
 30
0.0
 11
2101.276228161273
 21
2059.269456281779
 31
0.0
  0
LINE
  5
12E7
330
A
100
AcDbEntity
  8
1
  6
Continuous
 62
     3
100
AcDbLine
 10
2073.776228161273
 20
2006.969456281778
 30
0.0
 11
2073.776228161273
 21
2087.969456281779
 31
0.0
  0
LINE
  5
12E8
330
A
100
AcDbEntity
  8
1
  6
Continuous
 62
     3
100
AcDbLine
 10
2071.276228161273
 20
2006.969456281778
 30
0.0
 11
2071.276228161273
 21
2087.969456281779
 31
0.0
  0
LINE
  5
12E9
330
A
100
AcDbEntity
  8
1
  6
Continuous
 62
     3
100
AcDbLine
 10
2285.026228161273
 20
2087.969456281778
 30
0.0
 11
2100.026228161273
 21
2087.969456281778
 31
0.0
  0
LINE
  5
12EA
330
A
100
AcDbEntity
  8
1
  6
Continuous
 62
     3
100
AcDbLine
 10
2285.026228161273
 20
2092.969456281778
 30
0.0
 11
2100.026228161273
 21
2092.969456281779
 31
0.0
  0
LINE
  5
12EB
330
A
100
AcDbEntity
  8
1
  6
Continuous
 62
     3
100
AcDbLine
 10
2095.026228161273
 20
2087.969456281778
 30
0.0
 11
2038.526228161273
 21
2087.969456281778
 31
0.0
  0
LINE
  5
12EC
330
A
100
AcDbEntity
  8
1
  6
Continuous
 62
     3
100
AcDbLine
 10
2095.026228161273
 20
2092.969456281779
 30
0.0
 11
2038.526228161273
 21
2092.969456281778
 31
0.0
  0
LINE
  5
12ED
330
A
100
AcDbEntity
  8
1
  6
Continuous
 62
     3
100
AcDbLine
 10
2285.026228161274
 20
2104.469456281778
 30
0.0
 11
2285.026228161273
 21
2064.269456281778
 31
0.0
  0
ARC
  5
12EE
330
A
100
AcDbEntity
  8
1
  6
Continuous
 62
     3
100
AcDbCircle
 10
2287.526228161274
 20
2104.469456281778
 30
0.0
 40
2.5
100
AcDbArc
 50
0.0
 51
90.0
  0
ARC
  5
12EF
330
A
100
AcDbEntity
  8
1
  6
Continuous
 62
     3
100
AcDbCircle
 10
2287.526228161274
 20
2104.469456281778
 30
0.0
 40
2.5
100
AcDbArc
 50
90.0
 51
180.0
  0
ARC
  5
12F0
330
A
100
AcDbEntity
  8
1
  6
Continuous
 62
     3
100
AcDbCircle
 10
2282.526228161274
 20
2104.469456281778
 30
0.0
 40
2.5
100
AcDbArc
 50
270.0
 51
0.0000000000130276
  0
ARC
  5
12F1
330
A
100
AcDbEntity
  8
1
  6
Continuous
 62
     3
100
AcDbCircle
 10
2282.526228161274
 20
2104.469456281778
 30
0.0
 40
2.5
100
AcDbArc
 50
0.0
 51
90.0
  0
ARC
  5
12F2
330
A
100
AcDbEntity
  8
1
  6
Continuous
 62
     3
100
AcDbCircle
 10
2097.526228161273
 20
2104.469456281778
 30
0.0
 40
2.5
100
AcDbArc
 50
0.0
 51
90.0
  0
LINE
  5
12F3
330
A
100
AcDbEntity
  8
1
  6
Continuous
 62
     3
100
AcDbLine
 10
2100.026228161273
 20
2104.469456281778
 30
0.0
 11
2100.026228161273
 21
2064.269456281778
 31
0.0
  0
ARC
  5
12F4
330
A
100
AcDbEntity
  8
1
  6
Continuous
 62
     3
100
AcDbCircle
 10
2102.526228161273
 20
2104.469456281778
 30
0.0
 40
2.5
100
AcDbArc
 50
180.0
 51
270.0
  0
ARC
  5
12F5
330
A
100
AcDbEntity
  8
1
  6
Continuous
 62
     3
100
AcDbCircle
 10
2102.526228161274
 20
2104.469456281778
 30
0.0
 40
2.5
100
AcDbArc
 50
90.0
 51
180.0
  0
ARC
  5
12F6
330
A
100
AcDbEntity
  8
1
  6
Continuous
 62
     3
100
AcDbCircle
 10
2097.526228161273
 20
2104.469456281778
 30
0.0
 40
2.5
100
AcDbArc
 50
90.0
 51
180.0
  0
LINE
  5
12F7
330
A
100
AcDbEntity
  8
1
  6
Continuous
 62
     3
100
AcDbLine
 10
2102.526228161273
 20
2101.969456281779
 30
0.0
 11
2282.526228161274
 21
2101.969456281779
 31
0.0
  0
LINE
  5
12F8
330
A
100
AcDbEntity
  8
1
  6
Continuous
 62
     3
100
AcDbLine
 10
2100.026228161274
 20
2064.269456281778
 30
0.0
 11
2285.026228161273
 21
2064.269456281778
 31
0.0
  0
ARC
  5
12F9
330
A
100
AcDbEntity
  8
1
  6
Continuous
 62
     3
100
AcDbCircle
 10
2346.526228161273
 20
2082.969456281778
 30
0.0
 40
5.0
100
AcDbArc
 50
0.0
 51
90.0
  0
LINE
  5
12FA
330
A
100
AcDbEntity
  8
1
  6
Continuous
 62
     3
100
AcDbLine
 10
2351.526228161273
 20
2011.969456281778
 30
0.0
 11
2351.526228161273
 21
2082.969456281778
 31
0.0
  0
ARC
  5
12FB
330
A
100
AcDbEntity
  8
1
  6
Continuous
 62
     3
100
AcDbCircle
 10
2346.526228161273
 20
2011.969456281778
 30
0.0
 40
5.0
100
AcDbArc
 50
270.0
 51
0.0
  0
LINE
  5
12FC
330
A
100
AcDbEntity
  8
1
  6
Continuous
 62
     3
100
AcDbLine
 10
2038.526228161273
 20
2006.969456281778
 30
0.0
 11
2346.526228161273
 21
2006.969456281778
 31
0.0
  0
ARC
  5
12FD
330
A
100
AcDbEntity
  8
1
  6
Continuous
 62
     3
100
AcDbCircle
 10
2038.526228161273
 20
2011.969456281778
 30
0.0
 40
5.0
100
AcDbArc
 50
180.0
 51
270.0
  0
LINE
  5
12FE
330
A
100
AcDbEntity
  8
1
  6
Continuous
 62
     3
100
AcDbLine
 10
2033.526228161273
 20
2082.969456281778
 30
0.0
 11
2033.526228161273
 21
2011.969456281778
 31
0.0
  0
ARC
  5
12FF
330
A
100
AcDbEntity
  8
1
  6
Continuous
 62
     3
100
AcDbCircle
 10
2038.526228161273
 20
2082.969456281778
 30
0.0
 40
5.0
100
AcDbArc
 50
90.0
 51
180.0
  0
LINE
  5
1300
330
A
100
AcDbEntity
  8
1
  6
Continuous
 62
     3
100
AcDbLine
 10
2346.526228161273
 20
2087.969456281778
 30
0.0
 11
2290.026228161274
 21
2087.969456281778
 31
0.0
  0
ARC
  5
1301
330
A
100
AcDbEntity
  8
1
  6
Continuous
 62
     3
100
AcDbCircle
 10
2285.026228161273
 20
2064.269456281778
 30
0.0
 40
5.0
100
AcDbArc
 50
270.0
 51
0.0
  0
ARC
  5
1302
330
A
100
AcDbEntity
  8
1
  6
Continuous
 62
     3
100
AcDbCircle
 10
2100.026228161273
 20
2064.269456281778
 30
0.0
 40
5.0
100
AcDbArc
 50
180.0
 51
270.0
  0
LINE
  5
1303
330
A
100
AcDbEntity
  8
1
  6
Continuous
 62
     3
100
AcDbLine
 10
2102.526228161274
 20
2106.969456281778
 30
0.0
 11
2282.526228161274
 21
2106.969456281778
 31
0.0
  0
LINE
  5
1304
330
A
100
AcDbEntity
  8
1
  6
Continuous
 62
     3
100
AcDbLine
 10
2095.026228161273
 20
2104.469456281778
 30
0.0
 11
2095.026228161273
 21
2064.269456281778
 31
0.0
  0
LINE
  5
1305
330
A
100
AcDbEntity
  8
1
  6
Continuous
 62
     3
100
AcDbLine
 10
2100.026228161273
 20
2059.269456281779
 30
0.0
 11
2285.026228161273
 21
2059.269456281779
 31
0.0
  0
LINE
  5
1306
330
A
100
AcDbEntity
  8
1
  6
Continuous
 62
     3
100
AcDbLine
 10
2290.026228161273
 20
2064.269456281778
 30
0.0
 11
2290.026228161273
 21
2104.469456281778
 31
0.0
  0
ARC
  5
1307
330
A
100
AcDbEntity
  8
1
  6
Continuous
 62
     3
100
AcDbCircle
 10
2038.526228161273
 20
2011.969456281778
 30
0.0
 40
10.0
100
AcDbArc
 50
180.0
 51
270.0
  0
ARC
  5
1308
330
A
100
AcDbEntity
  8
1
  6
Continuous
 62
     3
100
AcDbCircle
 10
2038.526228161273
 20
2082.969456281778
 30
0.0
 40
10.0
100
AcDbArc
 50
90.0
 51
180.0
  0
ARC
  5
1309
330
A
100
AcDbEntity
  8
1
  6
Continuous
 62
     3
100
AcDbCircle
 10
2346.526228161273
 20
2082.969456281778
 30
0.0
 40
10.0
100
AcDbArc
 50
0.0
 51
90.0
  0
ARC
  5
130A
330
A
100
AcDbEntity
  8
1
  6
Continuous
 62
     3
100
AcDbCircle
 10
2346.526228161273
 20
2011.969456281778
 30
0.0
 40
10.0
100
AcDbArc
 50
270.0
 51
0.0
  0
LINE
  5
130B
330
A
100
AcDbEntity
  8
1
  6
Continuous
 62
     3
100
AcDbLine
 10
2028.526228161273
 20
2082.969456281778
 30
0.0
 11
2028.526228161273
 21
2011.969456281778
 31
0.0
  0
LINE
  5
130C
330
A
100
AcDbEntity
  8
1
  6
Continuous
 62
     3
100
AcDbLine
 10
2346.526228161273
 20
2092.969456281778
 30
0.0
 11
2290.026228161274
 21
2092.969456281778
 31
0.0
  0
LINE
  5
130D
330
A
100
AcDbEntity
  8
1
  6
Continuous
 62
     3
100
AcDbLine
 10
2356.526228161273
 20
2011.969456281778
 30
0.0
 11
2356.526228161273
 21
2082.969456281778
 31
0.0
  0
LINE
  5
130E
330
A
100
AcDbEntity
  8
1
  6
Continuous
 62
     3
100
AcDbLine
 10
2038.526228161273
 20
2001.969456281778
 30
0.0
 11
2346.526228161273
 21
2001.969456281778
 31
0.0
  0
LINE
  5
130F
330
A
100
AcDbEntity
  8
1
  6
HIDDEN
 62
     4
100
AcDbLine
 10
2427.026228161274
 20
2053.969456281778
 30
0.0
 11
2382.026228161274
 21
2053.969456281778
 31
0.0
  0
LINE
  5
1310
330
A
100
AcDbEntity
  8
1
  6
HIDDEN
 62
     4
100
AcDbLine
 10
2404.526228161274
 20
2031.469456281778
 30
0.0
 11
2404.526228161274
 21
2076.469456281779
 31
0.0
  0
LINE
  5
1312
330
A
100
AcDbEntity
  8
1
  6
HIDDEN
 62
     3
100
AcDbLine
 10
3358.330906997577
 20
1642.781712856072
 30
0.0
 11
3358.330906997577
 21
1613.195944998929
 31
0.0
  0
LINE
  5
1313
330
A
100
AcDbEntity
  8
1
  6
HIDDEN
 62
     3
100
AcDbLine
 10
3318.330906997577
 20
1642.781712856072
 30
0.0
 11
3318.330906997577
 21
1613.195944998929
 31
0.0
  0
LINE
  5
1314
330
A
100
AcDbEntity
  8
1
  6
HIDDEN
 62
     3
100
AcDbLine
 10
3164.25054985472
 20
1576.695944998929
 30
0.0
 11
3239.808764140433
 21
1576.695944998929
 31
0.0
  0
LINE
  5
1315
330
A
100
AcDbEntity
  8
1
  6
HIDDEN
 62
     4
100
AcDbLine
 10
1958.026228161274
 20
2053.969456281778
 30
0.0
 11
2003.026228161274
 21
2053.969456281778
 31
0.0
  0
LINE
  5
1316
330
A
100
AcDbEntity
  8
1
  6
HIDDEN
 62
     4
100
AcDbLine
 10
1980.526228161274
 20
2031.469456281778
 30
0.0
 11
1980.526228161274
 21
2076.469456281779
 31
0.0
  0
ARC
  5
1317
330
A
100
AcDbEntity
  8
1
  6
Continuous
 62
     2
100
AcDbCircle
 10
2429.526228161274
 20
1678.969456281779
 30
0.0
 40
60.0
100
AcDbArc
 50
270.0
 51
0.0
  0
ARC
  5
1318
330
A
100
AcDbEntity
  8
1
  6
Continuous
 62
     2
100
AcDbCircle
 10
1955.526228161274
 20
1678.969456281779
 30
0.0
 40
60.0
100
AcDbArc
 50
180.0
 51
270.0
  0
ARC
  5
1319
330
A
100
AcDbEntity
  8
1
  6
Continuous
 62
     2
100
AcDbCircle
 10
1955.526228161274
 20
1943.969456281778
 30
0.0
 40
60.0
100
AcDbArc
 50
90.0
 51
180.0
  0
LINE
  5
131A
330
A
100
AcDbEntity
  8
1
  6
Continuous
 62
     2
100
AcDbLine
 10
1955.526228161273
 20
2003.969456281779
 30
0.0
 11
1975.526228161274
 21
2003.969456281779
 31
0.0
  0
ARC
  5
131B
330
A
100
AcDbEntity
  8
1
  6
Continuous
 62
     2
100
AcDbCircle
 10
2429.526228161274
 20
1943.969456281778
 30
0.0
 40
60.0
100
AcDbArc
 50
0.0
 51
90.0
  0
LINE
  5
131C
330
A
100
AcDbEntity
  8
1
  6
Continuous
 62
     2
100
AcDbLine
 10
2429.526228161274
 20
2003.969456281779
 30
0.0
 11
2409.526228161274
 21
2003.969456281779
 31
0.0
  0
TEXT
  5
131D
330
A
100
AcDbEntity
  8
1
 62
     3
100
AcDbText
 10
2098.526158462419
 20
2173.96957641634
 30
0.0
 40
20.0
  1
153
 41
0.75
 51
15.0
 72
     1
 11
2116.026158462419
 21
2183.96957641634
 31
0.0
100
AcDbText
 73
     2
  0
LINE
  5
131E
330
A
100
AcDbEntity
  8
1
  6
Continuous
 62
     3
100
AcDbLine
 10
2039.526228161274
 20
2168.969456281779
 30
0.0
 11
2058.844744687055
 21
2163.793075379728
 31
0.0
  0
LINE
  5
131F
330
A
100
AcDbEntity
  8
1
  6
Continuous
 62
     3
100
AcDbLine
 10
2039.526228161274
 20
2168.969456281779
 30
0.0
 11
2058.844744687055
 21
2174.145837183829
 31
0.0
  0
LINE
  5
1320
330
A
100
AcDbEntity
  8
1
  6
Continuous
 62
     3
100
AcDbLine
 10
2192.526228161274
 20
2168.969456281779
 30
0.0
 11
2173.207711635492
 21
2174.145837183829
 31
0.0
  0
LINE
  5
1321
330
A
100
AcDbEntity
  8
1
  6
Continuous
 62
     3
100
AcDbLine
 10
2192.526228161274
 20
2168.969456281779
 30
0.0
 11
2173.207711635492
 21
2163.793075379728
 31
0.0
  0
LINE
  5
1322
330
A
100
AcDbEntity
  8
1
  6
Continuous
 62
     3
100
AcDbLine
 10
2192.526228161274
 20
2168.969456281779
 30
0.0
 11
2039.526228161274
 21
2168.969456281779
 31
0.0
  0
LINE
  5
1323
330
A
100
AcDbEntity
  8
1
  6
Continuous
 62
     3
100
AcDbLine
 10
2039.526228161274
 20
2094.969456281779
 30
0.0
 11
2039.526228161274
 21
2173.969456281779
 31
0.0
  0
LINE
  5
1324
330
A
100
AcDbEntity
  8
1
  6
Continuous
 62
     3
100
AcDbLine
 10
2192.526228161274
 20
2138.737314378692
 30
0.0
 11
2192.526228161274
 21
2173.969456281779
 31
0.0
  0
TEXT
  5
1325
330
A
100
AcDbEntity
  8
1
 62
     3
100
AcDbText
 10
2069.02615846242
 20
2223.96957641634
 30
0.0
 40
20.0
  1
212
 41
0.75
 51
15.0
 72
     1
 11
2086.52615846242
 21
2233.96957641634
 31
0.0
100
AcDbText
 73
     2
  0
LINE
  5
1326
330
A
100
AcDbEntity
  8
1
  6
Continuous
 62
     3
100
AcDbLine
 10
1980.526228161274
 20
2218.969456281778
 30
0.0
 11
1999.844744687055
 21
2213.793075379728
 31
0.0
  0
LINE
  5
1327
330
A
100
AcDbEntity
  8
1
  6
Continuous
 62
     3
100
AcDbLine
 10
1980.526228161274
 20
2218.969456281778
 30
0.0
 11
1999.844744687055
 21
2224.145837183828
 31
0.0
  0
LINE
  5
1328
330
A
100
AcDbEntity
  8
1
  6
Continuous
 62
     3
100
AcDbLine
 10
2192.526228161274
 20
2218.969456281778
 30
0.0
 11
2173.207711635492
 21
2224.145837183828
 31
0.0
  0
LINE
  5
1329
330
A
100
AcDbEntity
  8
1
  6
Continuous
 62
     3
100
AcDbLine
 10
2192.526228161274
 20
2218.969456281778
 30
0.0
 11
2173.207711635492
 21
2213.793075379728
 31
0.0
  0
LINE
  5
132A
330
A
100
AcDbEntity
  8
1
  6
Continuous
 62
     3
100
AcDbLine
 10
2192.526228161274
 20
2218.969456281778
 30
0.0
 11
1980.526228161274
 21
2218.969456281778
 31
0.0
  0
LINE
  5
132B
330
A
100
AcDbEntity
  8
1
  6
Continuous
 62
     3
100
AcDbLine
 10
1980.526228161274
 20
2076.469456281779
 30
0.0
 11
1980.526228161274
 21
2223.969456281778
 31
0.0
  0
LINE
  5
132C
330
A
100
AcDbEntity
  8
1
  6
Continuous
 62
     3
100
AcDbLine
 10
2192.526228161274
 20
2138.737314378692
 30
0.0
 11
2192.526228161274
 21
2223.969456281778
 31
0.0
  0
TEXT
  5
132D
330
A
100
AcDbEntity
  8
1
 62
     3
100
AcDbText
 10
2281.026219497576
 20
2223.96957641634
 30
0.0
 40
20.0
  1
212
 41
0.75
 51
15.0
 72
     1
 11
2298.526219497576
 21
2223.96957641634
 31
0.0
100
AcDbText
  0
LINE
  5
132E
330
A
100
AcDbEntity
  8
1
  6
Continuous
 62
     3
100
AcDbLine
 10
2404.526228161274
 20
2218.969456281778
 30
0.0
 11
2385.207711635493
 21
2224.145837183828
 31
0.0
  0
LINE
  5
132F
330
A
100
AcDbEntity
  8
1
  6
Continuous
 62
     3
100
AcDbLine
 10
2404.526228161274
 20
2218.969456281778
 30
0.0
 11
2385.207711635493
 21
2213.793075379728
 31
0.0
  0
LINE
  5
1330
330
A
100
AcDbEntity
  8
1
  6
Continuous
 62
     3
100
AcDbLine
 10
2192.526228161274
 20
2218.969456281778
 30
0.0
 11
2211.844744687055
 21
2213.793075379728
 31
0.0
  0
LINE
  5
1331
330
A
100
AcDbEntity
  8
1
  6
Continuous
 62
     3
100
AcDbLine
 10
2192.526228161274
 20
2218.969456281778
 30
0.0
 11
2211.844744687055
 21
2224.145837183828
 31
0.0
  0
LINE
  5
1332
330
A
100
AcDbEntity
  8
1
  6
Continuous
 62
     3
100
AcDbLine
 10
2192.526228161274
 20
2218.969456281778
 30
0.0
 11
2404.526228161274
 21
2218.969456281778
 31
0.0
  0
LINE
  5
1333
330
A
100
AcDbEntity
  8
1
  6
Continuous
 62
     3
100
AcDbLine
 10
2404.526228161274
 20
2076.469456281779
 30
0.0
 11
2404.526228161274
 21
2223.969456281778
 31
0.0
  0
LINE
  5
1334
330
A
100
AcDbEntity
  8
1
  6
Continuous
 62
     3
100
AcDbLine
 10
2192.526228161274
 20
2138.737314378692
 30
0.0
 11
2192.526228161274
 21
2223.969456281778
 31
0.0
  0
TEXT
  5
1335
330
A
100
AcDbEntity
  8
1
 62
     3
100
AcDbText
 10
2251.526219497576
 20
2173.96957641634
 30
0.0
 40
20.0
  1
153
 41
0.75
 51
15.0
 72
     1
 11
2269.026219497576
 21
2173.96957641634
 31
0.0
100
AcDbText
  0
LINE
  5
1336
330
A
100
AcDbEntity
  8
1
  6
Continuous
 62
     3
100
AcDbLine
 10
2345.526228161274
 20
2168.969456281779
 30
0.0
 11
2326.207711635492
 21
2174.145837183829
 31
0.0
  0
LINE
  5
1337
330
A
100
AcDbEntity
  8
1
  6
Continuous
 62
     3
100
AcDbLine
 10
2345.526228161274
 20
2168.969456281779
 30
0.0
 11
2326.207711635492
 21
2163.793075379728
 31
0.0
  0
LINE
  5
1338
330
A
100
AcDbEntity
  8
1
  6
Continuous
 62
     3
100
AcDbLine
 10
2192.526228161274
 20
2168.969456281779
 30
0.0
 11
2211.844744687055
 21
2163.793075379728
 31
0.0
  0
LINE
  5
1339
330
A
100
AcDbEntity
  8
1
  6
Continuous
 62
     3
100
AcDbLine
 10
2192.526228161274
 20
2168.969456281779
 30
0.0
 11
2211.844744687055
 21
2174.145837183829
 31
0.0
  0
LINE
  5
133A
330
A
100
AcDbEntity
  8
1
  6
Continuous
 62
     3
100
AcDbLine
 10
2192.526228161274
 20
2168.969456281779
 30
0.0
 11
2345.526228161274
 21
2168.969456281779
 31
0.0
  0
LINE
  5
133B
330
A
100
AcDbEntity
  8
1
  6
Continuous
 62
     3
100
AcDbLine
 10
2345.526228161274
 20
2094.969456281779
 30
0.0
 11
2345.526228161274
 21
2173.969456281779
 31
0.0
  0
LINE
  5
133C
330
A
100
AcDbEntity
  8
1
  6
Continuous
 62
     3
100
AcDbLine
 10
2192.526228161274
 20
2138.737314378692
 30
0.0
 11
2192.526228161274
 21
2173.969456281779
 31
0.0
  0
TEXT
  5
133D
330
A
100
AcDbEntity
  8
1
 62
     3
100
AcDbText
 10
2438.493016372576
 20
2172.588472900715
 30
0.0
 40
20.0
  1
給水栓穴%%c
 41
0.75
 51
15.0
  7
BIGFONT
 72
     1
 11
2479.493016372576
 21
2182.588472900715
 31
0.0
100
AcDbText
 73
     2
  0
LINE
  5
133E
330
A
100
AcDbEntity
  8
1
  6
Continuous
 62
     3
100
AcDbLine
 10
2439.526228161274
 20
2168.969456281779
 30
0.0
 11
2520.242458324457
 21
2168.969456281779
 31
0.0
  0
LINE
  5
133F
330
A
100
AcDbEntity
  8
1
  6
Continuous
 62
     3
100
AcDbLine
 10
2409.621556437471
 20
2070.711249189284
 30
0.0
 11
2420.198475327784
 21
2087.685605930785
 31
0.0
  0
LINE
  5
1340
330
A
100
AcDbEntity
  8
1
  6
Continuous
 62
     3
100
AcDbLine
 10
2409.621556437471
 20
2070.711249189284
 30
0.0
 11
2410.294258519499
 21
2090.699932785479
 31
0.0
  0
LINE
  5
1341
330
A
100
AcDbEntity
  8
1
  6
Continuous
 62
     3
100
AcDbLine
 10
2409.621556437471
 20
2070.711249189284
 30
0.0
 11
2439.526228161274
 21
2168.969456281779
 31
0.0
  0
LINE
  5
1342
330
A
100
AcDbEntity
  8
1
  6
DOT
 62
     5
100
AcDbLine
 10
2387.300112343613
 20
2057.053436475708
 30
0.0
 11
2369.526228161274
 21
2074.827320658048
 31
0.0
  0
LINE
  5
1343
330
A
100
AcDbEntity
  8
1
  6
DOT
 62
     5
100
AcDbLine
 10
2392.151859490509
 20
2066.343824952543
 30
0.0
 11
2369.526228161274
 21
2088.969456281779
 31
0.0
  0
LINE
  5
1344
330
A
100
AcDbEntity
  8
1
  6
DOT
 62
     5
100
AcDbLine
 10
2401.442247967344
 20
2071.195572099439
 30
0.0
 11
2383.668363785004
 21
2088.969456281779
 31
0.0
  0
LINE
  5
1345
330
A
100
AcDbEntity
  8
1
  6
DOT
 62
     5
100
AcDbLine
 10
2397.099821290082
 20
2018.969456281778
 30
0.0
 11
2369.526228161274
 21
2046.543049410586
 31
0.0
  0
LINE
  5
1346
330
A
100
AcDbEntity
  8
1
  6
DOT
 62
     5
100
AcDbLine
 10
2411.241956913811
 20
2018.969456281778
 30
0.0
 11
2369.526228161274
 21
2060.685185034317
 31
0.0
  0
LINE
  5
1347
330
A
100
AcDbEntity
  8
1
  6
DOT
 62
     5
100
AcDbLine
 10
2425.384092537543
 20
2018.969456281778
 30
0.0
 11
2407.610208355203
 21
2036.743340464118
 31
0.0
  0
LINE
  5
1348
330
A
100
AcDbEntity
  8
1
  6
DOT
 62
     5
100
AcDbLine
 10
2439.526228161274
 20
2075.537998776703
 30
0.0
 11
2426.094770656197
 21
2088.969456281779
 31
0.0
  0
LINE
  5
1349
330
A
100
AcDbEntity
  8
1
  6
DOT
 62
     5
100
AcDbLine
 10
2439.526228161274
 20
2061.395863152971
 30
0.0
 11
2411.952635032466
 21
2088.969456281779
 31
0.0
  0
LINE
  5
134A
330
A
100
AcDbEntity
  8
1
  6
DOT
 62
     5
100
AcDbLine
 10
2439.526228161274
 20
2047.253727529241
 30
0.0
 11
2397.810499408735
 21
2088.969456281779
 31
0.0
  0
LINE
  5
134B
330
A
100
AcDbEntity
  8
1
  6
DOT
 62
     5
100
AcDbLine
 10
2439.526228161274
 20
2033.111591905509
 30
0.0
 11
2421.752343978935
 21
2050.88547608785
 31
0.0
  0
LINE
  5
134C
330
A
100
AcDbEntity
  8
1
  6
DOT
 62
     5
100
AcDbLine
 10
2439.526228161274
 20
2018.969456281778
 30
0.0
 11
2416.900596832038
 21
2041.595087611014
 31
0.0
  0
LINE
  5
134D
330
A
100
AcDbEntity
  8
1
  6
DOT
 62
     4
100
AcDbLine
 10
2394.526228161274
 20
2018.969456281778
 30
0.0
 11
2369.526228161274
 21
2043.969456281779
 31
0.0
  0
LINE
  5
134E
330
A
100
AcDbEntity
  8
1
  6
DOT
 62
     4
100
AcDbLine
 10
2394.526228161274
 20
2018.969456281778
 30
0.0
 11
2439.526228161274
 21
2018.969456281778
 31
0.0
  0
LINE
  5
134F
330
A
100
AcDbEntity
  8
1
  6
DOT
 62
     4
100
AcDbLine
 10
2439.526228161274
 20
2018.969456281778
 30
0.0
 11
2439.526228161274
 21
2088.969456281779
 31
0.0
  0
LINE
  5
1350
330
A
100
AcDbEntity
  8
1
  6
DOT
 62
     4
100
AcDbLine
 10
2439.526228161274
 20
2088.969456281779
 30
0.0
 11
2369.526228161274
 21
2088.969456281779
 31
0.0
  0
LINE
  5
1351
330
A
100
AcDbEntity
  8
1
  6
DOT
 62
     4
100
AcDbLine
 10
2369.526228161274
 20
2088.969456281779
 30
0.0
 11
2369.526228161274
 21
2043.969456281779
 31
0.0
  0
CIRCLE
  5
1352
330
A
100
AcDbEntity
  8
1
  6
DASHED
 62
     2
100
AcDbCircle
 10
2404.526228161274
 20
2053.969456281778
 30
0.0
 40
17.5
  0
LINE
  5
1353
330
A
100
AcDbEntity
  8
1
  6
DIVIDE
 62
     3
100
AcDbLine
 10
2916.404216404057
 20
2085.969456281778
 30
0.0
 11
2916.404216404057
 21
1616.969456281779
 31
0.0
  0
LINE
  5
1354
330
A
100
AcDbEntity
  8
1
  6
Continuous
 62
     3
100
AcDbLine
 10
2303.124533268114
 20
1127.837127471138
 30
0.0
 11
2385.690497910971
 21
1127.837127471138
 31
0.0
  0
TEXT
  5
1355
330
A
100
AcDbEntity
  8
1
 62
     2
100
AcDbText
 10
2302.076098773903
 20
1132.425921081924
 30
0.0
 40
20.0
  1
防滴パツト
 50
0.1456066966091392
 41
0.75
 51
15.0
  7
BIGFONT
 72
     1
 11
2344.075963149919
 21
1132.532656250324
 31
0.0
100
AcDbText
  0
CIRCLE
  5
1356
330
A
100
AcDbEntity
  8
1
  6
Continuous
 62
     3
100
AcDbCircle
 10
2309.072033268114
 20
1176.064270328281
 30
0.0
 40
2.5
  0
LINE
  5
1357
330
A
100
AcDbEntity
  8
1
  6
Continuous
 62
     3
100
AcDbLine
 10
2303.124533268114
 20
1127.837127471138
 30
0.0
 11
2309.072033268114
 21
1176.064270328281
 31
0.0
  0
LINE
  5
1358
330
A
100
AcDbEntity
  8
4
  6
DIVIDE
 62
     3
100
AcDbLine
 10
2491.526228161274
 20
1270.461962280082
 30
0.0
 11
1893.526228161274
 21
1270.461962280082
 31
0.0
  0
LINE
  5
135D
330
A
100
AcDbEntity
  8
4
  6
Continuous
 62
     3
100
AcDbLine
 10
3348.330906997577
 20
1576.695944998929
 30
0.0
 11
3348.330906997577
 21
1572.695944998929
 31
0.0
  0
LINE
  5
135E
330
A
100
AcDbEntity
  8
4
  6
Continuous
 62
     3
100
AcDbLine
 10
3345.330906997577
 20
1572.695944998929
 30
0.0
 11
3345.330906997577
 21
1576.695944998929
 31
0.0
  0
LINE
  5
135F
330
A
100
AcDbEntity
  8
4
  6
Continuous
 62
     3
100
AcDbLine
 10
3328.330906997577
 20
1546.296052198957
 30
0.0
 11
3328.330906997577
 21
1530.695944998929
 31
0.0
  0
LINE
  5
1360
330
A
100
AcDbEntity
  8
1
  6
Continuous
 62
     3
100
AcDbLine
 10
3331.330906997577
 20
1572.695944998929
 30
0.0
 11
3331.330906997577
 21
1576.695944998929
 31
0.0
  0
LINE
  5
1361
330
A
100
AcDbEntity
  8
4
  6
Continuous
 62
     3
100
AcDbLine
 10
3331.330906997577
 20
1527.695944998929
 30
0.0
 11
3328.330906997577
 21
1530.695944998929
 31
0.0
  0
LINE
  5
1362
330
A
100
AcDbEntity
  8
4
  6
Continuous
 62
     3
100
AcDbLine
 10
3328.330906997577
 20
1576.695944998929
 30
0.0
 11
3328.330906997577
 21
1572.695944998929
 31
0.0
  0
LINE
  5
1363
330
A
100
AcDbEntity
  8
1
  6
Continuous
 62
     2
100
AcDbLine
 10
3160.114344497577
 20
1410.702730713215
 30
0.0
 11
3184.493094497577
 21
1410.702730713215
 31
0.0
  0
LINE
  5
1364
330
A
100
AcDbEntity
  8
1
  6
Continuous
 62
     2
100
AcDbLine
 10
3511.864880211862
 20
1410.702730713215
 30
0.0
 11
3174.045058783291
 21
1410.702730713215
 31
0.0
  0
TEXT
  5
1365
330
A
100
AcDbEntity
  8
1
 62
     2
100
AcDbText
 10
3142.139053156331
 20
1421.822847900715
 30
0.0
 40
30.0
  1
アミカゴ用ピン取付詳細　Ｓ＝１／１
 41
0.6666666666670001
  7
BIGFONT
 72
     1
 11
3339.472386489763
 21
1436.822847900715
 31
0.0
100
AcDbText
 73
     2
  0
CIRCLE
  5
1366
330
A
100
AcDbEntity
  8
1
  6
Continuous
 62
     3
100
AcDbCircle
 10
3338.330906997577
 20
1553.259053570358
 30
0.0
 40
2.5
  0
LINE
  5
1367
330
A
100
AcDbEntity
  8
1
  6
Continuous
 62
     3
100
AcDbLine
 10
3384.924852711862
 20
1500.511853570358
 30
0.0
 11
3338.330906997577
 21
1553.259053570358
 31
0.0
  0
CIRCLE
  5
1368
330
A
100
AcDbEntity
  8
1
  6
Continuous
 62
     3
100
AcDbCircle
 10
3351.775290313903
 20
1568.695944998929
 30
0.0
 40
2.5
  0
LINE
  5
1369
330
A
100
AcDbEntity
  8
1
  6
Continuous
 62
     3
100
AcDbLine
 10
3383.465681104719
 20
1534.794811070358
 30
0.0
 11
3351.775290313903
 21
1568.695944998929
 31
0.0
  0
LINE
  5
136A
330
A
100
AcDbEntity
  8
1
  6
Continuous
 62
     3
100
AcDbLine
 10
3474.860847581525
 20
1500.511853570358
 30
0.0
 11
3384.122720108138
 21
1500.511853570358
 31
0.0
  0
LINE
  5
136B
330
A
100
AcDbEntity
  8
1
  6
Continuous
 62
     3
100
AcDbLine
 10
3500.129208069006
 20
1572.695944998929
 30
0.0
 11
3498.853327890434
 21
1572.695944998929
 31
0.0
  0
LINE
  5
136C
330
A
100
AcDbEntity
  8
1
  6
Continuous
 62
     3
100
AcDbLine
 10
3499.817951563902
 20
1572.695944998929
 30
0.0
 11
3455.487335569004
 21
1572.695944998929
 31
0.0
  0
LINE
  5
136D
330
A
100
AcDbEntity
  8
1
  6
Continuous
 62
     3
100
AcDbLine
 10
3500.129208069006
 20
1576.695944998929
 30
0.0
 11
3455.487335569004
 21
1576.695944998929
 31
0.0
  0
TEXT
  5
136E
330
A
100
AcDbEntity
  8
1
 62
     2
100
AcDbText
 10
3384.841755170088
 20
1503.701510002524
 30
0.0
 40
17.391794204712
  1
M4六角ナット
 50
0.0000000100051599
 41
0.661436347463
 51
15.0
  7
BIGFONT
 72
     1
 11
3428.171849380389
 21
1503.70151001009
 31
0.0
100
AcDbText
  0
LINE
  5
136F
330
A
100
AcDbEntity
  8
1
  6
Continuous
 62
     3
100
AcDbLine
 10
3480.966285808306
 20
1534.794811070358
 30
0.0
 11
3454.875523151164
 21
1534.794811070358
 31
0.0
  0
TEXT
  5
1370
330
A
100
AcDbEntity
  8
1
 62
     2
100
AcDbText
 10
3377.652121037705
 20
1538.189791250716
 30
0.0
 40
17.391794204712
  1
バネ座金＋平座金
 50
0.0000000100051599
 41
0.661436347463
 51
15.0
  7
BIGFONT
 72
     1
 11
3431.335423599139
 21
1538.18979126009
 31
0.0
100
AcDbText
  0
CIRCLE
  5
1371
330
A
100
AcDbEntity
  8
1
  6
Continuous
 62
     3
100
AcDbCircle
 10
3358.330906997577
 20
1620.666861771889
 30
0.0
 40
2.5
  0
LINE
  5
1372
330
A
100
AcDbEntity
  8
1
  6
Continuous
 62
     3
100
AcDbLine
 10
3395.718539854719
 20
1671.868266427501
 30
0.0
 11
3358.330906997577
 21
1620.666861771889
 31
0.0
  0
LINE
  5
1373
330
A
100
AcDbEntity
  8
1
  6
Continuous
 62
     3
100
AcDbLine
 10
3198.619114905739
 20
1487.972344361175
 30
0.0
 11
3270.544279637882
 21
1487.972344361175
 31
0.0
  0
TEXT
  5
1374
330
A
100
AcDbEntity
  8
1
 62
     2
100
AcDbText
 10
3155.404576049673
 20
1691.992769766834
 30
0.0
 40
16.8188400268555
  1
t0.4 塩ビシート
 50
0.0000000100051599
 41
0.650292880994
 51
15.0
  7
BIGFONT
 72
     1
 11
3206.262425552264
 21
1691.992769775715
 31
0.0
100
AcDbText
  0
LINE
  5
1375
330
A
100
AcDbEntity
  8
1
  6
Continuous
 62
     3
100
AcDbLine
 10
3265.617294627405
 20
1687.276415457202
 30
0.0
 11
3150.512563281742
 21
1687.276415457202
 31
0.0
  0
CIRCLE
  5
1376
330
A
100
AcDbEntity
  8
1
  6
Continuous
 62
     3
100
AcDbCircle
 10
3327.522360225072
 20
1578.695944998929
 30
0.0
 40
2.5
  0
LINE
  5
1377
330
A
100
AcDbEntity
  8
1
  6
Continuous
 62
     3
100
AcDbLine
 10
3265.617294627405
 20
1687.276415457202
 30
0.0
 11
3327.522360225072
 21
1578.695944998929
 31
0.0
  0
LINE
  5
1378
330
A
100
AcDbEntity
  8
1
  6
Continuous
 62
     3
100
AcDbLine
 10
3356.244637027577
 20
1576.695944998929
 30
0.0
 11
3356.244637027577
 21
1578.695944998929
 31
0.0
  0
LINE
  5
1379
330
A
100
AcDbEntity
  8
1
  6
Continuous
 62
     3
100
AcDbLine
 10
3320.417176967576
 20
1576.695944998929
 30
0.0
 11
3320.417176967576
 21
1578.695944998929
 31
0.0
  0
LINE
  5
137A
330
A
100
AcDbEntity
  8
1
  6
Continuous
 62
     3
100
AcDbLine
 10
3318.330906997577
 20
1578.695944998929
 30
0.0
 11
3358.330906997577
 21
1578.695944998929
 31
0.0
  0
TEXT
  5
137B
330
A
100
AcDbEntity
  8
1
 62
     2
100
AcDbText
 10
3198.088841567888
 20
1491.19247680094
 30
0.0
 40
20.0
  1
シリコン
 50
0.0000000100051599
 41
0.75
 51
15.0
  7
BIGFONT
 72
     1
 11
3232.588841567888
 21
1491.192476806965
 31
0.0
100
AcDbText
  0
TEXT
  5
137C
330
A
100
AcDbEntity
  8
1
 62
     2
100
AcDbText
 10
3203.342747817889
 20
1520.916109615099
 30
0.0
 40
20.0
  1
シンク
 50
0.0000000100051599
 41
0.75
 51
15.0
  7
BIGFONT
 72
     1
 11
3228.342747817889
 21
1520.916109619465
 31
0.0
100
AcDbText
  0
TEXT
  5
137D
330
A
100
AcDbEntity
  8
1
 62
     2
100
AcDbText
 10
3419.863255630389
 20
1633.225191644865
 30
0.0
 40
20.0
  1
アミカゴ
 50
0.0000000100051599
 41
0.75
 51
15.0
  7
BIGFONT
 72
     1
 11
3453.363255630389
 21
1633.225191650715
 31
0.0
100
AcDbText
  0
TEXT
  5
137E
330
A
100
AcDbEntity
  8
1
 62
     2
100
AcDbText
 10
3390.254368911639
 20
1675.491060780775
 30
0.0
 40
20.0
  1
アミカゴ用ピン
 50
0.0000000100051599
 41
0.75
 51
15.0
  7
BIGFONT
 72
     1
 11
3450.754368911638
 21
1675.49106079134
 31
0.0
100
AcDbText
  0
LINE
  5
137F
330
A
100
AcDbEntity
  8
1
  6
Continuous
 62
     3
100
AcDbLine
 10
3457.152228642999
 20
1534.794811070358
 30
0.0
 11
3383.465681104719
 21
1534.794811070358
 31
0.0
  0
LINE
  5
1380
330
A
100
AcDbEntity
  8
1
  6
Continuous
 62
     3
100
AcDbLine
 10
3503.973844657015
 20
1671.868266427501
 30
0.0
 11
3395.718539854719
 21
1671.868266427501
 31
0.0
  0
CIRCLE
  5
1381
330
A
100
AcDbEntity
  8
1
  6
Continuous
 62
     3
100
AcDbCircle
 10
3383.435194408291
 20
1585.151214106073
 30
0.0
 40
2.5
  0
LINE
  5
1382
330
A
100
AcDbEntity
  8
1
  6
Continuous
 62
     3
100
AcDbLine
 10
3416.434609963139
 20
1629.784741436389
 30
0.0
 11
3383.435194408291
 21
1585.151214106073
 31
0.0
  0
CIRCLE
  5
1383
330
A
100
AcDbEntity
  8
1
  6
Continuous
 62
     3
100
AcDbCircle
 10
3317.488345525344
 20
1572.695944998929
 30
0.0
 40
2.5
  0
LINE
  5
1384
330
A
100
AcDbEntity
  8
1
  6
Continuous
 62
     3
100
AcDbLine
 10
3270.544279637882
 20
1487.972344361175
 30
0.0
 11
3317.488345525344
 21
1572.695944998929
 31
0.0
  0
CIRCLE
  5
1385
330
A
100
AcDbEntity
  8
1
  6
Continuous
 62
     3
100
AcDbCircle
 10
3288.513753251382
 20
1570.608259119593
 30
0.0
 40
2.5
  0
LINE
  5
1386
330
A
100
AcDbEntity
  8
1
  6
Continuous
 62
     3
100
AcDbLine
 10
3259.617286180343
 20
1517.49922900239
 30
0.0
 11
3288.513753251382
 21
1570.608259119593
 31
0.0
  0
LINE
  5
1387
330
A
100
AcDbEntity
  8
1
  6
Continuous
 62
     3
100
AcDbLine
 10
3194.903668477167
 20
1517.49922900239
 30
0.0
 11
3259.617286180343
 21
1517.49922900239
 31
0.0
  0
LINE
  5
1388
330
A
100
AcDbEntity
  8
1
  6
Continuous
 62
     3
100
AcDbLine
 10
3494.063866997576
 20
1629.784741436389
 30
0.0
 11
3416.434609963139
 21
1629.784741436389
 31
0.0
  0
LINE
  5
1389
330
A
100
AcDbEntity
  8
1
  6
Continuous
 62
     3
100
AcDbLine
 10
3358.330906997577
 20
1671.868266427501
 30
0.0
 11
3318.330906997577
 21
1671.868266427501
 31
0.0
  0
LINE
  5
138A
330
A
100
AcDbEntity
  8
1
  6
Continuous
 62
     3
100
AcDbLine
 10
3358.330906997577
 20
1671.868266427501
 30
0.0
 11
3377.649423523358
 21
1666.691885525451
 31
0.0
  0
LINE
  5
138B
330
A
100
AcDbEntity
  8
1
  6
Continuous
 62
     3
100
AcDbLine
 10
3358.330906997577
 20
1671.868266427501
 30
0.0
 11
3377.649423523358
 21
1677.044647329551
 31
0.0
  0
LINE
  5
138C
330
A
100
AcDbEntity
  8
1
  6
Continuous
 62
     3
100
AcDbLine
 10
3387.054151283291
 20
1671.868266427501
 30
0.0
 11
3358.330906997577
 21
1671.868266427501
 31
0.0
  0
LINE
  5
138D
330
A
100
AcDbEntity
  8
1
  6
Continuous
 62
     3
100
AcDbLine
 10
3318.330906997577
 20
1671.868266427501
 30
0.0
 11
3299.012390471795
 21
1677.044647329551
 31
0.0
  0
LINE
  5
138E
330
A
100
AcDbEntity
  8
1
  6
Continuous
 62
     3
100
AcDbLine
 10
3318.330906997577
 20
1671.868266427501
 30
0.0
 11
3299.012390471795
 21
1666.691885525451
 31
0.0
  0
LINE
  5
138F
330
A
100
AcDbEntity
  8
1
  6
Continuous
 62
     3
100
AcDbLine
 10
3288.746302711862
 20
1671.868266427501
 30
0.0
 11
3318.330906997577
 21
1671.868266427501
 31
0.0
  0
TEXT
  5
1390
330
A
100
AcDbEntity
  8
1
 62
     2
100
AcDbText
 10
3320.831029067888
 20
1717.122408444534
 30
0.0
 40
20.0
  1
%%c12
 50
0.0000000100051599
 41
0.75
 51
15.0
 72
     1
 11
3338.331029067889
 21
1717.12240844759
 31
0.0
100
AcDbText
  0
LINE
  5
1391
330
A
100
AcDbEntity
  8
1
  6
Continuous
 62
     3
100
AcDbLine
 10
3368.330906997577
 20
1628.19594499893
 30
0.0
 11
3368.330906997577
 21
1717.122373570358
 31
0.0
  0
LINE
  5
1392
330
A
100
AcDbEntity
  8
1
  6
Continuous
 62
     3
100
AcDbLine
 10
3308.330906997577
 20
1628.19594499893
 30
0.0
 11
3308.330906997577
 21
1717.122373570358
 31
0.0
  0
LINE
  5
1393
330
A
100
AcDbEntity
  8
1
  6
Continuous
 62
     3
100
AcDbLine
 10
3368.330906997577
 20
1712.122373570358
 30
0.0
 11
3349.012390471795
 21
1717.298754472408
 31
0.0
  0
LINE
  5
1394
330
A
100
AcDbEntity
  8
1
  6
Continuous
 62
     3
100
AcDbLine
 10
3368.330906997577
 20
1712.122373570358
 30
0.0
 11
3349.012390471795
 21
1706.945992668308
 31
0.0
  0
LINE
  5
1395
330
A
100
AcDbEntity
  8
1
  6
Continuous
 62
     3
100
AcDbLine
 10
3308.330906997577
 20
1712.122373570358
 30
0.0
 11
3327.649423523358
 21
1706.945992668308
 31
0.0
  0
LINE
  5
1396
330
A
100
AcDbEntity
  8
1
  6
Continuous
 62
     3
100
AcDbLine
 10
3308.330906997577
 20
1712.122373570358
 30
0.0
 11
3327.649423523358
 21
1717.298754472408
 31
0.0
  0
LINE
  5
1397
330
A
100
AcDbEntity
  8
1
  6
Continuous
 62
     3
100
AcDbLine
 10
3308.330906997577
 20
1712.122373570358
 30
0.0
 11
3368.330906997577
 21
1712.122373570358
 31
0.0
  0
TEXT
  5
1398
330
A
100
AcDbEntity
  8
1
 62
     2
100
AcDbText
 10
3325.831029067888
 20
1676.868258054782
 30
0.0
 40
20.0
  1
%%c8
 50
0.0000000100051599
 41
0.75
 51
15.0
 72
     1
 11
3338.331029067889
 21
1676.868258056965
 31
0.0
100
AcDbText
  0
LINE
  5
1399
330
A
100
AcDbEntity
  8
1
  6
Continuous
 62
     3
100
AcDbLine
 10
3358.330906997577
 20
1633.19594499893
 30
0.0
 11
3358.330906997576
 21
1676.868266427501
 31
0.0
  0
LINE
  5
139A
330
A
100
AcDbEntity
  8
1
  6
Continuous
 62
     3
100
AcDbLine
 10
3318.330906997577
 20
1633.195944998929
 30
0.0
 11
3318.330906997577
 21
1676.868266427501
 31
0.0
  0
LINE
  5
139B
330
A
100
AcDbEntity
  8
1
  6
Continuous
 62
     3
100
AcDbLine
 10
3262.806287354719
 20
1576.695944998929
 30
0.0
 11
3257.629906452669
 21
1557.377428473148
 31
0.0
  0
LINE
  5
139C
330
A
100
AcDbEntity
  8
1
  6
Continuous
 62
     3
100
AcDbLine
 10
3262.806287354719
 20
1576.695944998929
 30
0.0
 11
3267.98266825677
 21
1557.377428473148
 31
0.0
  0
LINE
  5
139D
330
A
100
AcDbEntity
  8
1
  6
Continuous
 62
     3
100
AcDbLine
 10
3262.806287354719
 20
1545.962926567807
 30
0.0
 11
3262.806287354719
 21
1576.695944998929
 31
0.0
  0
TEXT
  5
139E
330
A
100
AcDbEntity
  8
1
 62
     2
100
AcDbText
 10
3213.527562271013
 20
1589.25131469759
 30
0.0
 40
20.0
  1
10.3
 50
90.0
 41
0.75
 51
15.0
 72
     1
 11
3213.527562271013
 21
1608.00131469759
 31
0.0
100
AcDbText
  0
LINE
  5
139F
330
A
100
AcDbEntity
  8
1
  6
Continuous
 62
     3
100
AcDbLine
 10
3222.873576640434
 20
1628.195944998929
 30
0.0
 11
3228.049957542484
 21
1647.514461524711
 31
0.0
  0
LINE
  5
13A0
330
A
100
AcDbEntity
  8
1
  6
Continuous
 62
     3
100
AcDbLine
 10
3222.873576640434
 20
1628.195944998929
 30
0.0
 11
3217.697195738384
 21
1647.514461524711
 31
0.0
  0
LINE
  5
13A1
330
A
100
AcDbEntity
  8
1
  6
Continuous
 62
     3
100
AcDbLine
 10
3222.873576640434
 20
1628.195944998929
 30
0.0
 11
3222.873576640434
 21
1658.195944998929
 31
0.0
  0
LINE
  5
13A2
330
A
100
AcDbEntity
  8
1
  6
Continuous
 62
     3
100
AcDbLine
 10
3222.873576640434
 20
1576.695944998929
 30
0.0
 11
3217.697195738384
 21
1557.377428473148
 31
0.0
  0
LINE
  5
13A3
330
A
100
AcDbEntity
  8
1
  6
Continuous
 62
     3
100
AcDbLine
 10
3222.873576640434
 20
1576.695944998929
 30
0.0
 11
3228.049957542484
 21
1557.377428473148
 31
0.0
  0
LINE
  5
13A4
330
A
100
AcDbEntity
  8
1
  6
Continuous
 62
     3
100
AcDbLine
 10
3222.873576640434
 20
1546.695944998929
 30
0.0
 11
3222.873576640434
 21
1576.695944998929
 31
0.0
  0
LINE
  5
13A5
330
A
100
AcDbEntity
  8
1
  6
Continuous
 62
     3
100
AcDbLine
 10
3265.452976640434
 20
1628.195944998929
 30
0.0
 11
3217.873576640434
 21
1628.195944998929
 31
0.0
  0
LINE
  5
13A6
330
A
100
AcDbEntity
  8
1
  6
Continuous
 62
     3
100
AcDbLine
 10
3222.873576640434
 20
1576.695944998929
 30
0.0
 11
3222.873576640434
 21
1628.195944998929
 31
0.0
  0
TEXT
  5
13A7
330
A
100
AcDbEntity
  8
1
 62
     2
100
AcDbText
 10
3256.117894302263
 20
1583.101211128551
 30
0.0
 40
19.743007659912
  1
7.3
 50
90.0
 41
0.601093254367
 51
15.0
 72
     1
 11
3256.117894302263
 21
1594.96859985384
 31
0.0
100
AcDbText
  0
CIRCLE
  5
13A8
330
A
100
AcDbEntity
  8
1
  6
Continuous
 62
     3
100
AcDbCircle
 10
3262.806287354719
 20
1613.195944998929
 30
0.0
 40
2.5
  0
LINE
  5
13A9
330
A
100
AcDbEntity
  8
1
  6
Continuous
 62
     3
100
AcDbLine
 10
3262.806287354719
 20
1576.695944998929
 30
0.0
 11
3262.806287354719
 21
1613.195944998929
 31
0.0
  0
TEXT
  5
13AA
330
A
100
AcDbEntity
  8
1
 62
     2
100
AcDbText
 10
3257.806370864763
 20
1635.695894775715
 30
0.0
 40
20.0
  1
3
 50
90.0
 41
0.75
 51
15.0
 72
     1
 11
3257.806370864763
 21
1640.695894775715
 31
0.0
100
AcDbText
  0
LINE
  5
13AB
330
A
100
AcDbEntity
  8
1
  6
Continuous
 62
     3
100
AcDbLine
 10
3262.806287354719
 20
1628.195944998929
 30
0.0
 11
3267.98266825677
 21
1647.514461524711
 31
0.0
  0
LINE
  5
13AC
330
A
100
AcDbEntity
  8
1
  6
Continuous
 62
     3
100
AcDbLine
 10
3262.806287354719
 20
1628.195944998929
 30
0.0
 11
3257.629906452669
 21
1647.514461524711
 31
0.0
  0
LINE
  5
13AD
330
A
100
AcDbEntity
  8
1
  6
Continuous
 62
     3
100
AcDbLine
 10
3262.806287354719
 20
1628.195944998929
 30
0.0
 11
3262.806287354719
 21
1653.195944998929
 31
0.0
  0
LINE
  5
13AE
330
A
100
AcDbEntity
  8
1
  6
Continuous
 62
     3
100
AcDbLine
 10
3308.330906997577
 20
1628.195944998929
 30
0.0
 11
3257.80628735472
 21
1628.195944998929
 31
0.0
  0
LINE
  5
13AF
330
A
100
AcDbEntity
  8
1
  6
Continuous
 62
     3
100
AcDbLine
 10
3304.330906997577
 20
1613.195944998929
 30
0.0
 11
3257.80628735472
 21
1613.195944998929
 31
0.0
  0
LINE
  5
13B0
330
A
100
AcDbEntity
  8
1
  6
Continuous
 62
     3
100
AcDbLine
 10
3262.806287354719
 20
1613.195944998929
 30
0.0
 11
3262.806287354719
 21
1628.195944998929
 31
0.0
  0
LINE
  5
13B1
330
A
100
AcDbEntity
  8
1
  6
Continuous
 62
     3
100
AcDbLine
 10
3164.25054985472
 20
1572.695944998929
 30
0.0
 11
3239.808764140433
 21
1572.695944998929
 31
0.0
  0
LINE
  5
13B2
330
A
100
AcDbEntity
  8
1
  6
Continuous
 62
     3
100
AcDbLine
 10
3164.25054985472
 20
1576.695944998929
 30
0.0
 11
3239.808764140433
 21
1576.695944998929
 31
0.0
  0
LINE
  5
13B3
330
A
100
AcDbEntity
  8
1
  6
Continuous
 62
     3
100
AcDbLine
 10
3499.817951563902
 20
1574.533010305052
 30
0.0
 11
3500.129208069006
 21
1572.695944998929
 31
0.0
  0
LINE
  5
13B4
330
A
100
AcDbEntity
  8
1
  6
Continuous
 62
     3
100
AcDbLine
 10
3500.129208069006
 20
1576.695944998929
 30
0.0
 11
3499.817951563902
 21
1574.533010305052
 31
0.0
  0
LINE
  5
13B5
330
A
100
AcDbEntity
  8
1
  6
Continuous
 62
     3
100
AcDbLine
 10
3161.698535003856
 20
1582.561298743043
 30
0.0
 11
3161.02202852819
 21
1588.295586223419
 31
0.0
  0
LINE
  5
13B6
330
A
100
AcDbEntity
  8
1
  6
Continuous
 62
     3
100
AcDbLine
 10
3164.696645875128
 20
1565.757933162195
 30
0.0
 11
3166.166492813904
 21
1561.83834132546
 31
0.0
  0
LINE
  5
13B7
330
A
100
AcDbEntity
  8
1
  6
Continuous
 62
     3
100
AcDbLine
 10
3165.186594854719
 20
1568.207678060154
 30
0.0
 11
3164.696645875128
 21
1565.757933162195
 31
0.0
  0
LINE
  5
13B8
330
A
100
AcDbEntity
  8
1
  6
Continuous
 62
     3
100
AcDbLine
 10
3164.25054985472
 20
1572.695944998929
 30
0.0
 11
3165.186594854719
 21
1568.207678060154
 31
0.0
  0
LINE
  5
13B9
330
A
100
AcDbEntity
  8
1
  6
Continuous
 62
     3
100
AcDbLine
 10
3164.25054985472
 20
1576.695944998929
 30
0.0
 11
3164.25054985472
 21
1572.695944998929
 31
0.0
  0
LINE
  5
13BA
330
A
100
AcDbEntity
  8
1
  6
Continuous
 62
     3
100
AcDbLine
 10
3163.716747915945
 20
1579.966453570358
 30
0.0
 11
3164.25054985472
 21
1576.695944998929
 31
0.0
  0
LINE
  5
13BB
330
A
100
AcDbEntity
  8
1
  6
Continuous
 62
     3
100
AcDbLine
 10
3161.698535003856
 20
1582.561298743043
 30
0.0
 11
3163.716747915945
 21
1579.966453570358
 31
0.0
  0
LINE
  5
13BC
330
A
100
AcDbEntity
  8
1
  6
Continuous
 62
     3
100
AcDbLine
 10
3239.808764140433
 20
1576.695944998929
 30
0.0
 11
3455.487335569004
 21
1576.695944998929
 31
0.0
  0
ARC
  5
13BD
330
A
100
AcDbEntity
  8
1
  6
Continuous
 62
     3
100
AcDbCircle
 10
3352.423283157242
 20
1550.519151114116
 30
0.0
 40
4.223098916478499
100
AcDbArc
 50
200.8097681873735
 51
339.1902318126265
  0
ARC
  5
13BE
330
A
100
AcDbEntity
  8
1
  6
Continuous
 62
     3
100
AcDbCircle
 10
3338.330906997577
 20
1566.556614915567
 30
0.0
 40
20.26056271661
100
AcDbArc
 50
239.9526751350411
 51
300.0473248649589
  0
ARC
  5
13BF
330
A
100
AcDbEntity
  8
1
  6
Continuous
 62
     3
100
AcDbCircle
 10
3324.238530837911
 20
1550.519151114116
 30
0.0
 40
4.223098916478
100
AcDbArc
 50
200.8097681873735
 51
339.1902318126265
  0
LINE
  5
13C0
330
A
100
AcDbEntity
  8
1
  6
Continuous
 62
     3
100
AcDbLine
 10
3348.475677584719
 20
1564.695944998929
 30
0.0
 11
3348.475677584719
 21
1549.018826248579
 31
0.0
  0
LINE
  5
13C1
330
A
100
AcDbEntity
  8
1
  6
Continuous
 62
     3
100
AcDbLine
 10
3328.186136410434
 20
1564.695944998929
 30
0.0
 11
3328.186136410434
 21
1549.018826248579
 31
0.0
  0
LINE
  5
13C2
330
A
100
AcDbEntity
  8
1
  6
Continuous
 62
     3
100
AcDbLine
 10
3239.808764140433
 20
1572.695944998929
 30
0.0
 11
3455.487335569004
 21
1572.695944998929
 31
0.0
  0
LINE
  5
13C3
330
A
100
AcDbEntity
  8
1
  6
Continuous
 62
     3
100
AcDbLine
 10
3314.830906997577
 20
1568.695944998929
 30
0.0
 11
3319.830906997577
 21
1568.695944998929
 31
0.0
  0
LINE
  5
13C4
330
A
100
AcDbEntity
  8
1
  6
Continuous
 62
     3
100
AcDbLine
 10
3355.817098255549
 20
1568.695944998929
 30
0.0
 11
3361.830906997577
 21
1568.695944998929
 31
0.0
  0
ARC
  5
13C5
330
A
100
AcDbEntity
  8
1
  6
Continuous
 62
     3
100
AcDbCircle
 10
3356.830906997577
 20
1566.195944998929
 30
0.0
 40
1.5
100
AcDbArc
 50
270.0
 51
0.0
  0
ARC
  5
13C6
330
A
100
AcDbEntity
  8
1
  6
Continuous
 62
     3
100
AcDbCircle
 10
3319.830906997577
 20
1566.195944998929
 30
0.0
 40
1.5
100
AcDbArc
 50
180.0
 51
270.0
  0
ARC
  5
13C7
330
A
100
AcDbEntity
  8
1
  6
Continuous
 62
     3
100
AcDbCircle
 10
3319.830906997577
 20
1567.195944998929
 30
0.0
 40
1.5
100
AcDbArc
 50
90.0
 51
180.0
  0
ARC
  5
13C8
330
A
100
AcDbEntity
  8
1
  6
Continuous
 62
     3
100
AcDbCircle
 10
3356.830906997577
 20
1567.195944998929
 30
0.0
 40
1.5
100
AcDbArc
 50
0.0
 51
90.0
  0
ARC
  5
13C9
330
A
100
AcDbEntity
  8
1
  6
Continuous
 62
     3
100
AcDbCircle
 10
3361.830906997577
 20
1570.195944998929
 30
0.0
 40
1.5
100
AcDbArc
 50
270.0
 51
0.0
  0
ARC
  5
13CA
330
A
100
AcDbEntity
  8
1
  6
Continuous
 62
     3
100
AcDbCircle
 10
3314.830906997577
 20
1570.195944998929
 30
0.0
 40
1.5
100
AcDbArc
 50
180.0
 51
270.0
  0
ARC
  5
13CB
330
A
100
AcDbEntity
  8
1
  6
Continuous
 62
     3
100
AcDbCircle
 10
3314.830906997577
 20
1571.195944998929
 30
0.0
 40
1.5
100
AcDbArc
 50
90.0
 51
180.0
  0
ARC
  5
13CC
330
A
100
AcDbEntity
  8
1
  6
Continuous
 62
     3
100
AcDbCircle
 10
3361.830906997577
 20
1571.195944998929
 30
0.0
 40
1.5
100
AcDbArc
 50
0.0
 51
90.0
  0
LINE
  5
13CD
330
A
100
AcDbEntity
  8
1
  6
Continuous
 62
     3
100
AcDbLine
 10
3345.330906997577
 20
1527.695944998929
 30
0.0
 11
3348.330906997577
 21
1530.695944998929
 31
0.0
  0
LINE
  5
13CE
330
A
100
AcDbEntity
  8
1
  6
Continuous
 62
     3
100
AcDbLine
 10
3328.330906997577
 20
1530.695944998929
 30
0.0
 11
3348.330906997577
 21
1530.695944998929
 31
0.0
  0
LINE
  5
13CF
330
A
100
AcDbEntity
  8
1
  6
Continuous
 62
     3
100
AcDbLine
 10
3331.330906997577
 20
1527.695944998929
 30
0.0
 11
3331.330906997577
 21
1546.296052198957
 31
0.0
  0
LINE
  5
13D0
330
A
100
AcDbEntity
  8
1
  6
Continuous
 62
     3
100
AcDbLine
 10
3345.330906997577
 20
1527.695944998929
 30
0.0
 11
3345.330906997577
 21
1546.296052198957
 31
0.0
  0
LINE
  5
13D1
330
A
100
AcDbEntity
  8
1
  6
Continuous
 62
     3
100
AcDbLine
 10
3352.423388729766
 20
1546.296052198957
 30
0.0
 11
3324.238530837911
 21
1546.296052198957
 31
0.0
  0
LINE
  5
13D2
330
A
100
AcDbEntity
  8
1
  6
Continuous
 62
     3
100
AcDbLine
 10
3356.370888729765
 20
1549.018826248579
 30
0.0
 11
3356.370888729765
 21
1564.695944998929
 31
0.0
  0
LINE
  5
13D3
330
A
100
AcDbEntity
  8
1
  6
Continuous
 62
     3
100
AcDbLine
 10
3320.290925265388
 20
1549.018826248579
 30
0.0
 11
3320.290925265388
 21
1564.695944998929
 31
0.0
  0
LINE
  5
13D4
330
A
100
AcDbEntity
  8
1
  6
Continuous
 62
     3
100
AcDbLine
 10
3319.830906997577
 20
1564.695944998929
 30
0.0
 11
3356.830906997577
 21
1564.695944998929
 31
0.0
  0
LINE
  5
13D5
330
A
100
AcDbEntity
  8
1
  6
Continuous
 62
     3
100
AcDbLine
 10
3358.330906997577
 20
1567.195944998929
 30
0.0
 11
3358.330906997577
 21
1566.195944998929
 31
0.0
  0
LINE
  5
13D6
330
A
100
AcDbEntity
  8
1
  6
Continuous
 62
     3
100
AcDbLine
 10
3318.330906997577
 20
1567.195944998929
 30
0.0
 11
3318.330906997577
 21
1566.195944998929
 31
0.0
  0
LINE
  5
13D7
330
A
100
AcDbEntity
  8
1
  6
Continuous
 62
     3
100
AcDbLine
 10
3363.330906997577
 20
1570.195944998929
 30
0.0
 11
3363.330906997577
 21
1571.195944998929
 31
0.0
  0
LINE
  5
13D8
330
A
100
AcDbEntity
  8
1
  6
Continuous
 62
     3
100
AcDbLine
 10
3319.830906997577
 20
1568.695944998929
 30
0.0
 11
3356.830906997577
 21
1568.695944998929
 31
0.0
  0
LINE
  5
13D9
330
A
100
AcDbEntity
  8
1
  6
Continuous
 62
     3
100
AcDbLine
 10
3313.330906997577
 20
1571.195944998929
 30
0.0
 11
3313.330906997577
 21
1570.195944998929
 31
0.0
  0
LINE
  5
13DA
330
A
100
AcDbEntity
  8
1
  6
Continuous
 62
     3
100
AcDbLine
 10
3348.330906997577
 20
1572.695944998929
 30
0.0
 11
3361.830906997577
 21
1572.695944998929
 31
0.0
  0
LINE
  5
13DB
330
A
100
AcDbEntity
  8
1
  6
Continuous
 62
     3
100
AcDbLine
 10
3309.330906997577
 20
1613.195944998929
 30
0.0
 11
3308.330906997577
 21
1614.195944998929
 31
0.0
  0
LINE
  5
13DC
330
A
100
AcDbEntity
  8
1
  6
Continuous
 62
     3
100
AcDbLine
 10
3367.330906997576
 20
1613.195944998929
 30
0.0
 11
3368.330906997577
 21
1614.195944998929
 31
0.0
  0
ARC
  5
13DD
330
A
100
AcDbEntity
  8
1
  6
Continuous
 62
     3
100
AcDbCircle
 10
3363.330906997577
 20
1623.19594499893
 30
0.0
 40
5.0
100
AcDbArc
 50
0.0
 51
90.0
  0
ARC
  5
13DE
330
A
100
AcDbEntity
  8
1
  6
Continuous
 62
     3
100
AcDbCircle
 10
3313.330906997577
 20
1623.19594499893
 30
0.0
 40
5.0
100
AcDbArc
 50
90.0
 51
180.0
  0
LINE
  5
13DF
330
A
100
AcDbEntity
  8
1
  6
Continuous
 62
     3
100
AcDbLine
 10
3348.330906997577
 20
1546.296052198957
 30
0.0
 11
3348.330906997577
 21
1530.695944998929
 31
0.0
  0
LINE
  5
13E0
330
A
100
AcDbEntity
  8
1
  6
Continuous
 62
     3
100
AcDbLine
 10
3331.330906997577
 20
1527.695944998929
 30
0.0
 11
3345.330906997577
 21
1527.695944998929
 31
0.0
  0
LINE
  5
13E1
330
A
100
AcDbEntity
  8
1
  6
DASHDOT
 62
     4
100
AcDbLine
 10
3338.330906997577
 20
1634.904899080562
 30
0.0
 11
3338.330906997577
 21
1521.287246019338
 31
0.0
  0
LINE
  5
13E2
330
A
100
AcDbEntity
  8
1
  6
Continuous
 62
     3
100
AcDbLine
 10
3314.830906997577
 20
1572.695944998929
 30
0.0
 11
3328.330906997577
 21
1572.695944998929
 31
0.0
  0
LINE
  5
13E3
330
A
100
AcDbEntity
  8
1
  6
Continuous
 62
     3
100
AcDbLine
 10
3310.830906997577
 20
1576.695944998929
 30
0.0
 11
3455.487335569004
 21
1576.695944998929
 31
0.0
  0
LINE
  5
13E4
330
A
100
AcDbEntity
  8
1
  6
Continuous
 62
     3
100
AcDbLine
 10
3358.330906997577
 20
1613.195944998929
 30
0.0
 11
3358.330906997577
 21
1578.695944998929
 31
0.0
  0
LINE
  5
13E5
330
A
100
AcDbEntity
  8
1
  6
Continuous
 62
     3
100
AcDbLine
 10
3318.330906997577
 20
1613.195944998929
 30
0.0
 11
3318.330906997577
 21
1578.695944998929
 31
0.0
  0
LINE
  5
13E6
330
A
100
AcDbEntity
  8
1
  6
Continuous
 62
     3
100
AcDbLine
 10
3367.330906997576
 20
1613.195944998929
 30
0.0
 11
3309.330906997577
 21
1613.195944998929
 31
0.0
  0
LINE
  5
13E7
330
A
100
AcDbEntity
  8
1
  6
Continuous
 62
     3
100
AcDbLine
 10
3368.330906997577
 20
1623.19594499893
 30
0.0
 11
3368.330906997577
 21
1614.195944998929
 31
0.0
  0
LINE
  5
13E8
330
A
100
AcDbEntity
  8
1
  6
Continuous
 62
     3
100
AcDbLine
 10
3313.330906997577
 20
1628.195944998929
 30
0.0
 11
3363.330906997577
 21
1628.19594499893
 31
0.0
  0
LINE
  5
13E9
330
A
100
AcDbEntity
  8
1
  6
Continuous
 62
     3
100
AcDbLine
 10
3308.330906997577
 20
1614.195944998929
 30
0.0
 11
3308.330906997577
 21
1623.195944998929
 31
0.0
  0
TEXT
  5
13EA
330
A
100
AcDbEntity
  8
1
 62
     3
100
AcDbText
 10
1864.559483657732
 20
2172.588472900715
 30
0.0
 40
20.0
  1
給水栓穴%%c
 41
0.75
 51
15.0
  7
BIGFONT
 72
     1
 11
1905.559483657732
 21
2172.588472900715
 31
0.0
100
AcDbText
  0
LINE
  5
13EB
330
A
100
AcDbEntity
  8
1
  6
Continuous
 62
     3
100
AcDbLine
 10
1945.526228161274
 20
2168.969456281779
 30
0.0
 11
1864.809997998091
 21
2168.969456281779
 31
0.0
  0
LINE
  5
13EC
330
A
100
AcDbEntity
  8
1
  6
Continuous
 62
     3
100
AcDbLine
 10
1975.430899885077
 20
2070.711249189284
 30
0.0
 11
1974.758197803047
 21
2090.699932785479
 31
0.0
  0
LINE
  5
13ED
330
A
100
AcDbEntity
  8
1
  6
Continuous
 62
     3
100
AcDbLine
 10
1975.430899885077
 20
2070.711249189284
 30
0.0
 11
1964.853980994762
 21
2087.685605930785
 31
0.0
  0
LINE
  5
13EE
330
A
100
AcDbEntity
  8
1
  6
Continuous
 62
     3
100
AcDbLine
 10
1975.430899885077
 20
2070.711249189284
 30
0.0
 11
1945.526228161274
 21
2168.969456281779
 31
0.0
  0
TEXT
  5
13EF
330
A
100
AcDbEntity
  8
1
 62
     3
100
AcDbText
 10
2393.276280532732
 20
2142.20785766634
 30
0.0
 40
20.0
  1
70
 41
0.75
 51
15.0
 72
     1
 11
2404.526280532732
 21
2142.20785766634
 31
0.0
100
AcDbText
  0
LINE
  5
13F0
330
A
100
AcDbEntity
  8
1
  6
Continuous
 62
     3
100
AcDbLine
 10
2439.526228161274
 20
2137.207704989951
 30
0.0
 11
2420.207711635493
 21
2142.384085892001
 31
0.0
  0
LINE
  5
13F1
330
A
100
AcDbEntity
  8
1
  6
Continuous
 62
     3
100
AcDbLine
 10
2439.526228161274
 20
2137.207704989951
 30
0.0
 11
2420.207711635493
 21
2132.0313240879
 31
0.0
  0
LINE
  5
13F2
330
A
100
AcDbEntity
  8
1
  6
Continuous
 62
     3
100
AcDbLine
 10
2369.526228161274
 20
2137.207704989951
 30
0.0
 11
2388.844744687055
 21
2132.0313240879
 31
0.0
  0
LINE
  5
13F3
330
A
100
AcDbEntity
  8
1
  6
Continuous
 62
     3
100
AcDbLine
 10
2369.526228161274
 20
2137.207704989951
 30
0.0
 11
2388.844744687055
 21
2142.384085892001
 31
0.0
  0
LINE
  5
13F4
330
A
100
AcDbEntity
  8
1
  6
Continuous
 62
     3
100
AcDbLine
 10
2369.526228161274
 20
2137.207704989951
 30
0.0
 11
2439.526228161274
 21
2137.207704989951
 31
0.0
  0
LINE
  5
13F5
330
A
100
AcDbEntity
  8
1
  6
Continuous
 62
     3
100
AcDbLine
 10
2439.526228161274
 20
2093.969456281778
 30
0.0
 11
2439.526228161274
 21
2142.207704989951
 31
0.0
  0
LINE
  5
13F6
330
A
100
AcDbEntity
  8
1
  6
Continuous
 62
     3
100
AcDbLine
 10
2369.526228161274
 20
2093.969456281778
 30
0.0
 11
2369.526228161274
 21
2142.207704989951
 31
0.0
  0
TEXT
  5
13F7
330
A
100
AcDbEntity
  8
1
 62
     3
100
AcDbText
 10
2476.208836685076
 20
2042.71957641634
 30
0.0
 40
20.0
  1
70
 50
90.0
 41
0.75
 51
15.0
 72
     1
 11
2476.208836685076
 21
2053.96957641634
 31
0.0
100
AcDbText
  0
LINE
  5
13F8
330
A
100
AcDbEntity
  8
1
  6
Continuous
 62
     3
100
AcDbLine
 10
2481.208901073653
 20
2088.969456281779
 30
0.0
 11
2476.032520171603
 21
2069.650939755998
 31
0.0
  0
LINE
  5
13F9
330
A
100
AcDbEntity
  8
1
  6
Continuous
 62
     3
100
AcDbLine
 10
2481.208901073653
 20
2088.969456281779
 30
0.0
 11
2486.385281975703
 21
2069.650939755998
 31
0.0
  0
LINE
  5
13FA
330
A
100
AcDbEntity
  8
1
  6
Continuous
 62
     3
100
AcDbLine
 10
2481.208901073653
 20
2018.969456281778
 30
0.0
 11
2486.385281975703
 21
2038.28797280756
 31
0.0
  0
LINE
  5
13FB
330
A
100
AcDbEntity
  8
1
  6
Continuous
 62
     3
100
AcDbLine
 10
2481.208901073653
 20
2018.969456281778
 30
0.0
 11
2476.032520171603
 21
2038.28797280756
 31
0.0
  0
LINE
  5
13FC
330
A
100
AcDbEntity
  8
1
  6
Continuous
 62
     3
100
AcDbLine
 10
2481.208901073653
 20
2018.969456281778
 30
0.0
 11
2481.208901073653
 21
2088.969456281779
 31
0.0
  0
LINE
  5
13FD
330
A
100
AcDbEntity
  8
1
  6
Continuous
 62
     3
100
AcDbLine
 10
2444.526228161274
 20
2088.969456281779
 30
0.0
 11
2486.208901073652
 21
2088.969456281779
 31
0.0
  0
LINE
  5
13FE
330
A
100
AcDbEntity
  8
1
  6
Continuous
 62
     3
100
AcDbLine
 10
2444.526228161274
 20
2018.969456281778
 30
0.0
 11
2486.208901073652
 21
2018.969456281778
 31
0.0
  0
LINE
  5
13FF
330
A
100
AcDbEntity
  8
1
  6
DASHDOT
 62
     4
100
AcDbLine
 10
2192.526228161274
 20
1578.205032791388
 30
0.0
 11
2192.526228161274
 21
2133.737314378692
 31
0.0
  0
TEXT
  5
1400
330
A
100
AcDbEntity
  8
1
 62
     3
100
AcDbText
 10
2967.423109265991
 20
1672.919393987827
 30
0.0
 40
20.0
  1
R25
 50
313.306823730459
 41
0.75
 51
15.0
 72
     1
 11
2981.141209731951
 21
1658.36557251009
 31
0.0
100
AcDbText
  0
LINE
  5
1401
330
A
100
AcDbEntity
  8
1
  6
Continuous
 62
     3
100
AcDbLine
 10
3004.98740708607
 20
1625.77718215962
 30
0.0
 11
2995.503542937592
 21
1643.38559835226
 31
0.0
  0
LINE
  5
1402
330
A
100
AcDbEntity
  8
1
  6
Continuous
 62
     3
100
AcDbLine
 10
3004.98740708607
 20
1625.77718215962
 30
0.0
 11
2987.969931711128
 21
1636.284585828617
 31
0.0
  0
LINE
  5
1403
330
A
100
AcDbEntity
  8
1
  6
Continuous
 62
     3
100
AcDbLine
 10
3004.98740708607
 20
1625.77718215962
 30
0.0
 11
2956.925773866762
 21
1676.766764050604
 31
0.0
  0
LINE
  5
1404
330
A
100
AcDbEntity
  8
1
  6
Continuous
 62
     2
100
AcDbLine
 10
1877.526228161274
 20
1339.461962280082
 30
0.0
 11
1865.526228161274
 21
1339.461962280082
 31
0.0
  0
ARC
  5
1405
330
A
100
AcDbEntity
  8
1
  6
Continuous
 62
     2
100
AcDbCircle
 10
1877.526228161274
 20
1338.461962280081
 30
0.0
 40
1.0
100
AcDbArc
 50
0.0
 51
90.0
  0
LINE
  5
1406
330
A
100
AcDbEntity
  8
1
  6
Continuous
 62
     2
100
AcDbLine
 10
1878.526228161274
 20
1331.461962280081
 30
0.0
 11
1878.526228161274
 21
1338.461962280081
 31
0.0
  0
ARC
  5
1407
330
A
100
AcDbEntity
  8
1
  6
Continuous
 62
     2
100
AcDbCircle
 10
1885.526228161274
 20
1331.461962280081
 30
0.0
 40
7.0
100
AcDbArc
 50
180.0
 51
270.0
  0
LINE
  5
1408
330
A
100
AcDbEntity
  8
1
  6
Continuous
 62
     2
100
AcDbLine
 10
1890.526228161274
 20
1324.461962280081
 30
0.0
 11
1885.526228161274
 21
1324.461962280081
 31
0.0
  0
ARC
  5
1409
330
A
100
AcDbEntity
  8
1
  6
Continuous
 62
     2
100
AcDbCircle
 10
1890.526228161274
 20
1321.461962280081
 30
0.0
 40
3.0
100
AcDbArc
 50
0.0
 51
90.0
  0
LINE
  5
140A
330
A
100
AcDbEntity
  8
1
  6
Continuous
 62
     2
100
AcDbLine
 10
1893.526228161274
 20
1199.165280350682
 30
0.0
 11
1893.526228161274
 21
1321.461962280081
 31
0.0
  0
ARC
  5
140B
330
A
100
AcDbEntity
  8
1
  6
Continuous
 62
     2
100
AcDbCircle
 10
1920.526228161274
 20
1199.165280350682
 30
0.0
 40
27.0
100
AcDbArc
 50
180.0
 51
266.9498236266337
  0
LINE
  5
140C
330
A
100
AcDbEntity
  8
1
  6
Continuous
 62
     2
100
AcDbLine
 10
2100.026228161274
 20
1158.565696834433
 30
0.0
 11
1919.089545233434
 21
1172.203530738225
 31
0.0
  0
LINE
  5
140D
330
A
100
AcDbEntity
  8
1
  6
Continuous
 62
     2
100
AcDbLine
 10
2100.026228161274
 20
1154.46196228008
 30
0.0
 11
2100.026228161274
 21
1158.565696834433
 31
0.0
  0
ARC
  5
140E
330
A
100
AcDbEntity
  8
1
  6
Continuous
 62
     2
100
AcDbCircle
 10
2104.026228161274
 20
1154.461962280081
 30
0.0
 40
4.0
100
AcDbArc
 50
180.0
 51
270.0
  0
LINE
  5
140F
330
A
100
AcDbEntity
  8
1
  6
Continuous
 62
     2
100
AcDbLine
 10
2281.026228161274
 20
1150.461962280081
 30
0.0
 11
2104.026228161274
 21
1150.461962280081
 31
0.0
  0
ARC
  5
1410
330
A
100
AcDbEntity
  8
1
  6
Continuous
 62
     2
100
AcDbCircle
 10
2281.026228161274
 20
1154.461962280081
 30
0.0
 40
4.0
100
AcDbArc
 50
270.0
 51
359.999999999987
  0
LINE
  5
1411
330
A
100
AcDbEntity
  8
1
  6
Continuous
 62
     2
100
AcDbLine
 10
2285.026228161274
 20
1158.565696834434
 30
0.0
 11
2285.026228161274
 21
1154.46196228008
 31
0.0
  0
LINE
  5
1412
330
A
100
AcDbEntity
  8
1
  6
Continuous
 62
     2
100
AcDbLine
 10
2465.962911089113
 20
1172.203530738226
 30
0.0
 11
2285.026228161274
 21
1158.565696834434
 31
0.0
  0
ARC
  5
1413
330
A
100
AcDbEntity
  8
1
  6
Continuous
 62
     2
100
AcDbCircle
 10
2464.526228161273
 20
1199.165280350684
 30
0.0
 40
27.0
100
AcDbArc
 50
273.0501763733664
 51
0.0
  0
LINE
  5
1414
330
A
100
AcDbEntity
  8
1
  6
Continuous
 62
     2
100
AcDbLine
 10
2491.526228161274
 20
1321.461962280082
 30
0.0
 11
2491.526228161274
 21
1199.165280350684
 31
0.0
  0
ARC
  5
1415
330
A
100
AcDbEntity
  8
1
  6
Continuous
 62
     2
100
AcDbCircle
 10
2494.526228161274
 20
1321.461962280082
 30
0.0
 40
3.0
100
AcDbArc
 50
90.0
 51
180.0
  0
LINE
  5
1416
330
A
100
AcDbEntity
  8
1
  6
Continuous
 62
     2
100
AcDbLine
 10
2499.526228161274
 20
1324.461962280082
 30
0.0
 11
2494.526228161274
 21
1324.461962280082
 31
0.0
  0
ARC
  5
1417
330
A
100
AcDbEntity
  8
1
  6
Continuous
 62
     2
100
AcDbCircle
 10
2499.526228161274
 20
1331.461962280082
 30
0.0
 40
7.0
100
AcDbArc
 50
270.0
 51
0.0
  0
LINE
  5
1418
330
A
100
AcDbEntity
  8
1
  6
Continuous
 62
     2
100
AcDbLine
 10
2506.526228161274
 20
1338.461962280082
 30
0.0
 11
2506.526228161274
 21
1331.461962280082
 31
0.0
  0
ARC
  5
1419
330
A
100
AcDbEntity
  8
1
  6
Continuous
 62
     2
100
AcDbCircle
 10
2507.526228161274
 20
1338.461962280082
 30
0.0
 40
1.0
100
AcDbArc
 50
90.0
 51
180.0
  0
LINE
  5
141A
330
A
100
AcDbEntity
  8
1
  6
Continuous
 62
     2
100
AcDbLine
 10
2519.526228161274
 20
1339.461962280082
 30
0.0
 11
2507.526228161274
 21
1339.461962280082
 31
0.0
  0
ARC
  5
141B
330
A
100
AcDbEntity
  8
1
  6
Continuous
 62
     2
100
AcDbCircle
 10
2104.026228161274
 20
1154.461962280081
 30
0.0
 40
2.0
100
AcDbArc
 50
180.0
 51
270.0
  0
ARC
  5
141C
330
A
100
AcDbEntity
  8
1
  6
Continuous
 62
     2
100
AcDbCircle
 10
2281.026228161274
 20
1154.461962280081
 30
0.0
 40
2.0
100
AcDbArc
 50
270.0
 51
0.0
  0
LINE
  5
141D
330
A
100
AcDbEntity
  8
1
  6
Continuous
 62
     2
100
AcDbLine
 10
2102.026228161274
 20
1160.461962280081
 30
0.0
 11
2283.026228161273
 21
1160.461962280082
 31
0.0
  0
TEXT
  5
141E
330
A
100
AcDbEntity
  8
1
 62
     3
100
AcDbText
 10
1810.526188979997
 20
1235.9620996097
 30
0.0
 40
20.0
  1
181
 50
90.0
 41
0.75
 51
15.0
 72
     1
 11
1810.526188979997
 21
1250.9620996097
 31
0.0
100
AcDbText
  0
LINE
  5
141F
330
A
100
AcDbEntity
  8
1
  6
Continuous
 62
     3
100
AcDbLine
 10
1815.526228161274
 20
1341.461962280082
 30
0.0
 11
1810.349847259223
 21
1322.143445754301
 31
0.0
  0
LINE
  5
1420
330
A
100
AcDbEntity
  8
1
  6
Continuous
 62
     3
100
AcDbLine
 10
1815.526228161274
 20
1341.461962280082
 30
0.0
 11
1820.702609063324
 21
1322.143445754301
 31
0.0
  0
LINE
  5
1421
330
A
100
AcDbEntity
  8
1
  6
Continuous
 62
     3
100
AcDbLine
 10
1815.526228161274
 20
1160.461962280081
 30
0.0
 11
1820.702609063324
 21
1179.780478805863
 31
0.0
  0
LINE
  5
1422
330
A
100
AcDbEntity
  8
1
  6
Continuous
 62
     3
100
AcDbLine
 10
1815.526228161274
 20
1160.461962280081
 30
0.0
 11
1810.349847259223
 21
1179.780478805863
 31
0.0
  0
LINE
  5
1423
330
A
100
AcDbEntity
  8
1
  6
Continuous
 62
     3
100
AcDbLine
 10
1815.526228161274
 20
1160.461962280081
 30
0.0
 11
1815.526228161274
 21
1341.461962280082
 31
0.0
  0
LINE
  5
1424
330
A
100
AcDbEntity
  8
1
  6
Continuous
 62
     3
100
AcDbLine
 10
1860.526228161274
 20
1341.461962280082
 30
0.0
 11
1810.526228161274
 21
1341.461962280082
 31
0.0
  0
TEXT
  5
1425
330
A
100
AcDbEntity
  8
1
 62
     3
100
AcDbText
 10
1810.526188979997
 20
1124.961977539387
 30
0.0
 40
20.0
  1
8
 50
90.0
 41
0.75
 51
15.0
 72
     1
 11
1810.526188979997
 21
1129.961977539387
 31
0.0
100
AcDbText
  0
LINE
  5
1426
330
A
100
AcDbEntity
  8
1
  6
Continuous
 62
     3
100
AcDbLine
 10
1815.526228161274
 20
1152.461962280081
 30
0.0
 11
1815.526228161274
 21
1160.461962280081
 31
0.0
  0
LINE
  5
1427
330
A
100
AcDbEntity
  8
1
  6
Continuous
 62
     3
100
AcDbLine
 10
1815.526228161274
 20
1152.461962280081
 30
0.0
 11
1810.349847259223
 21
1133.1434457543
 31
0.0
  0
LINE
  5
1428
330
A
100
AcDbEntity
  8
1
  6
Continuous
 62
     3
100
AcDbLine
 10
1815.526228161274
 20
1152.461962280081
 30
0.0
 11
1820.702609063324
 21
1133.1434457543
 31
0.0
  0
LINE
  5
1429
330
A
100
AcDbEntity
  8
1
  6
Continuous
 62
     3
100
AcDbLine
 10
1815.526228161274
 20
1107.461962280081
 30
0.0
 11
1815.526228161274
 21
1152.461962280081
 31
0.0
  0
LINE
  5
142A
330
A
100
AcDbEntity
  8
1
  6
Continuous
 62
     3
100
AcDbLine
 10
2069.791002794753
 20
1160.461962280081
 30
0.0
 11
1810.526228161274
 21
1160.461962280081
 31
0.0
  0
LINE
  5
142B
330
A
100
AcDbEntity
  8
1
  6
Continuous
 62
     3
100
AcDbLine
 10
2097.026228161274
 20
1152.461962280081
 30
0.0
 11
1810.526228161274
 21
1152.461962280081
 31
0.0
  0
TEXT
  5
142C
330
A
100
AcDbEntity
  8
1
 62
     3
100
AcDbText
 10
2564.526219497576
 20
1240.9620996097
 30
0.0
 40
20.0
  1
166
 50
90.0
 41
0.75
 51
15.0
 72
     1
 11
2564.526219497576
 21
1258.4620996097
 31
0.0
100
AcDbText
  0
LINE
  5
142D
330
A
100
AcDbEntity
  8
1
  6
Continuous
 62
     3
100
AcDbLine
 10
2569.526228161274
 20
1341.461962280082
 30
0.0
 11
2564.349847259224
 21
1322.143445754301
 31
0.0
  0
LINE
  5
142E
330
A
100
AcDbEntity
  8
1
  6
Continuous
 62
     3
100
AcDbLine
 10
2569.526228161274
 20
1341.461962280082
 30
0.0
 11
2574.702609063324
 21
1322.143445754301
 31
0.0
  0
LINE
  5
142F
330
A
100
AcDbEntity
  8
1
  6
Continuous
 62
     3
100
AcDbLine
 10
2569.526228161274
 20
1175.461962280082
 30
0.0
 11
2574.702609063324
 21
1194.780478805864
 31
0.0
  0
LINE
  5
1430
330
A
100
AcDbEntity
  8
1
  6
Continuous
 62
     3
100
AcDbLine
 10
2569.526228161274
 20
1175.461962280082
 30
0.0
 11
2564.349847259224
 21
1194.780478805864
 31
0.0
  0
LINE
  5
1431
330
A
100
AcDbEntity
  8
1
  6
Continuous
 62
     3
100
AcDbLine
 10
2569.526228161274
 20
1175.461962280082
 30
0.0
 11
2569.526228161274
 21
1341.461962280082
 31
0.0
  0
LINE
  5
1432
330
A
100
AcDbEntity
  8
1
  6
Continuous
 62
     3
100
AcDbLine
 10
2524.526228161275
 20
1341.461962280082
 30
0.0
 11
2574.526228161274
 21
1341.461962280082
 31
0.0
  0
TEXT
  5
1433
330
A
100
AcDbEntity
  8
1
 62
     3
100
AcDbText
 10
2564.526219497576
 20
1127.961977539387
 30
0.0
 40
20.0
  1
15
 50
90.0
 41
0.75
 51
15.0
 72
     1
 11
2564.526219497576
 21
1137.961977539387
 31
0.0
100
AcDbText
  0
LINE
  5
1434
330
A
100
AcDbEntity
  8
1
  6
Continuous
 62
     3
100
AcDbLine
 10
2569.526228161274
 20
1160.461962280082
 30
0.0
 11
2569.526228161274
 21
1175.461962280082
 31
0.0
  0
LINE
  5
1435
330
A
100
AcDbEntity
  8
1
  6
Continuous
 62
     3
100
AcDbLine
 10
2569.526228161274
 20
1160.461962280082
 30
0.0
 11
2564.349847259224
 21
1141.143445754301
 31
0.0
  0
LINE
  5
1436
330
A
100
AcDbEntity
  8
1
  6
Continuous
 62
     3
100
AcDbLine
 10
2569.526228161274
 20
1160.461962280082
 30
0.0
 11
2574.702609063324
 21
1141.143445754301
 31
0.0
  0
LINE
  5
1437
330
A
100
AcDbEntity
  8
1
  6
Continuous
 62
     3
100
AcDbLine
 10
2569.526228161274
 20
1115.461962280082
 30
0.0
 11
2569.526228161274
 21
1160.461962280082
 31
0.0
  0
LINE
  5
1438
330
A
100
AcDbEntity
  8
1
  6
Continuous
 62
     3
100
AcDbLine
 10
2496.287543603067
 20
1175.461962280082
 30
0.0
 11
2574.526228161274
 21
1175.461962280082
 31
0.0
  0
LINE
  5
1439
330
A
100
AcDbEntity
  8
1
  6
Continuous
 62
     3
100
AcDbLine
 10
2293.13322840552
 20
1160.461962280082
 30
0.0
 11
2574.526228161274
 21
1160.461962280082
 31
0.0
  0
ARC
  5
143A
330
A
100
AcDbEntity
  8
1
  6
Continuous
 62
     2
100
AcDbCircle
 10
2464.526228161273
 20
1199.165280350684
 30
0.0
 40
25.0
100
AcDbArc
 50
273.0501763733664
 51
0.0
  0
ARC
  5
143B
330
A
100
AcDbEntity
  8
1
  6
Continuous
 62
     2
100
AcDbCircle
 10
1920.526228161274
 20
1199.165280350682
 30
0.0
 40
25.0
100
AcDbArc
 50
180.0
 51
266.9498236266337
  0
LINE
  5
143C
330
A
100
AcDbEntity
  8
1
  6
Continuous
 62
     2
100
AcDbLine
 10
2465.856490131495
 20
1174.200697376186
 30
0.0
 11
2283.026228161273
 21
1160.461962280081
 31
0.0
  0
LINE
  5
143D
330
A
100
AcDbEntity
  8
1
  6
Continuous
 62
     2
100
AcDbLine
 10
1919.195966191052
 20
1174.200697376185
 30
0.0
 11
2102.026228161273
 21
1160.461962280081
 31
0.0
  0
LINE
  5
143E
330
A
100
AcDbEntity
  8
1
  6
Continuous
 62
     2
100
AcDbLine
 10
2281.026228161274
 20
1152.461962280081
 30
0.0
 11
2104.026228161274
 21
1152.461962280081
 31
0.0
  0
LINE
  5
143F
330
A
100
AcDbEntity
  8
1
  6
Continuous
 62
     2
100
AcDbLine
 10
1890.526228161274
 20
1326.461962280081
 30
0.0
 11
2497.026228161274
 21
1326.461962280081
 31
0.0
  0
ARC
  5
1440
330
A
100
AcDbEntity
  8
1
  6
Continuous
 62
     2
100
AcDbCircle
 10
1890.526228161274
 20
1321.461962280081
 30
0.0
 40
5.0
100
AcDbArc
 50
0.0
 51
90.0
  0
LINE
  5
1441
330
A
100
AcDbEntity
  8
1
  6
Continuous
 62
     2
100
AcDbLine
 10
1890.526228161274
 20
1326.461962280081
 30
0.0
 11
1885.526228161274
 21
1326.461962280081
 31
0.0
  0
ARC
  5
1442
330
A
100
AcDbEntity
  8
1
  6
Continuous
 62
     2
100
AcDbCircle
 10
2494.526228161274
 20
1321.461962280082
 30
0.0
 40
5.0
100
AcDbArc
 50
90.0
 51
180.0
  0
ARC
  5
1443
330
A
100
AcDbEntity
  8
1
  6
Continuous
 62
     2
100
AcDbCircle
 10
2499.526228161274
 20
1331.461962280082
 30
0.0
 40
5.0
100
AcDbArc
 50
270.0
 51
0.0
  0
ARC
  5
1444
330
A
100
AcDbEntity
  8
1
  6
Continuous
 62
     2
100
AcDbCircle
 10
1885.526228161274
 20
1331.461962280081
 30
0.0
 40
5.0
100
AcDbArc
 50
180.0
 51
270.0
  0
LINE
  5
1445
330
A
100
AcDbEntity
  8
1
  6
Continuous
 62
     2
100
AcDbLine
 10
2494.526228161274
 20
1326.461962280082
 30
0.0
 11
2499.526228161274
 21
1326.461962280082
 31
0.0
  0
ARC
  5
1446
330
A
100
AcDbEntity
  8
1
  6
Continuous
 62
     2
100
AcDbCircle
 10
2507.526228161274
 20
1338.461962280082
 30
0.0
 40
3.0
100
AcDbArc
 50
90.0
 51
180.0
  0
LINE
  5
1447
330
A
100
AcDbEntity
  8
1
  6
Continuous
 62
     2
100
AcDbLine
 10
1877.526228161274
 20
1341.461962280081
 30
0.0
 11
2519.526228161274
 21
1341.461962280082
 31
0.0
  0
ARC
  5
1448
330
A
100
AcDbEntity
  8
1
  6
Continuous
 62
     2
100
AcDbCircle
 10
1877.526228161274
 20
1338.461962280081
 30
0.0
 40
3.0
100
AcDbArc
 50
0.0
 51
90.0
  0
LINE
  5
1449
330
A
100
AcDbEntity
  8
1
  6
Continuous
 62
     2
100
AcDbLine
 10
1865.526228161274
 20
1341.461962280082
 30
0.0
 11
1877.526228161274
 21
1341.461962280082
 31
0.0
  0
LINE
  5
144A
330
A
100
AcDbEntity
  8
1
  6
Continuous
 62
     2
100
AcDbLine
 10
2283.026228161274
 20
1160.461962280082
 30
0.0
 11
2283.026228161274
 21
1154.461962280081
 31
0.0
  0
LINE
  5
144B
330
A
100
AcDbEntity
  8
1
  6
Continuous
 62
     2
100
AcDbLine
 10
2102.026228161274
 20
1154.461962280081
 30
0.0
 11
2102.026228161274
 21
1160.461962280081
 31
0.0
  0
LINE
  5
144C
330
A
100
AcDbEntity
  8
1
  6
Continuous
 62
     2
100
AcDbLine
 10
2504.526228161274
 20
1331.461962280082
 30
0.0
 11
2504.526228161274
 21
1338.461962280082
 31
0.0
  0
LINE
  5
144D
330
A
100
AcDbEntity
  8
1
  6
Continuous
 62
     2
100
AcDbLine
 10
2489.526228161274
 20
1321.461962280082
 30
0.0
 11
2489.526228161274
 21
1199.165280350684
 31
0.0
  0
LINE
  5
144E
330
A
100
AcDbEntity
  8
1
  6
Continuous
 62
     2
100
AcDbLine
 10
1895.526228161274
 20
1321.461962280081
 30
0.0
 11
1895.526228161274
 21
1199.165280350682
 31
0.0
  0
LINE
  5
144F
330
A
100
AcDbEntity
  8
1
  6
Continuous
 62
     2
100
AcDbLine
 10
1880.526228161274
 20
1338.461962280081
 30
0.0
 11
1880.526228161274
 21
1331.461962280081
 31
0.0
  0
LINE
  5
1450
330
A
100
AcDbEntity
  8
1
  6
Continuous
 62
     2
100
AcDbLine
 10
2847.404216404058
 20
1600.969456281779
 30
0.0
 11
2847.404216404056
 21
1588.969456281779
 31
0.0
  0
ARC
  5
1451
330
A
100
AcDbEntity
  8
1
  6
Continuous
 62
     2
100
AcDbCircle
 10
2848.404216404057
 20
1600.969456281779
 30
0.0
 40
1.0
100
AcDbArc
 50
90.0
 51
180.0
  0
LINE
  5
1452
330
A
100
AcDbEntity
  8
1
  6
Continuous
 62
     2
100
AcDbLine
 10
2855.404216404057
 20
1601.969456281779
 30
0.0
 11
2848.404216404057
 21
1601.969456281779
 31
0.0
  0
ARC
  5
1453
330
A
100
AcDbEntity
  8
1
  6
Continuous
 62
     2
100
AcDbCircle
 10
2855.404216404057
 20
1608.969456281778
 30
0.0
 40
7.0
100
AcDbArc
 50
270.0
 51
0.0
  0
LINE
  5
1454
330
A
100
AcDbEntity
  8
1
  6
Continuous
 62
     2
100
AcDbLine
 10
2862.404216404057
 20
1613.969456281778
 30
0.0
 11
2862.404216404057
 21
1608.969456281779
 31
0.0
  0
ARC
  5
1455
330
A
100
AcDbEntity
  8
1
  6
Continuous
 62
     2
100
AcDbCircle
 10
2865.404216404057
 20
1613.969456281779
 30
0.0
 40
3.0
100
AcDbArc
 50
90.0
 51
180.000000000013
  0
LINE
  5
1456
330
A
100
AcDbEntity
  8
1
  6
Continuous
 62
     2
100
AcDbLine
 10
2987.839778612597
 20
1616.969456281779
 30
0.0
 11
2865.404216404057
 21
1616.969456281779
 31
0.0
  0
ARC
  5
1457
330
A
100
AcDbEntity
  8
1
  6
Continuous
 62
     2
100
AcDbCircle
 10
2987.839778612597
 20
1643.969456281778
 30
0.0
 40
27.0
100
AcDbArc
 50
270.0
 51
356.6136656712162
  0
LINE
  5
1458
330
A
100
AcDbEntity
  8
1
  6
Continuous
 62
     2
100
AcDbLine
 10
3028.289371427374
 20
1870.469456281778
 30
0.0
 11
3014.792635120843
 21
1642.374612701409
 31
0.0
  0
LINE
  5
1459
330
A
100
AcDbEntity
  8
1
  6
Continuous
 62
     2
100
AcDbLine
 10
3032.404216404058
 20
1870.469456281778
 30
0.0
 11
3028.289371427374
 21
1870.469456281778
 31
0.0
  0
ARC
  5
145A
330
A
100
AcDbEntity
  8
1
  6
Continuous
 62
     2
100
AcDbCircle
 10
3032.404216404058
 20
1874.469456281778
 30
0.0
 40
4.0
100
AcDbArc
 50
270.0
 51
0.0
  0
LINE
  5
145B
330
A
100
AcDbEntity
  8
1
  6
Continuous
 62
     2
100
AcDbLine
 10
3036.404216404058
 20
2051.469456281778
 30
0.0
 11
3036.404216404058
 21
1874.469456281778
 31
0.0
  0
ARC
  5
145C
330
A
100
AcDbEntity
  8
1
  6
Continuous
 62
     2
100
AcDbCircle
 10
3032.404216404058
 20
2051.469456281778
 30
0.0
 40
4.0
100
AcDbArc
 50
0.0
 51
90.0
  0
LINE
  5
145D
330
A
100
AcDbEntity
  8
1
  6
Continuous
 62
     2
100
AcDbLine
 10
3028.404216404057
 20
2055.469456281778
 30
0.0
 11
3032.404216404057
 21
2055.469456281779
 31
0.0
  0
LINE
  5
145E
330
A
100
AcDbEntity
  8
1
  6
Continuous
 62
     2
100
AcDbLine
 10
3028.404216404057
 20
2058.969456281778
 30
0.0
 11
3028.404216404057
 21
2055.469456281778
 31
0.0
  0
ARC
  5
145F
330
A
100
AcDbEntity
  8
1
  6
Continuous
 62
     2
100
AcDbCircle
 10
3001.404216404058
 20
2058.969456281778
 30
0.0
 40
27.0
100
AcDbArc
 50
0.0
 51
90.0
  0
LINE
  5
1460
330
A
100
AcDbEntity
  8
1
  6
Continuous
 62
     2
100
AcDbLine
 10
2865.404216404058
 20
2085.969456281778
 30
0.0
 11
3001.404216404058
 21
2085.969456281778
 31
0.0
  0
ARC
  5
1461
330
A
100
AcDbEntity
  8
1
  6
Continuous
 62
     2
100
AcDbCircle
 10
2865.404216404058
 20
2088.969456281779
 30
0.0
 40
3.0
100
AcDbArc
 50
180.0
 51
270.0
  0
LINE
  5
1462
330
A
100
AcDbEntity
  8
1
  6
Continuous
 62
     2
100
AcDbLine
 10
2862.404216404057
 20
2098.96945628178
 30
0.0
 11
2862.404216404057
 21
2088.969456281779
 31
0.0
  0
ARC
  5
1463
330
A
100
AcDbEntity
  8
1
  6
Continuous
 62
     2
100
AcDbCircle
 10
2855.404216404057
 20
2098.96945628178
 30
0.0
 40
7.0
100
AcDbArc
 50
0.0
 51
90.0
  0
LINE
  5
1464
330
A
100
AcDbEntity
  8
1
  6
Continuous
 62
     2
100
AcDbLine
 10
2848.404216404057
 20
2105.969456281779
 30
0.0
 11
2855.404216404057
 21
2105.96945628178
 31
0.0
  0
ARC
  5
1465
330
A
100
AcDbEntity
  8
1
  6
Continuous
 62
     2
100
AcDbCircle
 10
2848.404216404057
 20
2106.969456281778
 30
0.0
 40
1.0
100
AcDbArc
 50
180.0
 51
270.0
  0
LINE
  5
1466
330
A
100
AcDbEntity
  8
1
  6
Continuous
 62
     2
100
AcDbLine
 10
2847.404216404056
 20
2118.969456281778
 30
0.0
 11
2847.404216404056
 21
2106.969456281778
 31
0.0
  0
ARC
  5
1467
330
A
100
AcDbEntity
  8
1
  6
Continuous
 62
     2
100
AcDbCircle
 10
3032.404216404058
 20
1874.469456281778
 30
0.0
 40
2.0
100
AcDbArc
 50
270.0
 51
0.0
  0
ARC
  5
1468
330
A
100
AcDbEntity
  8
1
  6
Continuous
 62
     2
100
AcDbCircle
 10
3032.404216404058
 20
2051.469456281778
 30
0.0
 40
2.0
100
AcDbArc
 50
0.0
 51
90.0
  0
LINE
  5
1469
330
A
100
AcDbEntity
  8
1
  6
Continuous
 62
     2
100
AcDbLine
 10
3026.404216404058
 20
1872.469456281779
 30
0.0
 11
3026.404216404058
 21
2058.969456281778
 31
0.0
  0
TEXT
  5
146A
330
A
100
AcDbEntity
  8
1
 62
     3
100
AcDbText
 10
3051.903905044451
 20
2173.96957641634
 30
0.0
 40
20.0
  1
8
 41
0.75
 51
15.0
 72
     1
 11
3056.903905044451
 21
2173.96957641634
 31
0.0
100
AcDbText
  0
LINE
  5
146B
330
A
100
AcDbEntity
  8
1
  6
Continuous
 62
     3
100
AcDbLine
 10
3026.404216404058
 20
2168.969456281779
 30
0.0
 11
3034.404216404058
 21
2168.969456281779
 31
0.0
  0
LINE
  5
146C
330
A
100
AcDbEntity
  8
1
  6
Continuous
 62
     3
100
AcDbLine
 10
3034.404216404058
 20
2168.969456281779
 30
0.0
 11
3053.722732929839
 21
2163.793075379728
 31
0.0
  0
LINE
  5
146D
330
A
100
AcDbEntity
  8
1
  6
Continuous
 62
     3
100
AcDbLine
 10
3034.404216404058
 20
2168.969456281779
 30
0.0
 11
3053.722732929839
 21
2174.145837183829
 31
0.0
  0
LINE
  5
146E
330
A
100
AcDbEntity
  8
1
  6
Continuous
 62
     3
100
AcDbLine
 10
3034.404216404058
 20
2168.969456281779
 30
0.0
 11
3079.404216404058
 21
2168.969456281779
 31
0.0
  0
LINE
  5
146F
330
A
100
AcDbEntity
  8
1
  6
Continuous
 62
     3
100
AcDbLine
 10
3034.404216404058
 20
2058.469456281778
 30
0.0
 11
3034.404216404058
 21
2173.969456281779
 31
0.0
  0
TEXT
  5
1470
330
A
100
AcDbEntity
  8
1
 62
     3
100
AcDbText
 10
2920.904027114763
 20
2173.96957641634
 30
0.0
 40
20.0
  1
181
 41
0.75
 51
15.0
 72
     1
 11
2935.904027114764
 21
2173.96957641634
 31
0.0
100
AcDbText
  0
LINE
  5
1471
330
A
100
AcDbEntity
  8
1
  6
Continuous
 62
     3
100
AcDbLine
 10
3026.404216404058
 20
2168.969456281779
 30
0.0
 11
3007.085699878276
 21
2174.145837183829
 31
0.0
  0
LINE
  5
1472
330
A
100
AcDbEntity
  8
1
  6
Continuous
 62
     3
100
AcDbLine
 10
3026.404216404058
 20
2168.969456281779
 30
0.0
 11
3007.085699878276
 21
2163.793075379728
 31
0.0
  0
LINE
  5
1473
330
A
100
AcDbEntity
  8
1
  6
Continuous
 62
     3
100
AcDbLine
 10
2845.404216404057
 20
2168.969456281779
 30
0.0
 11
2864.722732929839
 21
2163.793075379728
 31
0.0
  0
LINE
  5
1474
330
A
100
AcDbEntity
  8
1
  6
Continuous
 62
     3
100
AcDbLine
 10
2845.404216404057
 20
2168.969456281779
 30
0.0
 11
2864.722732929839
 21
2174.145837183829
 31
0.0
  0
LINE
  5
1475
330
A
100
AcDbEntity
  8
1
  6
Continuous
 62
     3
100
AcDbLine
 10
2845.404216404057
 20
2168.969456281779
 30
0.0
 11
3026.404216404058
 21
2168.969456281779
 31
0.0
  0
LINE
  5
1476
330
A
100
AcDbEntity
  8
1
  6
Continuous
 62
     3
100
AcDbLine
 10
3026.404216404058
 20
2063.969456281778
 30
0.0
 11
3026.404216404058
 21
2173.969456281779
 31
0.0
  0
LINE
  5
1477
330
A
100
AcDbEntity
  8
1
  6
Continuous
 62
     3
100
AcDbLine
 10
2845.404216404057
 20
2123.969456281779
 30
0.0
 11
2845.404216404057
 21
2173.969456281779
 31
0.0
  0
TEXT
  5
1478
330
A
100
AcDbEntity
  8
1
 62
     3
100
AcDbText
 10
3038.903905044451
 20
1543.96957641634
 30
0.0
 40
20.0
  1
15
 41
0.75
 51
15.0
 72
     1
 11
3048.903905044451
 21
1543.96957641634
 31
0.0
100
AcDbText
  0
LINE
  5
1479
330
A
100
AcDbEntity
  8
1
  6
Continuous
 62
     3
100
AcDbLine
 10
3011.404216404057
 20
1538.969456281779
 30
0.0
 11
3026.404216404058
 21
1538.969456281779
 31
0.0
  0
LINE
  5
147A
330
A
100
AcDbEntity
  8
1
  6
Continuous
 62
     3
100
AcDbLine
 10
3026.404216404058
 20
1538.969456281779
 30
0.0
 11
3045.722732929839
 21
1533.793075379728
 31
0.0
  0
LINE
  5
147B
330
A
100
AcDbEntity
  8
1
  6
Continuous
 62
     3
100
AcDbLine
 10
3026.404216404058
 20
1538.969456281779
 30
0.0
 11
3045.722732929839
 21
1544.145837183829
 31
0.0
  0
LINE
  5
147C
330
A
100
AcDbEntity
  8
1
  6
Continuous
 62
     3
100
AcDbLine
 10
3026.404216404058
 20
1538.969456281779
 30
0.0
 11
3071.404216404058
 21
1538.969456281779
 31
0.0
  0
LINE
  5
147D
330
A
100
AcDbEntity
  8
1
  6
Continuous
 62
     3
100
AcDbLine
 10
3026.404216404058
 20
1827.865806159268
 30
0.0
 11
3026.404216404058
 21
1533.969456281779
 31
0.0
  0
TEXT
  5
147E
330
A
100
AcDbEntity
  8
1
 62
     3
100
AcDbText
 10
2910.904027114764
 20
1543.96957641634
 30
0.0
 40
20.0
  1
166
 41
0.75
 51
15.0
 72
     1
 11
2928.404027114763
 21
1543.96957641634
 31
0.0
100
AcDbText
  0
LINE
  5
147F
330
A
100
AcDbEntity
  8
1
  6
Continuous
 62
     3
100
AcDbLine
 10
3011.404216404057
 20
1538.969456281779
 30
0.0
 11
2992.085699878275
 21
1544.145837183829
 31
0.0
  0
LINE
  5
1480
330
A
100
AcDbEntity
  8
1
  6
Continuous
 62
     3
100
AcDbLine
 10
3011.404216404057
 20
1538.969456281779
 30
0.0
 11
2992.085699878275
 21
1533.793075379728
 31
0.0
  0
LINE
  5
1481
330
A
100
AcDbEntity
  8
1
  6
Continuous
 62
     3
100
AcDbLine
 10
2845.404216404057
 20
1538.969456281779
 30
0.0
 11
2864.722732929839
 21
1533.793075379728
 31
0.0
  0
LINE
  5
1482
330
A
100
AcDbEntity
  8
1
  6
Continuous
 62
     3
100
AcDbLine
 10
2845.404216404057
 20
1538.969456281779
 30
0.0
 11
2864.722732929839
 21
1544.145837183829
 31
0.0
  0
LINE
  5
1483
330
A
100
AcDbEntity
  8
1
  6
Continuous
 62
     3
100
AcDbLine
 10
2845.404216404057
 20
1538.969456281779
 30
0.0
 11
3011.404216404057
 21
1538.969456281779
 31
0.0
  0
LINE
  5
1484
330
A
100
AcDbEntity
  8
1
  6
Continuous
 62
     3
100
AcDbLine
 10
3011.404216404057
 20
1613.969456281779
 30
0.0
 11
3011.404216404057
 21
1533.969456281779
 31
0.0
  0
LINE
  5
1485
330
A
100
AcDbEntity
  8
1
  6
Continuous
 62
     3
100
AcDbLine
 10
2845.404216404057
 20
1583.969456281779
 30
0.0
 11
2845.404216404057
 21
1533.969456281779
 31
0.0
  0
ARC
  5
1486
330
A
100
AcDbEntity
  8
1
  6
Continuous
 62
     2
100
AcDbCircle
 10
2987.839778612597
 20
1643.969456281778
 30
0.0
 40
25.0
100
AcDbArc
 50
270.0
 51
356.6136656712162
  0
ARC
  5
1487
330
A
100
AcDbEntity
  8
1
  6
Continuous
 62
     2
100
AcDbCircle
 10
3001.404216404058
 20
1978.969456281779
 30
0.0
 40
25.0
100
AcDbArc
 50
0.0
 51
90.0
  0
ARC
  5
1488
330
A
100
AcDbEntity
  8
1
  6
Continuous
 62
     2
100
AcDbCircle
 10
3001.404216404058
 20
2058.969456281778
 30
0.0
 40
25.0
100
AcDbArc
 50
0.0
 51
90.0
  0
LINE
  5
1489
330
A
100
AcDbEntity
  8
1
  6
Continuous
 62
     2
100
AcDbLine
 10
3026.404216404058
 20
1872.469456281779
 30
0.0
 11
3012.796127231344
 21
1642.492749262918
 31
0.0
  0
LINE
  5
148A
330
A
100
AcDbEntity
  8
1
  6
Continuous
 62
     2
100
AcDbLine
 10
3034.404216404058
 20
1874.469456281778
 30
0.0
 11
3034.404216404058
 21
2051.469456281778
 31
0.0
  0
LINE
  5
148B
330
A
100
AcDbEntity
  8
1
  6
Continuous
 62
     2
100
AcDbLine
 10
2845.404216404057
 20
2106.969456281778
 30
0.0
 11
2845.404216404057
 21
1600.969456281779
 31
0.0
  0
ARC
  5
148C
330
A
100
AcDbEntity
  8
1
  6
Continuous
 62
     2
100
AcDbCircle
 10
2848.404216404057
 20
1600.969456281779
 30
0.0
 40
3.0
100
AcDbArc
 50
90.0
 51
180.0
  0
ARC
  5
148D
330
A
100
AcDbEntity
  8
1
  6
Continuous
 62
     2
100
AcDbCircle
 10
2855.404216404057
 20
1608.969456281778
 30
0.0
 40
5.0
100
AcDbArc
 50
270.0
 51
0.0
  0
ARC
  5
148E
330
A
100
AcDbEntity
  8
1
  6
Continuous
 62
     2
100
AcDbCircle
 10
2865.404216404057
 20
1613.969456281779
 30
0.0
 40
5.0
100
AcDbArc
 50
90.0
 51
180.0
  0
LINE
  5
148F
330
A
100
AcDbEntity
  8
1
  6
Continuous
 62
     2
100
AcDbLine
 10
2860.404216404057
 20
1613.969456281779
 30
0.0
 11
2860.404216404058
 21
1608.969456281778
 31
0.0
  0
LINE
  5
1490
330
A
100
AcDbEntity
  8
1
  6
Continuous
 62
     2
100
AcDbLine
 10
2845.404216404057
 20
1600.969456281779
 30
0.0
 11
2845.404216404057
 21
1588.969456281779
 31
0.0
  0
ARC
  5
1491
330
A
100
AcDbEntity
  8
1
  6
Continuous
 62
     2
100
AcDbCircle
 10
2865.404216404058
 20
2088.969456281779
 30
0.0
 40
5.0
100
AcDbArc
 50
180.0
 51
270.0
  0
ARC
  5
1492
330
A
100
AcDbEntity
  8
1
  6
Continuous
 62
     2
100
AcDbCircle
 10
2855.404216404057
 20
2098.96945628178
 30
0.0
 40
5.0
100
AcDbArc
 50
0.0
 51
90.0
  0
ARC
  5
1493
330
A
100
AcDbEntity
  8
1
  6
Continuous
 62
     2
100
AcDbCircle
 10
2848.404216404057
 20
2106.969456281778
 30
0.0
 40
3.0
100
AcDbArc
 50
180.0
 51
270.0
  0
LINE
  5
1494
330
A
100
AcDbEntity
  8
1
  6
Continuous
 62
     2
100
AcDbLine
 10
2860.404216404057
 20
1613.969456281778
 30
0.0
 11
2860.404216404057
 21
2098.96945628178
 31
0.0
  0
LINE
  5
1495
330
A
100
AcDbEntity
  8
1
  6
Continuous
 62
     2
100
AcDbLine
 10
2855.404216404057
 20
1603.969456281779
 30
0.0
 11
2848.404216404057
 21
1603.969456281779
 31
0.0
  0
LINE
  5
1496
330
A
100
AcDbEntity
  8
1
  6
Continuous
 62
     2
100
AcDbLine
 10
2987.839778612597
 20
1618.969456281779
 30
0.0
 11
2865.404216404057
 21
1618.969456281779
 31
0.0
  0
LINE
  5
1497
330
A
100
AcDbEntity
  8
1
  6
Continuous
 62
     2
100
AcDbLine
 10
3026.404216404058
 20
1872.469456281778
 30
0.0
 11
3032.404216404058
 21
1872.469456281778
 31
0.0
  0
LINE
  5
1498
330
A
100
AcDbEntity
  8
1
  6
Continuous
 62
     2
100
AcDbLine
 10
3032.404216404058
 20
2053.469456281778
 30
0.0
 11
3026.404216404058
 21
2053.469456281778
 31
0.0
  0
LINE
  5
1499
330
A
100
AcDbEntity
  8
1
  6
Continuous
 62
     2
100
AcDbLine
 10
2860.404216404057
 20
2003.96945628178
 30
0.0
 11
3001.404216404058
 21
2003.96945628178
 31
0.0
  0
LINE
  5
149A
330
A
100
AcDbEntity
  8
1
  6
Continuous
 62
     2
100
AcDbLine
 10
2865.404216404058
 20
2083.969456281779
 30
0.0
 11
3001.404216404058
 21
2083.969456281779
 31
0.0
  0
LINE
  5
149B
330
A
100
AcDbEntity
  8
1
  6
Continuous
 62
     2
100
AcDbLine
 10
2848.404216404057
 20
2103.969456281779
 30
0.0
 11
2855.404216404057
 21
2103.96945628178
 31
0.0
  0
LINE
  5
149C
330
A
100
AcDbEntity
  8
1
  6
Continuous
 62
     2
100
AcDbLine
 10
2845.404216404057
 20
2118.969456281778
 30
0.0
 11
2845.404216404057
 21
2106.969456281778
 31
0.0
  0
TEXT
  5
149D
330
A
100
AcDbEntity
  8
1
 62
     3
100
AcDbText
 10
1896.479594333144
 20
2042.978642571122
 30
0.0
 40
20.0
  1
2-R80
 50
304.7822265625001
 41
0.75
 51
15.0
 72
     1
 11
1915.732579360857
 21
2015.258883056965
 31
0.0
100
AcDbText
  0
LINE
  5
149E
330
A
100
AcDbEntity
  8
1
  6
Continuous
 62
     3
100
AcDbLine
 10
1885.270972745872
 20
2050.351324590888
 30
0.0
 11
1892.039893368027
 21
2031.531608503471
 31
0.0
  0
LINE
  5
149F
330
A
100
AcDbEntity
  8
1
  6
Continuous
 62
     3
100
AcDbLine
 10
1885.270972745872
 20
2050.351324590888
 30
0.0
 11
1900.542888004567
 21
2037.437432678252
 31
0.0
  0
LINE
  5
14A0
330
A
100
AcDbEntity
  8
1
  6
Continuous
 62
     3
100
AcDbLine
 10
1885.270972745872
 20
2050.351324590888
 30
0.0
 11
1933.01820637896
 21
1981.606563575911
 31
0.0
  0
TEXT
  5
14A1
330
A
100
AcDbEntity
  8
1
 62
     3
100
AcDbText
 10
2210.819830329784
 20
1954.068702459777
 30
0.0
 40
20.0
  1
%%c181
 50
319.8271484375068
 41
0.75
 51
15.0
 72
     1
 11
2228.012120376482
 21
1939.55404907259
 31
0.0
100
AcDbText
  0
LINE
  5
14A2
330
A
100
AcDbEntity
  8
1
  6
Continuous
 62
     3
100
AcDbLine
 10
2261.677429352891
 20
1904.588283171293
 30
0.0
 11
2250.255380364277
 21
1921.00585902468
 31
0.0
  0
LINE
  5
14A3
330
A
100
AcDbEntity
  8
1
  6
Continuous
 62
     3
100
AcDbLine
 10
2261.677429352891
 20
1904.588283171293
 30
0.0
 11
2243.576856838787
 21
1913.095296434577
 31
0.0
  0
LINE
  5
14A4
330
A
100
AcDbEntity
  8
1
  6
Continuous
 62
     3
100
AcDbLine
 10
2123.375026969657
 20
2021.350629392264
 30
0.0
 11
2134.797075958269
 21
2004.933053538877
 31
0.0
  0
LINE
  5
14A5
330
A
100
AcDbEntity
  8
1
  6
Continuous
 62
     3
100
AcDbLine
 10
2123.375026969657
 20
2021.350629392264
 30
0.0
 11
2141.47559948376
 21
2012.84361612898
 31
0.0
  0
LINE
  5
14A6
330
A
100
AcDbEntity
  8
1
  6
Continuous
 62
     3
100
AcDbLine
 10
2123.375026969657
 20
2021.350629392264
 30
0.0
 11
2261.677429352891
 21
1904.588283171293
 31
0.0
  0
TEXT
  5
14A7
330
A
100
AcDbEntity
  8
1
 62
     3
100
AcDbText
 10
2138.293614499835
 20
1925.301893724277
 30
0.0
 40
20.0
  1
%%c159
 50
39.12496948241442
 41
0.75
 51
15.0
 72
     1
 11
2157.687901626482
 21
1941.077242431965
 31
0.0
100
AcDbText
  0
LINE
  5
14A8
330
A
100
AcDbEntity
  8
1
  6
Continuous
 62
     3
100
AcDbLine
 10
2130.658450709045
 20
1912.646095770765
 30
0.0
 11
2148.911573761088
 21
1920.820659908807
 31
0.0
  0
LINE
  5
14A9
330
A
100
AcDbEntity
  8
1
  6
Continuous
 62
     3
100
AcDbLine
 10
2130.658450709045
 20
1912.646095770765
 30
0.0
 11
2142.378836901496
 21
1928.852037505196
 31
0.0
  0
LINE
  5
14AA
330
A
100
AcDbEntity
  8
1
  6
Continuous
 62
     3
100
AcDbLine
 10
2254.394005613503
 20
2013.292816792792
 30
0.0
 11
2236.140882561459
 21
2005.11825265475
 31
0.0
  0
LINE
  5
14AB
330
A
100
AcDbEntity
  8
1
  6
Continuous
 62
     3
100
AcDbLine
 10
2254.394005613503
 20
2013.292816792792
 30
0.0
 11
2242.673619421051
 21
1997.086875058361
 31
0.0
  0
LINE
  5
14AC
330
A
100
AcDbEntity
  8
1
  6
Continuous
 62
     3
100
AcDbLine
 10
2254.394005613503
 20
2013.292816792792
 30
0.0
 11
2130.658450709045
 21
1912.646095770765
 31
0.0
  0
TEXT
  5
14AD
330
A
100
AcDbEntity
  8
1
 62
     3
100
AcDbText
 10
1907.702150789693
 20
1623.498733919005
 30
0.0
 40
20.0
  1
2-R60
 50
32.48981475831112
 41
0.75
 51
15.0
 72
     1
 11
1936.169835220232
 21
1641.627535400715
 31
0.0
100
AcDbText
  0
LINE
  5
14AE
330
A
100
AcDbEntity
  8
1
  6
Continuous
 62
     3
100
AcDbLine
 10
1904.830920662273
 20
1615.742440797178
 30
0.0
 11
1923.906328323703
 21
1621.753166423113
 31
0.0
  0
LINE
  5
14AF
330
A
100
AcDbEntity
  8
1
  6
Continuous
 62
     3
100
AcDbLine
 10
1904.830920662273
 20
1615.742440797178
 30
0.0
 11
1918.345345471648
 21
1630.485585715131
 31
0.0
  0
LINE
  5
14B0
330
A
100
AcDbEntity
  8
1
  6
Continuous
 62
     3
100
AcDbLine
 10
1904.830920662273
 20
1615.742440797178
 30
0.0
 11
1970.48636773583
 21
1657.553169658283
 31
0.0
  0
TEXT
  5
14B1
330
A
100
AcDbEntity
  8
1
 62
     3
100
AcDbText
 10
1905.099611727193
 20
1660.66352884088
 30
0.0
 40
20.0
  1
2-R60
 50
32.48981475831112
 41
0.75
 51
15.0
 72
     1
 11
1933.567296157732
 21
1678.79233032259
 31
0.0
100
AcDbText
  0
LINE
  5
14B2
330
A
100
AcDbEntity
  8
1
  6
Continuous
 62
     3
100
AcDbLine
 10
1902.22837179402
 20
1652.90716307838
 30
0.0
 11
1921.303779455449
 21
1658.917888704315
 31
0.0
  0
LINE
  5
14B3
330
A
100
AcDbEntity
  8
1
  6
Continuous
 62
     3
100
AcDbLine
 10
1902.22837179402
 20
1652.90716307838
 30
0.0
 11
1915.742796603394
 21
1667.650307996333
 31
0.0
  0
LINE
  5
14B4
330
A
100
AcDbEntity
  8
1
  6
Continuous
 62
     3
100
AcDbLine
 10
1902.22837179402
 20
1652.90716307838
 30
0.0
 11
1967.883818867576
 21
1694.717891939485
 31
0.0
  0
LINE
  5
14B5
330
A
100
AcDbEntity
  8
1
  6
DASHDOT
 62
     4
100
AcDbLine
 10
2091.195688525973
 20
1962.969456281778
 30
0.0
 11
2292.776228161274
 21
1962.969456281778
 31
0.0
  0
LINE
  5
14B6
330
A
100
AcDbEntity
  8
1
  6
DASHDOT
 62
     4
100
AcDbLine
 10
2192.526228161274
 20
1112.872553644973
 30
0.0
 11
2192.526228161274
 21
1375.618801300469
 31
0.0
  0
TEXT
  5
14B7
330
A
100
AcDbEntity
  8
1
 62
     3
100
AcDbText
 10
1760.526204238787
 20
2018.46957641634
 30
0.0
 40
20.0
  1
141
 50
90.0
 41
0.75
 51
15.0
 72
     1
 11
1760.526204238787
 21
2033.46957641634
 31
0.0
100
AcDbText
  0
LINE
  5
14B8
330
A
100
AcDbEntity
  8
1
  6
Continuous
 62
     3
100
AcDbLine
 10
1765.526228161274
 20
2103.969456281779
 30
0.0
 11
1760.349847259223
 21
2084.650939755998
 31
0.0
  0
LINE
  5
14B9
330
A
100
AcDbEntity
  8
1
  6
Continuous
 62
     3
100
AcDbLine
 10
1765.526228161274
 20
2103.969456281779
 30
0.0
 11
1770.702609063323
 21
2084.650939755998
 31
0.0
  0
LINE
  5
14BA
330
A
100
AcDbEntity
  8
1
  6
Continuous
 62
     3
100
AcDbLine
 10
1765.526228161274
 20
1962.969456281778
 30
0.0
 11
1770.702609063324
 21
1982.287972807559
 31
0.0
  0
LINE
  5
14BB
330
A
100
AcDbEntity
  8
1
  6
Continuous
 62
     3
100
AcDbLine
 10
1765.526228161274
 20
1962.969456281778
 30
0.0
 11
1760.349847259223
 21
1982.287972807559
 31
0.0
  0
LINE
  5
14BC
330
A
100
AcDbEntity
  8
1
  6
Continuous
 62
     3
100
AcDbLine
 10
1765.526228161274
 20
1962.969456281778
 30
0.0
 11
1765.526228161274
 21
2103.969456281779
 31
0.0
  0
LINE
  5
14BD
330
A
100
AcDbEntity
  8
1
  6
Continuous
 62
     3
100
AcDbLine
 10
1955.526228161274
 20
2103.969456281779
 30
0.0
 11
1760.526228161274
 21
2103.969456281779
 31
0.0
  0
LINE
  5
14BE
330
A
100
AcDbEntity
  8
1
  6
Continuous
 62
     3
100
AcDbLine
 10
2091.195688525973
 20
1962.969456281778
 30
0.0
 11
1760.526228161274
 21
1962.969456281778
 31
0.0
  0
TEXT
  5
14BF
330
A
100
AcDbEntity
  8
1
 62
     3
100
AcDbText
 10
1810.526188979997
 20
2067.71957641634
 30
0.0
 40
20.0
  1
50
 50
90.0
 41
0.75
 51
15.0
 72
     1
 11
1810.526188979997
 21
2078.969576416341
 31
0.0
100
AcDbText
  0
LINE
  5
14C0
330
A
100
AcDbEntity
  8
1
  6
Continuous
 62
     3
100
AcDbLine
 10
1815.526228161274
 20
2103.969456281779
 30
0.0
 11
1810.349847259223
 21
2084.650939755998
 31
0.0
  0
LINE
  5
14C1
330
A
100
AcDbEntity
  8
1
  6
Continuous
 62
     3
100
AcDbLine
 10
1815.526228161274
 20
2103.969456281779
 30
0.0
 11
1820.702609063324
 21
2084.650939755998
 31
0.0
  0
LINE
  5
14C2
330
A
100
AcDbEntity
  8
1
  6
Continuous
 62
     3
100
AcDbLine
 10
1815.526228161274
 20
2053.969456281778
 30
0.0
 11
1820.702609063324
 21
2073.287972807559
 31
0.0
  0
LINE
  5
14C3
330
A
100
AcDbEntity
  8
1
  6
Continuous
 62
     3
100
AcDbLine
 10
1815.526228161274
 20
2053.969456281778
 30
0.0
 11
1810.349847259223
 21
2073.287972807559
 31
0.0
  0
LINE
  5
14C4
330
A
100
AcDbEntity
  8
1
  6
Continuous
 62
     3
100
AcDbLine
 10
1815.526228161274
 20
2053.969456281778
 30
0.0
 11
1815.526228161274
 21
2103.969456281779
 31
0.0
  0
LINE
  5
14C5
330
A
100
AcDbEntity
  8
1
  6
Continuous
 62
     3
100
AcDbLine
 10
1955.526228161274
 20
2103.969456281779
 30
0.0
 11
1810.526228161274
 21
2103.969456281779
 31
0.0
  0
LINE
  5
14C6
330
A
100
AcDbEntity
  8
1
  6
Continuous
 62
     3
100
AcDbLine
 10
1958.026228161274
 20
2053.969456281778
 30
0.0
 11
1810.526228161274
 21
2053.969456281778
 31
0.0
  0
TEXT
  5
14C7
330
A
100
AcDbEntity
  8
1
 62
     3
100
AcDbText
 10
2664.526219497576
 20
1835.21957641634
 30
0.0
 40
20.0
  1
530
 50
90.0
 41
0.75
 51
15.0
 72
     1
 11
2664.526219497576
 21
1853.96957641634
 31
0.0
100
AcDbText
  0
LINE
  5
14C8
330
A
100
AcDbEntity
  8
1
  6
Continuous
 62
     3
100
AcDbLine
 10
2669.526228161274
 20
2118.969456281778
 30
0.0
 11
2664.349847259224
 21
2099.650939755997
 31
0.0
  0
LINE
  5
14C9
330
A
100
AcDbEntity
  8
1
  6
Continuous
 62
     3
100
AcDbLine
 10
2669.526228161274
 20
2118.969456281778
 30
0.0
 11
2674.702609063324
 21
2099.650939755997
 31
0.0
  0
LINE
  5
14CA
330
A
100
AcDbEntity
  8
1
  6
Continuous
 62
     3
100
AcDbLine
 10
2669.526228161274
 20
1588.969456281779
 30
0.0
 11
2674.702609063324
 21
1608.287972807559
 31
0.0
  0
LINE
  5
14CB
330
A
100
AcDbEntity
  8
1
  6
Continuous
 62
     3
100
AcDbLine
 10
2669.526228161274
 20
1588.969456281779
 30
0.0
 11
2664.349847259224
 21
1608.287972807559
 31
0.0
  0
LINE
  5
14CC
330
A
100
AcDbEntity
  8
1
  6
Continuous
 62
     3
100
AcDbLine
 10
2669.526228161274
 20
1588.969456281779
 30
0.0
 11
2669.526228161274
 21
2118.969456281778
 31
0.0
  0
LINE
  5
14CD
330
A
100
AcDbEntity
  8
1
  6
Continuous
 62
     3
100
AcDbLine
 10
2429.526228161272
 20
2118.969456281778
 30
0.0
 11
2674.526228161274
 21
2118.969456281778
 31
0.0
  0
LINE
  5
14CE
330
A
100
AcDbEntity
  8
1
  6
Continuous
 62
     3
100
AcDbLine
 10
2449.526228161274
 20
1588.969456281779
 30
0.0
 11
2674.526228161274
 21
1588.969456281779
 31
0.0
  0
TEXT
  5
14CF
330
A
100
AcDbEntity
  8
1
 62
     3
100
AcDbText
 10
2614.526219497576
 20
1553.96957641634
 30
0.0
 40
20.0
  1
15
 50
90.0
 41
0.75
 51
15.0
 72
     1
 11
2614.526219497576
 21
1563.96957641634
 31
0.0
100
AcDbText
  0
LINE
  5
14D0
330
A
100
AcDbEntity
  8
1
  6
Continuous
 62
     3
100
AcDbLine
 10
2619.526228161274
 20
1588.969456281779
 30
0.0
 11
2619.526228161274
 21
1603.969456281779
 31
0.0
  0
LINE
  5
14D1
330
A
100
AcDbEntity
  8
1
  6
Continuous
 62
     3
100
AcDbLine
 10
2619.526228161274
 20
1603.969456281779
 30
0.0
 11
2624.702609063323
 21
1623.28797280756
 31
0.0
  0
LINE
  5
14D2
330
A
100
AcDbEntity
  8
1
  6
Continuous
 62
     3
100
AcDbLine
 10
2619.526228161274
 20
1603.969456281779
 30
0.0
 11
2614.349847259224
 21
1623.28797280756
 31
0.0
  0
LINE
  5
14D3
330
A
100
AcDbEntity
  8
1
  6
Continuous
 62
     3
100
AcDbLine
 10
2619.526228161274
 20
1603.969456281779
 30
0.0
 11
2619.526228161274
 21
1633.969456281779
 31
0.0
  0
LINE
  5
14D4
330
A
100
AcDbEntity
  8
1
  6
Continuous
 62
     3
100
AcDbLine
 10
2619.526228161274
 20
1588.969456281779
 30
0.0
 11
2614.349847259224
 21
1569.650939755997
 31
0.0
  0
LINE
  5
14D5
330
A
100
AcDbEntity
  8
1
  6
Continuous
 62
     3
100
AcDbLine
 10
2619.526228161274
 20
1588.969456281779
 30
0.0
 11
2624.702609063323
 21
1569.650939755997
 31
0.0
  0
LINE
  5
14D6
330
A
100
AcDbEntity
  8
1
  6
Continuous
 62
     3
100
AcDbLine
 10
2619.526228161274
 20
1538.969456281779
 30
0.0
 11
2619.526228161274
 21
1588.969456281779
 31
0.0
  0
LINE
  5
14D7
330
A
100
AcDbEntity
  8
1
  6
Continuous
 62
     3
100
AcDbLine
 10
2449.526228161274
 20
1603.969456281779
 30
0.0
 11
2624.526228161274
 21
1603.969456281779
 31
0.0
  0
LINE
  5
14D8
330
A
100
AcDbEntity
  8
1
  6
Continuous
 62
     3
100
AcDbLine
 10
2449.526228161274
 20
1588.969456281779
 30
0.0
 11
2624.526228161274
 21
1588.969456281779
 31
0.0
  0
TEXT
  5
14D9
330
A
100
AcDbEntity
  8
1
 62
     3
100
AcDbText
 10
2614.526219497576
 20
2131.46957641634
 30
0.0
 40
20.0
  1
15
 50
90.0
 41
0.75
 51
15.0
 72
     1
 11
2614.526219497576
 21
2141.469576416341
 31
0.0
100
AcDbText
  0
LINE
  5
14DA
330
A
100
AcDbEntity
  8
1
  6
Continuous
 62
     3
100
AcDbLine
 10
2619.526228161274
 20
2103.969456281779
 30
0.0
 11
2619.526228161274
 21
2118.969456281778
 31
0.0
  0
LINE
  5
14DB
330
A
100
AcDbEntity
  8
1
  6
Continuous
 62
     3
100
AcDbLine
 10
2619.526228161274
 20
2118.969456281778
 30
0.0
 11
2624.702609063323
 21
2138.28797280756
 31
0.0
  0
LINE
  5
14DC
330
A
100
AcDbEntity
  8
1
  6
Continuous
 62
     3
100
AcDbLine
 10
2619.526228161274
 20
2118.969456281778
 30
0.0
 11
2614.349847259224
 21
2138.28797280756
 31
0.0
  0
LINE
  5
14DD
330
A
100
AcDbEntity
  8
1
  6
Continuous
 62
     3
100
AcDbLine
 10
2619.526228161274
 20
2118.969456281778
 30
0.0
 11
2619.526228161274
 21
2163.969456281779
 31
0.0
  0
LINE
  5
14DE
330
A
100
AcDbEntity
  8
1
  6
Continuous
 62
     3
100
AcDbLine
 10
2619.526228161274
 20
2103.969456281779
 30
0.0
 11
2614.349847259224
 21
2084.650939755998
 31
0.0
  0
LINE
  5
14DF
330
A
100
AcDbEntity
  8
1
  6
Continuous
 62
     3
100
AcDbLine
 10
2619.526228161274
 20
2103.969456281779
 30
0.0
 11
2624.702609063323
 21
2084.650939755998
 31
0.0
  0
LINE
  5
14E0
330
A
100
AcDbEntity
  8
1
  6
Continuous
 62
     3
100
AcDbLine
 10
2619.526228161274
 20
2073.969456281778
 30
0.0
 11
2619.526228161274
 21
2103.969456281779
 31
0.0
  0
LINE
  5
14E1
330
A
100
AcDbEntity
  8
1
  6
Continuous
 62
     3
100
AcDbLine
 10
2429.526228161272
 20
2118.969456281778
 30
0.0
 11
2624.526228161274
 21
2118.969456281778
 31
0.0
  0
LINE
  5
14E2
330
A
100
AcDbEntity
  8
1
  6
Continuous
 62
     3
100
AcDbLine
 10
2429.526228161272
 20
2103.969456281779
 30
0.0
 11
2624.526228161274
 21
2103.969456281779
 31
0.0
  0
TEXT
  5
14E3
330
A
100
AcDbEntity
  8
1
 62
     3
100
AcDbText
 10
2614.526219497576
 20
1798.96957641634
 30
0.0
 40
20.0
  1
500+2_-3
 50
90.0
 41
0.75
 51
15.0
 72
     1
 11
2614.526219497576
 21
1853.96957641634
 31
0.0
100
AcDbText
  0
LINE
  5
14E4
330
A
100
AcDbEntity
  8
1
  6
Continuous
 62
     3
100
AcDbLine
 10
2619.526228161274
 20
2103.969456281779
 30
0.0
 11
2614.349847259224
 21
2084.650939755998
 31
0.0
  0
LINE
  5
14E5
330
A
100
AcDbEntity
  8
1
  6
Continuous
 62
     3
100
AcDbLine
 10
2619.526228161274
 20
2103.969456281779
 30
0.0
 11
2624.702609063323
 21
2084.650939755998
 31
0.0
  0
LINE
  5
14E6
330
A
100
AcDbEntity
  8
1
  6
Continuous
 62
     3
100
AcDbLine
 10
2619.526228161274
 20
1603.969456281779
 30
0.0
 11
2624.702609063323
 21
1623.28797280756
 31
0.0
  0
LINE
  5
14E7
330
A
100
AcDbEntity
  8
1
  6
Continuous
 62
     3
100
AcDbLine
 10
2619.526228161274
 20
1603.969456281779
 30
0.0
 11
2614.349847259224
 21
1623.28797280756
 31
0.0
  0
LINE
  5
14E8
330
A
100
AcDbEntity
  8
1
  6
Continuous
 62
     3
100
AcDbLine
 10
2619.526228161274
 20
1603.969456281779
 30
0.0
 11
2619.526228161274
 21
2103.969456281779
 31
0.0
  0
LINE
  5
14E9
330
A
100
AcDbEntity
  8
1
  6
Continuous
 62
     3
100
AcDbLine
 10
2429.526228161272
 20
2103.969456281779
 30
0.0
 11
2624.526228161274
 21
2103.969456281779
 31
0.0
  0
LINE
  5
14EA
330
A
100
AcDbEntity
  8
1
  6
Continuous
 62
     3
100
AcDbLine
 10
2449.526228161274
 20
1603.969456281779
 30
0.0
 11
2624.526228161274
 21
1603.969456281779
 31
0.0
  0
TEXT
  5
14EB
330
A
100
AcDbEntity
  8
1
 62
     3
100
AcDbText
 10
2564.526219497576
 20
1568.96957641634
 30
0.0
 40
20.0
  1
15
 50
90.0
 41
0.75
 51
15.0
 72
     1
 11
2564.526219497576
 21
1578.96957641634
 31
0.0
100
AcDbText
  0
LINE
  5
14EC
330
A
100
AcDbEntity
  8
1
  6
Continuous
 62
     3
100
AcDbLine
 10
2569.526228161274
 20
1603.969456281779
 30
0.0
 11
2569.526228161274
 21
1618.969456281779
 31
0.0
  0
LINE
  5
14ED
330
A
100
AcDbEntity
  8
1
  6
Continuous
 62
     3
100
AcDbLine
 10
2569.526228161274
 20
1618.969456281779
 30
0.0
 11
2574.702609063324
 21
1638.28797280756
 31
0.0
  0
LINE
  5
14EE
330
A
100
AcDbEntity
  8
1
  6
Continuous
 62
     3
100
AcDbLine
 10
2569.526228161274
 20
1618.969456281779
 30
0.0
 11
2564.349847259224
 21
1638.28797280756
 31
0.0
  0
LINE
  5
14EF
330
A
100
AcDbEntity
  8
1
  6
Continuous
 62
     3
100
AcDbLine
 10
2569.526228161274
 20
1618.969456281779
 30
0.0
 11
2569.526228161274
 21
1648.969456281779
 31
0.0
  0
LINE
  5
14F0
330
A
100
AcDbEntity
  8
1
  6
Continuous
 62
     3
100
AcDbLine
 10
2569.526228161274
 20
1603.969456281779
 30
0.0
 11
2564.349847259224
 21
1584.650939755997
 31
0.0
  0
LINE
  5
14F1
330
A
100
AcDbEntity
  8
1
  6
Continuous
 62
     3
100
AcDbLine
 10
2569.526228161274
 20
1603.969456281779
 30
0.0
 11
2574.702609063324
 21
1584.650939755997
 31
0.0
  0
LINE
  5
14F2
330
A
100
AcDbEntity
  8
1
  6
Continuous
 62
     3
100
AcDbLine
 10
2569.526228161274
 20
1553.969456281779
 30
0.0
 11
2569.526228161274
 21
1603.969456281779
 31
0.0
  0
LINE
  5
14F3
330
A
100
AcDbEntity
  8
1
  6
Continuous
 62
     3
100
AcDbLine
 10
2414.526228161274
 20
1618.969456281779
 30
0.0
 11
2574.526228161274
 21
1618.969456281779
 31
0.0
  0
LINE
  5
14F4
330
A
100
AcDbEntity
  8
1
  6
Continuous
 62
     3
100
AcDbLine
 10
2449.526228161274
 20
1603.969456281779
 30
0.0
 11
2574.526228161274
 21
1603.969456281779
 31
0.0
  0
TEXT
  5
14F5
330
A
100
AcDbEntity
  8
1
 62
     3
100
AcDbText
 10
2564.526219497576
 20
2115.21957641634
 30
0.0
 40
20.0
  1
20
 50
90.0
 41
0.75
 51
15.0
 72
     1
 11
2564.526219497576
 21
2126.46957641634
 31
0.0
100
AcDbText
  0
LINE
  5
14F6
330
A
100
AcDbEntity
  8
1
  6
Continuous
 62
     3
100
AcDbLine
 10
2569.526228161274
 20
2083.969456281779
 30
0.0
 11
2569.526228161274
 21
2103.969456281779
 31
0.0
  0
LINE
  5
14F7
330
A
100
AcDbEntity
  8
1
  6
Continuous
 62
     3
100
AcDbLine
 10
2569.526228161274
 20
2103.969456281779
 30
0.0
 11
2574.702609063324
 21
2123.28797280756
 31
0.0
  0
LINE
  5
14F8
330
A
100
AcDbEntity
  8
1
  6
Continuous
 62
     3
100
AcDbLine
 10
2569.526228161274
 20
2103.969456281779
 30
0.0
 11
2564.349847259224
 21
2123.28797280756
 31
0.0
  0
LINE
  5
14F9
330
A
100
AcDbEntity
  8
1
  6
Continuous
 62
     3
100
AcDbLine
 10
2569.526228161274
 20
2103.969456281779
 30
0.0
 11
2569.526228161274
 21
2148.969456281779
 31
0.0
  0
LINE
  5
14FA
330
A
100
AcDbEntity
  8
1
  6
Continuous
 62
     3
100
AcDbLine
 10
2569.526228161274
 20
2083.969456281779
 30
0.0
 11
2564.349847259224
 21
2064.650939755998
 31
0.0
  0
LINE
  5
14FB
330
A
100
AcDbEntity
  8
1
  6
Continuous
 62
     3
100
AcDbLine
 10
2569.526228161274
 20
2083.969456281779
 30
0.0
 11
2574.702609063324
 21
2064.650939755998
 31
0.0
  0
LINE
  5
14FC
330
A
100
AcDbEntity
  8
1
  6
Continuous
 62
     3
100
AcDbLine
 10
2569.526228161274
 20
2053.969456281778
 30
0.0
 11
2569.526228161274
 21
2083.969456281779
 31
0.0
  0
LINE
  5
14FD
330
A
100
AcDbEntity
  8
1
  6
Continuous
 62
     3
100
AcDbLine
 10
2429.526228161272
 20
2103.969456281779
 30
0.0
 11
2574.526228161274
 21
2103.969456281779
 31
0.0
  0
LINE
  5
14FE
330
A
100
AcDbEntity
  8
1
  6
Continuous
 62
     3
100
AcDbLine
 10
2294.526228161274
 20
2083.969456281779
 30
0.0
 11
2574.526228161274
 21
2083.969456281779
 31
0.0
  0
TEXT
  5
14FF
330
A
100
AcDbEntity
  8
1
 62
     3
100
AcDbText
 10
2564.526219497576
 20
1831.46957641634
 30
0.0
 40
20.0
  1
465
 50
90.0
 41
0.75
 51
15.0
 72
     1
 11
2564.526219497576
 21
1851.46957641634
 31
0.0
100
AcDbText
  0
LINE
  5
1500
330
A
100
AcDbEntity
  8
1
  6
Continuous
 62
     3
100
AcDbLine
 10
2569.526228161274
 20
2083.969456281779
 30
0.0
 11
2564.349847259224
 21
2064.650939755998
 31
0.0
  0
LINE
  5
1501
330
A
100
AcDbEntity
  8
1
  6
Continuous
 62
     3
100
AcDbLine
 10
2569.526228161274
 20
2083.969456281779
 30
0.0
 11
2574.702609063324
 21
2064.650939755998
 31
0.0
  0
LINE
  5
1502
330
A
100
AcDbEntity
  8
1
  6
Continuous
 62
     3
100
AcDbLine
 10
2569.526228161274
 20
1618.969456281779
 30
0.0
 11
2574.702609063324
 21
1638.28797280756
 31
0.0
  0
LINE
  5
1503
330
A
100
AcDbEntity
  8
1
  6
Continuous
 62
     3
100
AcDbLine
 10
2569.526228161274
 20
1618.969456281779
 30
0.0
 11
2564.349847259224
 21
1638.28797280756
 31
0.0
  0
LINE
  5
1504
330
A
100
AcDbEntity
  8
1
  6
Continuous
 62
     3
100
AcDbLine
 10
2569.526228161274
 20
1618.969456281779
 30
0.0
 11
2569.526228161274
 21
2083.969456281779
 31
0.0
  0
LINE
  5
1505
330
A
100
AcDbEntity
  8
1
  6
Continuous
 62
     3
100
AcDbLine
 10
2294.526228161274
 20
2083.969456281779
 30
0.0
 11
2574.526228161274
 21
2083.969456281779
 31
0.0
  0
LINE
  5
1506
330
A
100
AcDbEntity
  8
1
  6
Continuous
 62
     3
100
AcDbLine
 10
2414.526228161274
 20
1618.969456281779
 30
0.0
 11
2574.526228161274
 21
1618.969456281779
 31
0.0
  0
TEXT
  5
1507
330
A
100
AcDbEntity
  8
1
 62
     3
100
AcDbText
 10
2172.526280532732
 20
1443.96957641634
 30
0.0
 40
20.0
  1
654
 41
0.75
 51
15.0
 72
     1
 11
2192.526280532732
 21
1443.96957641634
 31
0.0
100
AcDbText
  0
LINE
  5
1508
330
A
100
AcDbEntity
  8
1
  6
Continuous
 62
     3
100
AcDbLine
 10
2519.526228161274
 20
1438.969456281778
 30
0.0
 11
2500.207711635492
 21
1444.145837183828
 31
0.0
  0
LINE
  5
1509
330
A
100
AcDbEntity
  8
1
  6
Continuous
 62
     3
100
AcDbLine
 10
2519.526228161274
 20
1438.969456281778
 30
0.0
 11
2500.207711635492
 21
1433.793075379728
 31
0.0
  0
LINE
  5
150A
330
A
100
AcDbEntity
  8
1
  6
Continuous
 62
     3
100
AcDbLine
 10
1865.526228161274
 20
1438.969456281778
 30
0.0
 11
1884.844744687055
 21
1433.793075379728
 31
0.0
  0
LINE
  5
150B
330
A
100
AcDbEntity
  8
1
  6
Continuous
 62
     3
100
AcDbLine
 10
1865.526228161274
 20
1438.969456281778
 30
0.0
 11
1884.844744687055
 21
1444.145837183828
 31
0.0
  0
LINE
  5
150C
330
A
100
AcDbEntity
  8
1
  6
Continuous
 62
     3
100
AcDbLine
 10
1865.526228161274
 20
1438.969456281778
 30
0.0
 11
2519.526228161274
 21
1438.969456281778
 31
0.0
  0
LINE
  5
150D
330
A
100
AcDbEntity
  8
1
  6
Continuous
 62
     3
100
AcDbLine
 10
2519.526228161274
 20
1658.969456281778
 30
0.0
 11
2519.526228161274
 21
1433.969456281779
 31
0.0
  0
LINE
  5
150E
330
A
100
AcDbEntity
  8
1
  6
Continuous
 62
     3
100
AcDbLine
 10
1865.526228161274
 20
1658.969456281778
 30
0.0
 11
1865.526228161274
 21
1433.969456281779
 31
0.0
  0
TEXT
  5
150F
330
A
100
AcDbEntity
  8
1
 62
     3
100
AcDbText
 10
1830.526188979997
 20
1493.96957641634
 30
0.0
 40
20.0
  1
15
 41
0.75
 51
15.0
 72
     1
 11
1840.526188979998
 21
1493.96957641634
 31
0.0
100
AcDbText
  0
LINE
  5
1510
330
A
100
AcDbEntity
  8
1
  6
Continuous
 62
     3
100
AcDbLine
 10
1865.526228161274
 20
1488.969456281779
 30
0.0
 11
1880.526228161274
 21
1488.969456281779
 31
0.0
  0
LINE
  5
1511
330
A
100
AcDbEntity
  8
1
  6
Continuous
 62
     3
100
AcDbLine
 10
1880.526228161274
 20
1488.969456281779
 30
0.0
 11
1899.844744687055
 21
1483.793075379728
 31
0.0
  0
LINE
  5
1512
330
A
100
AcDbEntity
  8
1
  6
Continuous
 62
     3
100
AcDbLine
 10
1880.526228161274
 20
1488.969456281779
 30
0.0
 11
1899.844744687055
 21
1494.145837183828
 31
0.0
  0
LINE
  5
1513
330
A
100
AcDbEntity
  8
1
  6
Continuous
 62
     3
100
AcDbLine
 10
1880.526228161274
 20
1488.969456281779
 30
0.0
 11
1910.526228161274
 21
1488.969456281779
 31
0.0
  0
LINE
  5
1514
330
A
100
AcDbEntity
  8
1
  6
Continuous
 62
     3
100
AcDbLine
 10
1865.526228161274
 20
1488.969456281779
 30
0.0
 11
1846.207711635492
 21
1494.145837183828
 31
0.0
  0
LINE
  5
1515
330
A
100
AcDbEntity
  8
1
  6
Continuous
 62
     3
100
AcDbLine
 10
1865.526228161274
 20
1488.969456281779
 30
0.0
 11
1846.207711635492
 21
1483.793075379728
 31
0.0
  0
LINE
  5
1516
330
A
100
AcDbEntity
  8
1
  6
Continuous
 62
     3
100
AcDbLine
 10
1815.526228161274
 20
1488.969456281779
 30
0.0
 11
1865.526228161274
 21
1488.969456281779
 31
0.0
  0
LINE
  5
1517
330
A
100
AcDbEntity
  8
1
  6
Continuous
 62
     3
100
AcDbLine
 10
1880.526228161274
 20
1658.969456281778
 30
0.0
 11
1880.526228161274
 21
1483.969456281779
 31
0.0
  0
LINE
  5
1518
330
A
100
AcDbEntity
  8
1
  6
Continuous
 62
     3
100
AcDbLine
 10
1865.526228161274
 20
1658.969456281778
 30
0.0
 11
1865.526228161274
 21
1483.969456281779
 31
0.0
  0
TEXT
  5
1519
330
A
100
AcDbEntity
  8
1
 62
     3
100
AcDbText
 10
2532.026158462421
 20
1493.96957641634
 30
0.0
 40
20.0
  1
15
 41
0.75
 51
15.0
 72
     1
 11
2542.02615846242
 21
1493.96957641634
 31
0.0
100
AcDbText
  0
LINE
  5
151A
330
A
100
AcDbEntity
  8
1
  6
Continuous
 62
     3
100
AcDbLine
 10
2504.526228161274
 20
1488.969456281779
 30
0.0
 11
2519.526228161274
 21
1488.969456281779
 31
0.0
  0
LINE
  5
151B
330
A
100
AcDbEntity
  8
1
  6
Continuous
 62
     3
100
AcDbLine
 10
2519.526228161274
 20
1488.969456281779
 30
0.0
 11
2538.844744687055
 21
1483.793075379728
 31
0.0
  0
LINE
  5
151C
330
A
100
AcDbEntity
  8
1
  6
Continuous
 62
     3
100
AcDbLine
 10
2519.526228161274
 20
1488.969456281779
 30
0.0
 11
2538.844744687055
 21
1494.145837183828
 31
0.0
  0
LINE
  5
151D
330
A
100
AcDbEntity
  8
1
  6
Continuous
 62
     3
100
AcDbLine
 10
2519.526228161274
 20
1488.969456281779
 30
0.0
 11
2564.526228161274
 21
1488.969456281779
 31
0.0
  0
LINE
  5
151E
330
A
100
AcDbEntity
  8
1
  6
Continuous
 62
     3
100
AcDbLine
 10
2504.526228161274
 20
1488.969456281779
 30
0.0
 11
2485.207711635493
 21
1494.145837183828
 31
0.0
  0
LINE
  5
151F
330
A
100
AcDbEntity
  8
1
  6
Continuous
 62
     3
100
AcDbLine
 10
2504.526228161274
 20
1488.969456281779
 30
0.0
 11
2485.207711635493
 21
1483.793075379728
 31
0.0
  0
LINE
  5
1520
330
A
100
AcDbEntity
  8
1
  6
Continuous
 62
     3
100
AcDbLine
 10
2474.526228161274
 20
1488.969456281779
 30
0.0
 11
2504.526228161274
 21
1488.969456281779
 31
0.0
  0
LINE
  5
1521
330
A
100
AcDbEntity
  8
1
  6
Continuous
 62
     3
100
AcDbLine
 10
2519.526228161274
 20
1658.969456281778
 30
0.0
 11
2519.526228161274
 21
1483.969456281779
 31
0.0
  0
LINE
  5
1522
330
A
100
AcDbEntity
  8
1
  6
Continuous
 62
     3
100
AcDbLine
 10
2504.526228161274
 20
1658.969456281778
 30
0.0
 11
2504.526228161274
 21
1483.969456281779
 31
0.0
  0
TEXT
  5
1523
330
A
100
AcDbEntity
  8
1
 62
     3
100
AcDbText
 10
2135.026280532732
 20
1493.96957641634
 30
0.0
 40
20.0
  1
624+4_-2
 41
0.75
 51
15.0
 72
     1
 11
2192.526280532732
 21
1493.96957641634
 31
0.0
100
AcDbText
  0
LINE
  5
1524
330
A
100
AcDbEntity
  8
1
  6
Continuous
 62
     3
100
AcDbLine
 10
2504.526228161274
 20
1488.969456281779
 30
0.0
 11
2485.207711635493
 21
1494.145837183828
 31
0.0
  0
LINE
  5
1525
330
A
100
AcDbEntity
  8
1
  6
Continuous
 62
     3
100
AcDbLine
 10
2504.526228161274
 20
1488.969456281779
 30
0.0
 11
2485.207711635493
 21
1483.793075379728
 31
0.0
  0
LINE
  5
1526
330
A
100
AcDbEntity
  8
1
  6
Continuous
 62
     3
100
AcDbLine
 10
1880.526228161274
 20
1488.969456281779
 30
0.0
 11
1899.844744687055
 21
1483.793075379728
 31
0.0
  0
LINE
  5
1527
330
A
100
AcDbEntity
  8
1
  6
Continuous
 62
     3
100
AcDbLine
 10
1880.526228161274
 20
1488.969456281779
 30
0.0
 11
1899.844744687055
 21
1494.145837183828
 31
0.0
  0
LINE
  5
1528
330
A
100
AcDbEntity
  8
1
  6
Continuous
 62
     3
100
AcDbLine
 10
1880.526228161274
 20
1488.969456281779
 30
0.0
 11
2504.526228161274
 21
1488.969456281779
 31
0.0
  0
LINE
  5
1529
330
A
100
AcDbEntity
  8
1
  6
Continuous
 62
     3
100
AcDbLine
 10
2504.526228161274
 20
1658.969456281778
 30
0.0
 11
2504.526228161274
 21
1483.969456281779
 31
0.0
  0
LINE
  5
152A
330
A
100
AcDbEntity
  8
1
  6
Continuous
 62
     3
100
AcDbLine
 10
1880.526228161274
 20
1658.969456281778
 30
0.0
 11
1880.526228161274
 21
1483.969456281779
 31
0.0
  0
TEXT
  5
152B
330
A
100
AcDbEntity
  8
1
 62
     3
100
AcDbText
 10
1845.526219497576
 20
1543.96957641634
 30
0.0
 40
20.0
  1
15
 41
0.75
 51
15.0
 72
     1
 11
1855.526219497576
 21
1543.96957641634
 31
0.0
100
AcDbText
  0
LINE
  5
152C
330
A
100
AcDbEntity
  8
1
  6
Continuous
 62
     3
100
AcDbLine
 10
1880.526228161274
 20
1538.969456281779
 30
0.0
 11
1895.526228161274
 21
1538.969456281779
 31
0.0
  0
LINE
  5
152D
330
A
100
AcDbEntity
  8
1
  6
Continuous
 62
     3
100
AcDbLine
 10
1895.526228161274
 20
1538.969456281779
 30
0.0
 11
1914.844744687055
 21
1533.793075379728
 31
0.0
  0
LINE
  5
152E
330
A
100
AcDbEntity
  8
1
  6
Continuous
 62
     3
100
AcDbLine
 10
1895.526228161274
 20
1538.969456281779
 30
0.0
 11
1914.844744687055
 21
1544.145837183829
 31
0.0
  0
LINE
  5
152F
330
A
100
AcDbEntity
  8
1
  6
Continuous
 62
     3
100
AcDbLine
 10
1895.526228161274
 20
1538.969456281779
 30
0.0
 11
1925.526228161274
 21
1538.969456281779
 31
0.0
  0
LINE
  5
1530
330
A
100
AcDbEntity
  8
1
  6
Continuous
 62
     3
100
AcDbLine
 10
1880.526228161274
 20
1538.969456281779
 30
0.0
 11
1861.207711635492
 21
1544.145837183829
 31
0.0
  0
LINE
  5
1531
330
A
100
AcDbEntity
  8
1
  6
Continuous
 62
     3
100
AcDbLine
 10
1880.526228161274
 20
1538.969456281779
 30
0.0
 11
1861.207711635492
 21
1533.793075379728
 31
0.0
  0
LINE
  5
1532
330
A
100
AcDbEntity
  8
1
  6
Continuous
 62
     3
100
AcDbLine
 10
1830.526228161274
 20
1538.969456281779
 30
0.0
 11
1880.526228161274
 21
1538.969456281779
 31
0.0
  0
LINE
  5
1533
330
A
100
AcDbEntity
  8
1
  6
Continuous
 62
     3
100
AcDbLine
 10
1895.526228161274
 20
1693.969456281779
 30
0.0
 11
1895.526228161274
 21
1533.969456281779
 31
0.0
  0
LINE
  5
1534
330
A
100
AcDbEntity
  8
1
  6
Continuous
 62
     3
100
AcDbLine
 10
1880.526228161274
 20
1658.969456281778
 30
0.0
 11
1880.526228161274
 21
1533.969456281779
 31
0.0
  0
TEXT
  5
1535
330
A
100
AcDbEntity
  8
1
 62
     3
100
AcDbText
 10
2517.02615846242
 20
1543.96957641634
 30
0.0
 40
20.0
  1
15
 41
0.75
 51
15.0
 72
     1
 11
2527.026158462421
 21
1543.96957641634
 31
0.0
100
AcDbText
  0
LINE
  5
1536
330
A
100
AcDbEntity
  8
1
  6
Continuous
 62
     3
100
AcDbLine
 10
2489.526228161274
 20
1538.969456281779
 30
0.0
 11
2504.526228161274
 21
1538.969456281779
 31
0.0
  0
LINE
  5
1537
330
A
100
AcDbEntity
  8
1
  6
Continuous
 62
     3
100
AcDbLine
 10
2504.526228161274
 20
1538.969456281779
 30
0.0
 11
2523.844744687055
 21
1533.793075379728
 31
0.0
  0
LINE
  5
1538
330
A
100
AcDbEntity
  8
1
  6
Continuous
 62
     3
100
AcDbLine
 10
2504.526228161274
 20
1538.969456281779
 30
0.0
 11
2523.844744687055
 21
1544.145837183829
 31
0.0
  0
LINE
  5
1539
330
A
100
AcDbEntity
  8
1
  6
Continuous
 62
     3
100
AcDbLine
 10
2504.526228161274
 20
1538.969456281779
 30
0.0
 11
2549.526228161274
 21
1538.969456281779
 31
0.0
  0
LINE
  5
153A
330
A
100
AcDbEntity
  8
1
  6
Continuous
 62
     3
100
AcDbLine
 10
2489.526228161274
 20
1538.969456281779
 30
0.0
 11
2470.207711635492
 21
1544.145837183829
 31
0.0
  0
LINE
  5
153B
330
A
100
AcDbEntity
  8
1
  6
Continuous
 62
     3
100
AcDbLine
 10
2489.526228161274
 20
1538.969456281779
 30
0.0
 11
2470.207711635492
 21
1533.793075379728
 31
0.0
  0
LINE
  5
153C
330
A
100
AcDbEntity
  8
1
  6
Continuous
 62
     3
100
AcDbLine
 10
2459.526228161274
 20
1538.969456281779
 30
0.0
 11
2489.526228161274
 21
1538.969456281779
 31
0.0
  0
LINE
  5
153D
330
A
100
AcDbEntity
  8
1
  6
Continuous
 62
     3
100
AcDbLine
 10
2504.526228161274
 20
1658.969456281778
 30
0.0
 11
2504.526228161274
 21
1533.969456281779
 31
0.0
  0
LINE
  5
153E
330
A
100
AcDbEntity
  8
1
  6
Continuous
 62
     3
100
AcDbLine
 10
2489.526228161274
 20
1693.969456281779
 30
0.0
 11
2489.526228161274
 21
1533.969456281779
 31
0.0
  0
TEXT
  5
153F
330
A
100
AcDbEntity
  8
1
 62
     3
100
AcDbText
 10
2135.026280532732
 20
1543.96957641634
 30
0.0
 40
20.0
  1
594+4_-2
 41
0.75
 51
15.0
 72
     1
 11
2192.526280532732
 21
1543.96957641634
 31
0.0
100
AcDbText
  0
LINE
  5
1540
330
A
100
AcDbEntity
  8
1
  6
Continuous
 62
     3
100
AcDbLine
 10
2489.526228161274
 20
1538.969456281779
 30
0.0
 11
2470.207711635492
 21
1544.145837183829
 31
0.0
  0
LINE
  5
1541
330
A
100
AcDbEntity
  8
1
  6
Continuous
 62
     3
100
AcDbLine
 10
2489.526228161274
 20
1538.969456281779
 30
0.0
 11
2470.207711635492
 21
1533.793075379728
 31
0.0
  0
LINE
  5
1542
330
A
100
AcDbEntity
  8
1
  6
Continuous
 62
     3
100
AcDbLine
 10
1895.526228161274
 20
1538.969456281779
 30
0.0
 11
1914.844744687055
 21
1533.793075379728
 31
0.0
  0
LINE
  5
1543
330
A
100
AcDbEntity
  8
1
  6
Continuous
 62
     3
100
AcDbLine
 10
1895.526228161274
 20
1538.969456281779
 30
0.0
 11
1914.844744687055
 21
1544.145837183829
 31
0.0
  0
LINE
  5
1544
330
A
100
AcDbEntity
  8
1
  6
Continuous
 62
     3
100
AcDbLine
 10
1895.526228161274
 20
1538.969456281779
 30
0.0
 11
2489.526228161274
 21
1538.969456281779
 31
0.0
  0
LINE
  5
1545
330
A
100
AcDbEntity
  8
1
  6
Continuous
 62
     3
100
AcDbLine
 10
2489.526228161274
 20
1693.969456281779
 30
0.0
 11
2489.526228161274
 21
1533.969456281779
 31
0.0
  0
LINE
  5
1546
330
A
100
AcDbEntity
  8
1
  6
Continuous
 62
     3
100
AcDbLine
 10
1895.526228161274
 20
1693.969456281779
 30
0.0
 11
1895.526228161274
 21
1533.969456281779
 31
0.0
  0
ARC
  5
1547
330
A
100
AcDbEntity
  8
1
  6
Continuous
 62
     2
100
AcDbCircle
 10
2444.526228161274
 20
1663.969456281779
 30
0.0
 40
75.0
100
AcDbArc
 50
270.0
 51
0.0
  0
LINE
  5
1548
330
A
100
AcDbEntity
  8
1
  6
Continuous
 62
     2
100
AcDbLine
 10
1940.526228161274
 20
1588.969456281779
 30
0.0
 11
2444.526228161274
 21
1588.969456281779
 31
0.0
  0
ARC
  5
1549
330
A
100
AcDbEntity
  8
1
  6
Continuous
 62
     2
100
AcDbCircle
 10
1940.526228161274
 20
1663.969456281779
 30
0.0
 40
75.0
100
AcDbArc
 50
180.0
 51
270.0
  0
LINE
  5
154A
330
A
100
AcDbEntity
  8
1
  6
Continuous
 62
     2
100
AcDbLine
 10
1865.526228161274
 20
2023.969456281779
 30
0.0
 11
1865.526228161274
 21
1663.969456281779
 31
0.0
  0
ARC
  5
154B
330
A
100
AcDbEntity
  8
1
  6
Continuous
 62
     2
100
AcDbCircle
 10
1960.526228161274
 20
2023.969456281779
 30
0.0
 40
95.0
100
AcDbArc
 50
90.0
 51
180.0
  0
LINE
  5
154C
330
A
100
AcDbEntity
  8
1
  6
Continuous
 62
     2
100
AcDbLine
 10
2424.526228161273
 20
2118.969456281778
 30
0.0
 11
1960.526228161274
 21
2118.969456281778
 31
0.0
  0
ARC
  5
154D
330
A
100
AcDbEntity
  8
1
  6
Continuous
 62
     2
100
AcDbCircle
 10
2424.526228161273
 20
2023.969456281779
 30
0.0
 40
95.0
100
AcDbArc
 50
0.0
 51
90.0
  0
LINE
  5
154E
330
A
100
AcDbEntity
  8
1
  6
Continuous
 62
     2
100
AcDbLine
 10
2519.526228161274
 20
1663.969456281779
 30
0.0
 11
2519.526228161274
 21
2023.969456281779
 31
0.0
  0
CIRCLE
  5
154F
330
A
100
AcDbEntity
  8
1
  6
Continuous
 62
     4
100
AcDbCircle
 10
2345.526228161274
 20
2083.969456281779
 30
0.0
 40
6.0
  0
CIRCLE
  5
1550
330
A
100
AcDbEntity
  8
1
  6
Continuous
 62
     4
100
AcDbCircle
 10
2039.526228161274
 20
2083.969456281779
 30
0.0
 40
6.0
  0
LINE
  5
1551
330
A
100
AcDbEntity
  8
1
  6
DOT
 62
     5
100
AcDbLine
 10
1997.752343978935
 20
2057.053436475708
 30
0.0
 11
2015.526228161274
 21
2074.827320658048
 31
0.0
  0
LINE
  5
1552
330
A
100
AcDbEntity
  8
1
  6
DOT
 62
     5
100
AcDbLine
 10
1992.900596832038
 20
2066.343824952543
 30
0.0
 11
2015.526228161274
 21
2088.969456281779
 31
0.0
  0
LINE
  5
1553
330
A
100
AcDbEntity
  8
1
  6
DOT
 62
     5
100
AcDbLine
 10
1983.610208355203
 20
2071.195572099439
 30
0.0
 11
2001.384092537543
 21
2088.969456281779
 31
0.0
  0
LINE
  5
1554
330
A
100
AcDbEntity
  8
1
  6
DOT
 62
     5
100
AcDbLine
 10
1987.952635032467
 20
2018.969456281778
 30
0.0
 11
2015.526228161274
 21
2046.543049410586
 31
0.0
  0
LINE
  5
1555
330
A
100
AcDbEntity
  8
1
  6
DOT
 62
     5
100
AcDbLine
 10
1973.810499408735
 20
2018.969456281778
 30
0.0
 11
2015.526228161274
 21
2060.685185034317
 31
0.0
  0
LINE
  5
1556
330
A
100
AcDbEntity
  8
1
  6
DOT
 62
     5
100
AcDbLine
 10
1959.668363785005
 20
2018.969456281778
 30
0.0
 11
1977.442247967344
 21
2036.743340464118
 31
0.0
  0
LINE
  5
1557
330
A
100
AcDbEntity
  8
1
  6
DOT
 62
     5
100
AcDbLine
 10
1945.526228161274
 20
2075.537998776703
 30
0.0
 11
1958.95768566635
 21
2088.969456281779
 31
0.0
  0
LINE
  5
1558
330
A
100
AcDbEntity
  8
1
  6
DOT
 62
     5
100
AcDbLine
 10
1945.526228161274
 20
2061.395863152971
 30
0.0
 11
1973.099821290081
 21
2088.969456281779
 31
0.0
  0
LINE
  5
1559
330
A
100
AcDbEntity
  8
1
  6
DOT
 62
     5
100
AcDbLine
 10
1945.526228161274
 20
2047.253727529241
 30
0.0
 11
1987.241956913811
 21
2088.969456281779
 31
0.0
  0
LINE
  5
155A
330
A
100
AcDbEntity
  8
1
  6
DOT
 62
     5
100
AcDbLine
 10
1945.526228161274
 20
2033.111591905509
 30
0.0
 11
1963.300112343612
 21
2050.88547608785
 31
0.0
  0
LINE
  5
155B
330
A
100
AcDbEntity
  8
1
  6
DOT
 62
     5
100
AcDbLine
 10
1945.526228161274
 20
2018.969456281778
 30
0.0
 11
1968.151859490508
 21
2041.595087611014
 31
0.0
  0
LINE
  5
155C
330
A
100
AcDbEntity
  8
1
  6
DOT
 62
     4
100
AcDbLine
 10
1990.526228161274
 20
2018.969456281778
 30
0.0
 11
2015.526228161274
 21
2043.969456281779
 31
0.0
  0
LINE
  5
155D
330
A
100
AcDbEntity
  8
1
  6
DOT
 62
     4
100
AcDbLine
 10
1990.526228161274
 20
2018.969456281778
 30
0.0
 11
1945.526228161274
 21
2018.969456281778
 31
0.0
  0
LINE
  5
155E
330
A
100
AcDbEntity
  8
1
  6
DOT
 62
     4
100
AcDbLine
 10
1945.526228161274
 20
2018.969456281778
 30
0.0
 11
1945.526228161274
 21
2088.969456281779
 31
0.0
  0
LINE
  5
155F
330
A
100
AcDbEntity
  8
1
  6
DOT
 62
     4
100
AcDbLine
 10
1945.526228161274
 20
2088.969456281779
 30
0.0
 11
2015.526228161274
 21
2088.969456281779
 31
0.0
  0
LINE
  5
1560
330
A
100
AcDbEntity
  8
1
  6
DOT
 62
     4
100
AcDbLine
 10
2015.526228161274
 20
2088.969456281779
 30
0.0
 11
2015.526228161274
 21
2043.969456281779
 31
0.0
  0
CIRCLE
  5
1561
330
A
100
AcDbEntity
  8
1
  6
Continuous
 62
     2
100
AcDbCircle
 10
2192.526228161274
 20
1962.969456281778
 30
0.0
 40
79.75
  0
CIRCLE
  5
1562
330
A
100
AcDbEntity
  8
1
  6
Continuous
 62
     2
100
AcDbCircle
 10
2192.526228161274
 20
1962.969456281778
 30
0.0
 40
90.5
  0
ARC
  5
1563
330
A
100
AcDbEntity
  8
1
  6
Continuous
 62
     2
100
AcDbCircle
 10
2289.526228161274
 20
2018.969456281778
 30
0.0
 40
65.0
100
AcDbArc
 50
22.61986494804043
 51
90.0
  0
ARC
  5
1564
330
A
100
AcDbEntity
  8
1
  6
Continuous
 62
     2
100
AcDbCircle
 10
2409.526228161274
 20
2068.969456281779
 30
0.0
 40
65.0
100
AcDbArc
 50
202.6198649480404
 51
270.0
  0
CIRCLE
  5
1565
330
A
100
AcDbEntity
  8
1
  6
DASHED
 62
     2
100
AcDbCircle
 10
1980.526228161274
 20
2053.969456281778
 30
0.0
 40
17.5
  0
ARC
  5
1566
330
A
100
AcDbEntity
  8
1
  6
Continuous
 62
     2
100
AcDbCircle
 10
2095.526228161272
 20
2018.969456281778
 30
0.0
 40
65.0
100
AcDbArc
 50
90.0
 51
157.3801350519596
  0
ARC
  5
1567
330
A
100
AcDbEntity
  8
1
  6
Continuous
 62
     2
100
AcDbCircle
 10
1975.526228161272
 20
2068.969456281779
 30
0.0
 40
65.0
100
AcDbArc
 50
270.0
 51
337.3801350519595
  0
ARC
  5
1568
330
A
100
AcDbEntity
  8
1
  6
Continuous
 62
     2
100
AcDbCircle
 10
1940.526228161274
 20
1663.969456281779
 30
0.0
 40
60.0
100
AcDbArc
 50
180.0
 51
270.0
  0
ARC
  5
1569
330
A
100
AcDbEntity
  8
1
  6
Continuous
 62
     2
100
AcDbCircle
 10
2444.526228161274
 20
1663.969456281779
 30
0.0
 40
60.0
100
AcDbArc
 50
270.0
 51
0.0
  0
ARC
  5
156A
330
A
100
AcDbEntity
  8
1
  6
Continuous
 62
     2
100
AcDbCircle
 10
2424.526228161273
 20
2023.969456281779
 30
0.0
 40
80.0
100
AcDbArc
 50
0.0
 51
90.0
  0
ARC
  5
156B
330
A
100
AcDbEntity
  8
1
  6
Continuous
 62
     2
100
AcDbCircle
 10
1960.526228161274
 20
2023.969456281779
 30
0.0
 40
80.0
100
AcDbArc
 50
90.0
 51
180.0
  0
LINE
  5
156C
330
A
100
AcDbEntity
  8
1
  6
Continuous
 62
     2
100
AcDbLine
 10
2095.526228161274
 20
2083.969456281779
 30
0.0
 11
2289.526228161274
 21
2083.969456281779
 31
0.0
  0
LINE
  5
156D
330
A
100
AcDbEntity
  8
1
  6
Continuous
 62
     2
100
AcDbLine
 10
2429.526228161274
 20
1618.969456281779
 30
0.0
 11
1955.526228161274
 21
1618.969456281779
 31
0.0
  0
LINE
  5
156E
330
A
100
AcDbEntity
  8
1
  6
Continuous
 62
     2
100
AcDbLine
 10
1895.526228161274
 20
1943.969456281778
 30
0.0
 11
1895.526228161274
 21
1678.969456281779
 31
0.0
  0
LINE
  5
156F
330
A
100
AcDbEntity
  8
1
  6
Continuous
 62
     2
100
AcDbLine
 10
2489.526228161274
 20
1943.969456281778
 30
0.0
 11
2489.526228161274
 21
1678.969456281779
 31
0.0
  0
LINE
  5
1570
330
A
100
AcDbEntity
  8
1
  6
Continuous
 62
     2
100
AcDbLine
 10
2504.526228161274
 20
1663.969456281779
 30
0.0
 11
2504.526228161274
 21
2023.969456281779
 31
0.0
  0
LINE
  5
1571
330
A
100
AcDbEntity
  8
1
  6
Continuous
 62
     2
100
AcDbLine
 10
1960.526228161274
 20
2103.969456281779
 30
0.0
 11
2424.526228161273
 21
2103.969456281779
 31
0.0
  0
LINE
  5
1572
330
A
100
AcDbEntity
  8
1
  6
Continuous
 62
     2
100
AcDbLine
 10
1880.526228161274
 20
1663.969456281779
 30
0.0
 11
1880.526228161274
 21
2023.969456281779
 31
0.0
  0
LINE
  5
1573
330
A
100
AcDbEntity
  8
1
  6
Continuous
 62
     2
100
AcDbLine
 10
2444.526228161274
 20
1603.969456281779
 30
0.0
 11
1940.526228161274
 21
1603.969456281779
 31
0.0
  0
ENDSEC
  0
SECTION
  2
OBJECTS
  0
DICTIONARY
  5
19
330
0
100
AcDbDictionary
281
     1
  3
ACAD_COLOR
350
337
  3
ACAD_GROUP
350
1A
  3
ACAD_LAYOUT
350
1E
  3
ACAD_MATERIAL
350
336
  3
ACAD_MLINESTYLE
350
1B
  3
ACAD_PLOTSETTINGS
350
22
  3
ACAD_PLOTSTYLENAME
350
1F
  3
ACAD_WIPEOUT_VARS
350
23
  3
ACDBHEADERROUNDTRIPXREC
350
1577
  3
AcDbVariableDictionary
350
33D
  3
DWGPROPS
350
1576
  0
DICTIONARY
  5
157E
330
477
100
AcDbDictionary
280
     1
281
     1
  3
ACAD_MTEXT_RT
360
157F
  0
DICTIONARY
  5
337
102
{ACAD_REACTORS
330
19
102
}
330
19
100
AcDbDictionary
281
     1
  0
DICTIONARY
  5
1A
102
{ACAD_REACTORS
330
19
102
}
330
19
100
AcDbDictionary
281
     1
  0
DICTIONARY
  5
1E
102
{ACAD_REACTORS
330
19
102
}
330
19
100
AcDbDictionary
281
     1
  3
Layout1
350
21
  3
Model
350
20
  0
DICTIONARY
  5
336
102
{ACAD_REACTORS
330
19
102
}
330
19
100
AcDbDictionary
281
     1
  0
DICTIONARY
  5
1B
102
{ACAD_REACTORS
330
19
102
}
330
19
100
AcDbDictionary
281
     1
  3
Standard
350
1C
  0
DICTIONARY
  5
22
102
{ACAD_REACTORS
330
19
102
}
330
19
100
AcDbDictionary
281
     1
  0
ACDBDICTIONARYWDFLT
  5
1F
102
{ACAD_REACTORS
330
19
102
}
330
19
100
AcDbDictionary
281
     1
  3
Normal
350
1D
100
AcDbDictionaryWithDefault
340
1D
  0
WIPEOUTVARIABLES
  5
23
330
19
100
AcDbWipeoutVariables
 70
     1
  0
DICTIONARY
  5
1577
102
{ACAD_REACTORS
330
19
102
}
330
19
100
AcDbDictionary
281
     1
  3
COLORDICT
350
1579
  3
MATERIALDICT
350
1578
  0
DICTIONARY
  5
33D
102
{ACAD_REACTORS
330
19
102
}
330
19
100
AcDbDictionary
281
     1
  3
DIMASSOC
350
33E
  3
PROJECTNAME
350
33F
  0
XRECORD
  5
1576
102
{ACAD_REACTORS
330
19
102
}
330
19
100
AcDbXrecord
280
     1
  1
DWGPROPS COOKIE
  2

  3

  4

  6

  7

  8
山崎　広絵
  9

300
=
301
=
302
=
303
=
304
=
305
=
306
=
307
=
308
=
309
=
 40
0.096608425925926
 41
2453837.489419664
 42
2454456.628061516
  1

 90
        0
  0
XRECORD
  5
157F
102
{ACAD_REACTORS
330
157E
102
}
330
157E
100
AcDbXrecord
280
     1
 40
239804.0
  1
\pl25;{\fArial|b0|i0|c0|p32;\H1.8x;e\H0.7778x;-KITCHEN \H0.3428x;U-ARCHITECTURE WORKS}
  0
LAYOUT
  5
21
102
{ACAD_XDICTIONARY
360
157C
102
}
102
{ACAD_REACTORS
330
1E
102
}
330
1E
100
AcDbPlotSettings
  1

  2

  4

  6

 40
0.0
 41
0.0
 42
0.0
 43
0.0
 44
0.0
 45
0.0
 46
0.0
 47
0.0
 48
0.0
 49
0.0
140
0.0
141
0.0
142
1.0
143
1.0
 70
     0
 72
     0
 73
     0
 74
     0
  7

 75
     0
147
1.0
148
0.0
149
0.0
100
AcDbLayout
  1
Layout1
 70
     0
 71
     1
 10
0.0
 20
0.0
 11
12.0
 21
9.0
 12
0.0
 22
0.0
 32
0.0
 14
1.000000000000000E+20
 24
1.000000000000000E+20
 34
1.000000000000000E+20
 15
-1.000000000000000E+20
 25
-1.000000000000000E+20
 35
-1.000000000000000E+20
146
0.0
 13
0.0
 23
0.0
 33
0.0
 16
1.0
 26
0.0
 36
0.0
 17
0.0
 27
1.0
 37
0.0
 76
     0
330
B
  0
LAYOUT
  5
20
102
{ACAD_XDICTIONARY
360
157A
102
}
102
{ACAD_REACTORS
330
1E
102
}
330
1E
100
AcDbPlotSettings
  1

  2
RICOH IPSiO CX3000 RPCS
  4
A4
  6

 40
5.873749732971191
 41
5.873747825622557
 42
5.873748779296875
 43
5.873748779296875
 44
209.9733276367186
 45
296.9259948730469
 46
3.1
 47
3.569999999999998
 48
0.0
 49
0.0
140
0.0
141
0.0
142
1.0
143
10.0
 70
 11284
 72
     1
 73
     1
 74
     1
  7

 75
    20
147
0.1
148
-1278.927744258753
149
-521.5681068493312
100
AcDbLayout
  1
Model
 70
     0
 71
     0
 10
0.0
 20
0.0
 11
0.0
 21
0.0
 12
0.0
 22
0.0
 32
0.0
 14
0.0
 24
0.0
 34
0.0
 15
0.0
 25
0.0
 35
0.0
146
0.0
 13
0.0
 23
0.0
 33
0.0
 16
0.0
 26
0.0
 36
0.0
 17
0.0
 27
0.0
 37
0.0
 76
     0
330
A
  0
MLINESTYLE
  5
1C
102
{ACAD_REACTORS
330
1B
102
}
330
1B
100
AcDbMlineStyle
  2
STANDARD
 70
     0
  3

 62
     0
 51
90.0
 52
90.0
 71
     2
 49
0.5
 62
   256
  6
BYLAYER
 49
-0.5
 62
   256
  6
BYLAYER
  0
ACDBPLACEHOLDER
  5
1D
102
{ACAD_REACTORS
330
1F
102
}
330
1F
  0
XRECORD
  5
1579
102
{ACAD_REACTORS
330
1577
102
}
330
1577
100
AcDbXrecord
280
     1
340
337
  0
XRECORD
  5
1578
102
{ACAD_REACTORS
330
1577
102
}
330
1577
100
AcDbXrecord
280
     1
340
336
  0
DICTIONARYVAR
  5
33E
102
{ACAD_REACTORS
330
33D
102
}
330
33D
100
DictionaryVariables
280
     0
  1
1
  0
DICTIONARYVAR
  5
33F
102
{ACAD_REACTORS
330
33D
102
}
330
33D
100
DictionaryVariables
280
     0
  1

  0
DICTIONARY
  5
157C
330
21
100
AcDbDictionary
280
     1
281
     1
  3
ACAD_XREC_ROUNDTRIP
360
157D
  0
DICTIONARY
  5
157A
330
20
100
AcDbDictionary
280
     1
281
     1
  3
ACAD_XREC_ROUNDTRIP
360
157B
  0
XRECORD
  5
157D
102
{ACAD_REACTORS
330
157C
102
}
330
157C
100
AcDbXrecord
280
     1
102
SHADEPLOT
 70
     0
102
SHADEPLOTRESLEVEL
 70
     2
102
SHADEPLOTCUSTOMDPI
 70
   300
  0
XRECORD
  5
157B
102
{ACAD_REACTORS
330
157A
102
}
330
157A
100
AcDbXrecord
280
     1
102
SHADEPLOT
 70
     0
102
SHADEPLOTRESLEVEL
 70
     2
102
SHADEPLOTCUSTOMDPI
 70
   300
  0
ENDSEC
  0
EOF
