  0
SECTION
  2
HEADER
  9
$ACADVER
  1
AC1015
  9
$ACADMAINTVER
 70
    20
  9
$DWGCODEPAGE
  3
ANSI_932
  9
$INSBASE
 10
0.0
 20
0.0
 30
0.0
  9
$EXTMIN
 10
1278.927744258753
 20
521.5681068493313
 30
-0.0000000000000053
  9
$EXTMAX
 10
4059.393935557451
 20
2441.771854076649
 30
0.0000000000000099
  9
$LIMMIN
 10
0.0
 20
0.0
  9
$LIMMAX
 10
0.0
 20
0.0
  9
$ORTHOMODE
 70
     0
  9
$REGENMODE
 70
     1
  9
$FILLMODE
 70
     1
  9
$QTEXTMODE
 70
     0
  9
$MIRRTEXT
 70
     1
  9
$LTSCALE
 40
127.0
  9
$ATTMODE
 70
     1
  9
$TEXTSIZE
 40
0.0
  9
$TRACEWID
 40
1.0
  9
$TEXTSTYLE
  7
Standard
  9
$CLAYER
  8
一般
  9
$CELTYPE
  6
Continuous
  9
$CECOLOR
 62
     7
  9
$CELTSCALE
 40
1.0
  9
$DISPSILH
 70
     0
  9
$DIMSCALE
 40
1.0
  9
$DIMASZ
 40
0.18
  9
$DIMEXO
 40
0.0625
  9
$DIMDLI
 40
0.38
  9
$DIMRND
 40
0.0
  9
$DIMDLE
 40
0.0
  9
$DIMEXE
 40
0.18
  9
$DIMTP
 40
0.0
  9
$DIMTM
 40
0.0
  9
$DIMTXT
 40
0.18
  9
$DIMCEN
 40
0.09
  9
$DIMTSZ
 40
0.0
  9
$DIMTOL
 70
     0
  9
$DIMLIM
 70
     0
  9
$DIMTIH
 70
     1
  9
$DIMTOH
 70
     1
  9
$DIMSE1
 70
     0
  9
$DIMSE2
 70
     0
  9
$DIMTAD
 70
     0
  9
$DIMZIN
 70
     0
  9
$DIMBLK
  1

  9
$DIMASO
 70
     1
  9
$DIMSHO
 70
     1
  9
$DIMPOST
  1

  9
$DIMAPOST
  1

  9
$DIMALT
 70
     0
  9
$DIMALTD
 70
     2
  9
$DIMALTF
 40
25.4
  9
$DIMLFAC
 40
1.0
  9
$DIMTOFL
 70
     0
  9
$DIMTVP
 40
0.0
  9
$DIMTIX
 70
     0
  9
$DIMSOXD
 70
     0
  9
$DIMSAH
 70
     0
  9
$DIMBLK1
  1

  9
$DIMBLK2
  1

  9
$DIMSTYLE
  2
Standard
  9
$DIMCLRD
 70
     0
  9
$DIMCLRE
 70
     0
  9
$DIMCLRT
 70
     0
  9
$DIMTFAC
 40
1.0
  9
$DIMGAP
 40
0.09
  9
$DIMJUST
 70
     0
  9
$DIMSD1
 70
     0
  9
$DIMSD2
 70
     0
  9
$DIMTOLJ
 70
     1
  9
$DIMTZIN
 70
     0
  9
$DIMALTZ
 70
     0
  9
$DIMALTTZ
 70
     0
  9
$DIMUPT
 70
     0
  9
$DIMDEC
 70
     4
  9
$DIMTDEC
 70
     4
  9
$DIMALTU
 70
     2
  9
$DIMALTTD
 70
     2
  9
$DIMTXSTY
  7
Standard
  9
$DIMAUNIT
 70
     0
  9
$DIMADEC
 70
     0
  9
$DIMALTRND
 40
0.0
  9
$DIMAZIN
 70
     0
  9
$DIMDSEP
 70
     0
  9
$DIMATFIT
 70
     3
  9
$DIMFRAC
 70
     0
  9
$DIMLDRBLK
  1

  9
$DIMLUNIT
 70
     2
  9
$DIMLWD
 70
     0
  9
$DIMLWE
 70
     0
  9
$DIMTMOVE
 70
     0
  9
$LUNITS
 70
     2
  9
$LUPREC
 70
     4
  9
$SKETCHINC
 40
0.1
  9
$FILLETRAD
 40
0.0
  9
$AUNITS
 70
     0
  9
$AUPREC
 70
     0
  9
$MENU
  1
acad
  9
$ELEVATION
 40
0.0
  9
$PELEVATION
 40
0.0
  9
$THICKNESS
 40
0.0
  9
$LIMCHECK
 70
     0
  9
$CHAMFERA
 40
0.0
  9
$CHAMFERB
 40
0.0
  9
$CHAMFERC
 40
0.0
  9
$CHAMFERD
 40
0.0
  9
$SKPOLY
 70
     0
  9
$TDCREATE
 40
2453837.489419664
  9
$TDUCREATE
 40
2453837.114419664
  9
$TDUPDATE
 40
2454456.622004294
  9
$TDUUPDATE
 40
2454456.247004294
  9
$TDINDWG
 40
0.1072903935
  9
$TDUSRTIMER
 40
0.1072829861
  9
$USRTIMER
 70
     1
  9
$ANGBASE
 50
0.0
  9
$ANGDIR
 70
     0
  9
$PDMODE
 70
     1
  9
$PDSIZE
 40
-2.0
  9
$PLINEWID
 40
0.0
  9
$SPLFRAME
 70
     0
  9
$SPLINETYPE
 70
     6
  9
$SPLINESEGS
 70
     8
  9
$HANDSEED
  5
20B1
  9
$SURFTAB1
 70
     6
  9
$SURFTAB2
 70
     6
  9
$SURFTYPE
 70
     6
  9
$SURFU
 70
     6
  9
$SURFV
 70
     6
  9
$UCSBASE
  2

  9
$UCSNAME
  2

  9
$UCSORG
 10
0.0
 20
0.0
 30
0.0
  9
$UCSXDIR
 10
1.0
 20
0.0
 30
0.0
  9
$UCSYDIR
 10
0.0
 20
1.0
 30
0.0
  9
$UCSORTHOREF
  2

  9
$UCSORTHOVIEW
 70
     0
  9
$UCSORGTOP
 10
0.0
 20
0.0
 30
0.0
  9
$UCSORGBOTTOM
 10
0.0
 20
0.0
 30
0.0
  9
$UCSORGLEFT
 10
0.0
 20
0.0
 30
0.0
  9
$UCSORGRIGHT
 10
0.0
 20
0.0
 30
0.0
  9
$UCSORGFRONT
 10
0.0
 20
0.0
 30
0.0
  9
$UCSORGBACK
 10
0.0
 20
0.0
 30
0.0
  9
$PUCSBASE
  2

  9
$PUCSNAME
  2

  9
$PUCSORG
 10
0.0
 20
0.0
 30
0.0
  9
$PUCSXDIR
 10
1.0
 20
0.0
 30
0.0
  9
$PUCSYDIR
 10
0.0
 20
1.0
 30
0.0
  9
$PUCSORTHOREF
  2

  9
$PUCSORTHOVIEW
 70
     0
  9
$PUCSORGTOP
 10
0.0
 20
0.0
 30
0.0
  9
$PUCSORGBOTTOM
 10
0.0
 20
0.0
 30
0.0
  9
$PUCSORGLEFT
 10
0.0
 20
0.0
 30
0.0
  9
$PUCSORGRIGHT
 10
0.0
 20
0.0
 30
0.0
  9
$PUCSORGFRONT
 10
0.0
 20
0.0
 30
0.0
  9
$PUCSORGBACK
 10
0.0
 20
0.0
 30
0.0
  9
$USERI1
 70
     0
  9
$USERI2
 70
     0
  9
$USERI3
 70
     0
  9
$USERI4
 70
     0
  9
$USERI5
 70
     0
  9
$USERR1
 40
0.0
  9
$USERR2
 40
0.0
  9
$USERR3
 40
0.0
  9
$USERR4
 40
0.0
  9
$USERR5
 40
0.0
  9
$WORLDVIEW
 70
     1
  9
$SHADEDGE
 70
     3
  9
$SHADEDIF
 70
    70
  9
$TILEMODE
 70
     1
  9
$MAXACTVP
 70
    16
  9
$PINSBASE
 10
0.0
 20
0.0
 30
0.0
  9
$PLIMCHECK
 70
     0
  9
$PEXTMIN
 10
1.000000000000000E+20
 20
1.000000000000000E+20
 30
1.000000000000000E+20
  9
$PEXTMAX
 10
-1.000000000000000E+20
 20
-1.000000000000000E+20
 30
-1.000000000000000E+20
  9
$PLIMMIN
 10
0.0
 20
0.0
  9
$PLIMMAX
 10
12.0
 20
9.0
  9
$UNITMODE
 70
     0
  9
$VISRETAIN
 70
     0
  9
$PLINEGEN
 70
     1
  9
$PSLTSCALE
 70
     0
  9
$TREEDEPTH
 70
  3020
  9
$CMLSTYLE
  2
Standard
  9
$CMLJUST
 70
     0
  9
$CMLSCALE
 40
1.0
  9
$PROXYGRAPHICS
 70
     0
  9
$MEASUREMENT
 70
     1
  9
$CELWEIGHT
370
     0
  9
$ENDCAPS
280
     0
  9
$JOINSTYLE
280
     0
  9
$LWDISPLAY
290
     1
  9
$INSUNITS
 70
     4
  9
$HYPERLINKBASE
  1

  9
$STYLESHEET
  1

  9
$XEDIT
290
     1
  9
$CEPSNTYPE
380
     0
  9
$PSTYLEMODE
290
     1
  9
$FINGERPRINTGUID
  2

  9
$VERSIONGUID
  2
{4AFC6B22-8483-4F72-9163-9B5148E33DFF}
  9
$EXTNAMES
290
     1
  9
$PSVPSCALE
 40
0.0
  9
$OLESTARTUP
290
     0
  0
ENDSEC
  0
SECTION
  2
CLASSES
  0
CLASS
  1
IMAGE
  2
AcDbRasterImage
  3
ISM
 90
    32895
280
     0
281
     1
  0
CLASS
  1
DICTIONARYVAR
  2
AcDbDictionaryVar
  3
ObjectDBX Classes
 90
        0
280
     0
281
     0
  0
CLASS
  1
RASTERVARIABLES
  2
AcDbRasterVariables
  3
ISM
 90
    32768
280
     0
281
     0
  0
CLASS
  1
IMAGEDEF
  2
AcDbRasterImageDef
  3
ISM
 90
    32768
280
     0
281
     0
  0
CLASS
  1
IMAGEDEF_REACTOR
  2
AcDbRasterImageDefReactor
  3
ISM
 90
    32769
280
     0
281
     0
  0
CLASS
  1
IDBUFFER
  2
AcDbIdBuffer
  3
ObjectDBX Classes
 90
    32768
280
     0
281
     0
  0
CLASS
  1
SPATIAL_FILTER
  2
AcDbSpatialFilter
  3
ObjectDBX Classes
 90
    32768
280
     0
281
     0
  0
CLASS
  1
SORTENTSTABLE
  2
AcDbSortentsTable
  3
ObjectDBX Classes
 90
    32768
280
     0
281
     0
  0
CLASS
  1
LAYER_INDEX
  2
AcDbLayerIndex
  3
ObjectDBX Classes
 90
    32768
280
     0
281
     0
  0
CLASS
  1
SPATIAL_INDEX
  2
AcDbSpatialIndex
  3
ObjectDBX Classes
 90
    32768
280
     0
281
     0
  0
CLASS
  1
OBJECT_PTR
  2
CAseDLPNTableRecord
  3
"ASE-LPNTableRecord"
 90
    32769
280
     0
281
     0
  0
CLASS
  1
LAYOUT
  2
AcDbLayout
  3
ObjectDBX Classes
 90
        0
280
     0
281
     0
  0
CLASS
  1
PLOTSETTINGS
  2
AcDbPlotSettings
  3
ObjectDBX Classes
 90
    32768
280
     0
281
     0
  0
CLASS
  1
ACDBDICTIONARYWDFLT
  2
AcDbDictionaryWithDefault
  3
ObjectDBX Classes
 90
        0
280
     0
281
     0
  0
CLASS
  1
ACDBPLACEHOLDER
  2
AcDbPlaceHolder
  3
ObjectDBX Classes
 90
        0
280
     0
281
     0
  0
CLASS
  1
VBA_PROJECT
  2
AcDbVbaProject
  3
acad
 90
    32768
280
     0
281
     0
  0
CLASS
  1
WIPEOUT
  2
AcDbWipeout
  3
"WipeOut|Product Desc: Object Enabler for WipeOut entity^I^I^I^I^I^I|Company: Autodesk, Inc.^I^I^I^I^I^I|WEB Address: www.autodesk.com"
 90
    32895
280
     0
281
     1
  0
CLASS
  1
WIPEOUTVARIABLES
  2
AcDbWipeoutVariables
  3
"WipeOut|Product Desc:     WipeOut Dbx Application|Company:          Autodesk, Inc.|WEB Address:      www.autodesk.com"
 90
        0
280
     0
281
     0
  0
CLASS
  1
RTEXT
  2
RText
  3
RText|AutoCAD Express Tool|expresstools@autodesk.com
 90
    32768
280
     0
281
     1
  0
CLASS
  1
ARCALIGNEDTEXT
  2
AcDbArcAlignedText
  3
ATEXT|AutoCAD Express Tool|expresstools@autodesk.com
 90
    32768
280
     0
281
     1
  0
ENDSEC
  0
SECTION
  2
TABLES
  0
TABLE
  2
VPORT
  5
7
330
0
100
AcDbSymbolTable
 70
     4
  0
VPORT
  5
20A6
330
7
100
AcDbSymbolTableRecord
100
AcDbViewportTableRecord
  2
*Active
 70
     0
 10
0.0
 20
0.0
 11
1.0
 21
1.0
 12
2669.160839908102
 22
1481.66998046299
 13
0.0
 23
0.0
 14
1.0
 24
1.0
 15
0.0
 25
0.0
 16
0.0
 26
0.0
 36
1.0
 17
0.0
 27
0.0
 37
0.0
 40
1939.373834554046
 41
1.796666666666666
 42
50.0
 43
0.0
 44
0.0
 50
0.0
 51
0.0
 71
     0
 72
   100
 73
     1
 74
     1
 75
     0
 76
     0
 77
     0
 78
     0
281
     0
 65
     0
110
0.0
120
0.0
130
0.0
111
1.0
121
0.0
131
0.0
112
0.0
122
1.0
132
0.0
 79
     0
146
0.0
  0
ENDTAB
  0
TABLE
  2
LTYPE
  5
4
330
0
100
AcDbSymbolTable
 70
    17
  0
LTYPE
  5
11
330
4
100
AcDbSymbolTableRecord
100
AcDbLinetypeTableRecord
  2
ByBlock
 70
     0
  3

 72
    65
 73
     0
 40
0.0
  0
LTYPE
  5
12
330
4
100
AcDbSymbolTableRecord
100
AcDbLinetypeTableRecord
  2
ByLayer
 70
     0
  3

 72
    65
 73
     0
 40
0.0
  0
LTYPE
  5
13
330
4
100
AcDbSymbolTableRecord
100
AcDbLinetypeTableRecord
  2
Continuous
 70
     0
  3
Solid line
 72
    65
 73
     0
 40
0.0
  0
LTYPE
  5
26
330
4
100
AcDbSymbolTableRecord
100
AcDbLinetypeTableRecord
  2
STYLE_01
 70
     0
  3

 72
    65
 73
     2
 40
0.4429133858267717
 49
0.2952755905511811
 74
     0
 49
-0.1476377952755906
 74
     0
  0
LTYPE
  5
27
330
4
100
AcDbSymbolTableRecord
100
AcDbLinetypeTableRecord
  2
STYLE_02
 70
     0
  3

 72
    65
 73
     2
 40
0.2214566929133859
 49
0.1476377952755906
 74
     0
 49
-0.0738188976377953
 74
     0
  0
LTYPE
  5
28
330
4
100
AcDbSymbolTableRecord
100
AcDbLinetypeTableRecord
  2
STYLE_03
 70
     0
  3

 72
    65
 73
     2
 40
0.1476377952755906
 49
0.0002
 74
     0
 49
-0.1474377952755906
 74
     0
  0
LTYPE
  5
29
330
4
100
AcDbSymbolTableRecord
100
AcDbLinetypeTableRecord
  2
STYLE_04
 70
     0
  3

 72
    65
 73
     4
 40
0.5905511811023623
 49
0.2952755905511811
 74
     0
 49
-0.1476377952755906
 74
     0
 49
0.0002
 74
     0
 49
-0.1474377952755906
 74
     0
  0
LTYPE
  5
2A
330
4
100
AcDbSymbolTableRecord
100
AcDbLinetypeTableRecord
  2
STYLE_05
 70
     0
  3

 72
    65
 73
     6
 40
0.7381889763779528
 49
0.2952755905511811
 74
     0
 49
-0.1476377952755906
 74
     0
 49
0.0002
 74
     0
 49
-0.1474377952755906
 74
     0
 49
0.0002
 74
     0
 49
-0.1474377952755905
 74
     0
  0
LTYPE
  5
2B
330
4
100
AcDbSymbolTableRecord
100
AcDbLinetypeTableRecord
  2
STYLE_06
 70
     0
  3

 72
    65
 73
     4
 40
0.4166560000000001
 49
0.25
 74
     0
 49
-0.083312
 74
     0
 49
0.027772
 74
     0
 49
-0.055572
 74
     0
  0
LTYPE
  5
2C
330
4
100
AcDbSymbolTableRecord
100
AcDbLinetypeTableRecord
  2
STYLE_07
 70
     0
  3

 72
    65
 73
     6
 40
0.75
 49
0.25
 74
     0
 49
-0.083312
 74
     0
 49
0.2500000000000001
 74
     0
 49
-0.083344
 74
     0
 49
0.027772
 74
     0
 49
-0.055572
 74
     0
  0
LTYPE
  5
2D
330
4
100
AcDbSymbolTableRecord
100
AcDbLinetypeTableRecord
  2
STYLE_08
 70
     0
  3

 72
    65
 73
     6
 40
0.5
 49
0.25
 74
     0
 49
-0.083312
 74
     0
 49
0.027772
 74
     0
 49
-0.055572
 74
     0
 49
0.027772
 74
     0
 49
-0.055572
 74
     0
  0
LTYPE
  5
2E
330
4
100
AcDbSymbolTableRecord
100
AcDbLinetypeTableRecord
  2
STYLE_09
 70
     0
  3

 72
    65
 73
     4
 40
2.0
 49
1.5
 74
     0
 49
-0.1111139999999999
 74
     0
 49
0.2777720000000001
 74
     0
 49
-0.1111139999999999
 74
     0
  0
LTYPE
  5
2F
330
4
100
AcDbSymbolTableRecord
100
AcDbLinetypeTableRecord
  2
STYLE_10
 70
     0
  3

 72
    65
 73
     6
 40
2.375
 49
1.5
 74
     0
 49
-0.1111139999999999
 74
     0
 49
0.2777720000000001
 74
     0
 49
-0.1111139999999999
 74
     0
 49
0.25
 74
     0
 49
-0.125
 74
     0
  0
LTYPE
  5
360
330
4
100
AcDbSymbolTableRecord
100
AcDbLinetypeTableRecord
  2
CENTER2
 70
     0
  3
Center (.5x) ___ _ ___ _ ___ _ ___ _ ___ _ ___
 72
    65
 73
     4
 40
28.575
 49
19.05
 74
     0
 49
-3.174999999999998
 74
     0
 49
3.174999999999998
 74
     0
 49
-3.174999999999998
 74
     0
  0
LTYPE
  5
4F1
330
4
100
AcDbSymbolTableRecord
100
AcDbLinetypeTableRecord
  2
DASHED
 70
     0
  3
__ __ __ __ __ __ __ __ __ __ __ __ __ __ __
 72
    65
 73
     2
 40
0.75
 49
0.5
 74
     0
 49
-0.25
 74
     0
  0
LTYPE
  5
4F2
330
4
100
AcDbSymbolTableRecord
100
AcDbLinetypeTableRecord
  2
HIDDEN
 70
     0
  3
_ _ _ _ _ _ _ _ _ _ _ _ _ _ _ _ _ _ _ _ _ _ _
 72
    65
 73
     2
 40
0.375
 49
0.25
 74
     0
 49
-0.125
 74
     0
  0
LTYPE
  5
4F3
330
4
100
AcDbSymbolTableRecord
100
AcDbLinetypeTableRecord
  2
DOT
 70
     0
  3
...............................................
 72
    65
 73
     2
 40
0.25
 49
0.0
 74
     0
 49
-0.25
 74
     0
  0
LTYPE
  5
4F4
330
4
100
AcDbSymbolTableRecord
100
AcDbLinetypeTableRecord
  2
DASHDOT
 70
     0
  3
__ . __ . __ . __ . __ . __ . __ . __ . __ . __
 72
    65
 73
     4
 40
1.0
 49
0.5
 74
     0
 49
-0.25
 74
     0
 49
0.0
 74
     0
 49
-0.25
 74
     0
  0
LTYPE
  5
4F5
330
4
100
AcDbSymbolTableRecord
100
AcDbLinetypeTableRecord
  2
DIVIDE
 70
     0
  3
__ . . __ . . __ . . __ . . __ . . __ . . __
 72
    65
 73
     6
 40
1.25
 49
0.5
 74
     0
 49
-0.25
 74
     0
 49
0.0
 74
     0
 49
-0.25
 74
     0
 49
0.0
 74
     0
 49
-0.25
 74
     0
  0
ENDTAB
  0
TABLE
  2
LAYER
  5
2
330
0
100
AcDbSymbolTable
 70
     9
  0
LAYER
  5
14
330
2
100
AcDbSymbolTableRecord
100
AcDbLayerTableRecord
  2
0
 70
     0
 62
     7
  6
Continuous
370
    -3
390
1D
  0
LAYER
  5
30
330
2
100
AcDbSymbolTableRecord
100
AcDbLayerTableRecord
  2
Defpoints
 70
     0
 62
     7
  6
Continuous
290
     0
370
    -3
390
1D
  0
LAYER
  5
31
330
2
100
AcDbSymbolTableRecord
100
AcDbLayerTableRecord
  2
一般
 70
     0
 62
     7
  6
Continuous
370
     5
390
1D
  0
LAYER
  5
32
330
2
100
AcDbSymbolTableRecord
100
AcDbLayerTableRecord
  2
寸法
 70
     0
 62
     7
  6
Continuous
370
     5
390
1D
  0
LAYER
  5
33
330
2
100
AcDbSymbolTableRecord
100
AcDbLayerTableRecord
  2
実形
 70
     0
 62
     7
  6
Continuous
370
    18
390
1D
  0
LAYER
  5
361
330
2
100
AcDbSymbolTableRecord
100
AcDbLayerTableRecord
  2
補助
 70
     0
 62
    -4
  6
Continuous
290
     0
370
    -3
390
1D
  0
LAYER
  5
362
330
2
100
AcDbSymbolTableRecord
100
AcDbLayerTableRecord
  2
Cen
 70
     0
 62
     7
  6
CENTER2
370
    15
390
1D
  0
LAYER
  5
4F6
330
2
100
AcDbSymbolTableRecord
100
AcDbLayerTableRecord
  2
1
 70
     0
 62
     7
  6
Continuous
370
    -3
390
1D
  0
LAYER
  5
4F7
330
2
100
AcDbSymbolTableRecord
100
AcDbLayerTableRecord
  2
4
 70
     0
 62
     7
  6
Continuous
370
    -3
390
1D
  0
ENDTAB
  0
TABLE
  2
STYLE
  5
3
330
0
100
AcDbSymbolTable
 70
     4
  0
STYLE
  5
17
330
3
100
AcDbSymbolTableRecord
100
AcDbTextStyleTableRecord
  2
Standard
 70
     0
 40
0.0
 41
1.0
 50
0.0
 71
     0
 42
0.0
  3
txt
  4
BIGFONT.SHX
  0
STYLE
  5
24
330
3
100
AcDbSymbolTableRecord
100
AcDbTextStyleTableRecord
  2
Arial
 70
     0
 40
0.0
 41
1.0
 50
0.0
 71
     0
 42
0.0
  3
ARIAL.TTF
  4

1001
ACAD
1000
Arial
1071
        0
  0
STYLE
  5
25
330
3
100
AcDbSymbolTableRecord
100
AcDbTextStyleTableRecord
  2
ＭＳ ゴシック
 70
     0
 40
0.0
 41
1.0
 50
0.0
 71
     0
 42
0.0
  3
MS Gothic.ttf
  4

1001
ACAD
1000
ＭＳ ゴシック
1071
        0
  0
STYLE
  5
4F8
330
3
100
AcDbSymbolTableRecord
100
AcDbTextStyleTableRecord
  2
BIGFONT
 70
     0
 40
1.0
 41
1.0
 50
0.0
 71
     0
 42
1.0
  3
TXT
  4
BIGFONT
  0
ENDTAB
  0
TABLE
  2
VIEW
  5
5
330
0
100
AcDbSymbolTable
 70
     0
  0
ENDTAB
  0
TABLE
  2
UCS
  5
6
330
0
100
AcDbSymbolTable
 70
     0
  0
ENDTAB
  0
TABLE
  2
APPID
  5
8
330
0
100
AcDbSymbolTable
 70
     1
  0
APPID
  5
16
330
8
100
AcDbSymbolTableRecord
100
AcDbRegAppTableRecord
  2
ACAD
 70
     0
  0
ENDTAB
  0
TABLE
  2
DIMSTYLE
  5
9
330
0
100
AcDbSymbolTable
 70
     2
100
AcDbDimStyleTable
 71
     0
  0
DIMSTYLE
105
18
330
9
100
AcDbSymbolTableRecord
100
AcDbDimStyleTableRecord
  2
Standard
 70
     0
340
17
  0
DIMSTYLE
105
363
330
9
100
AcDbSymbolTableRecord
100
AcDbDimStyleTableRecord
  2
ISO-25
 70
     0
 41
35.0
 42
65.0
 43
3.75
 44
0.0
 73
     0
 74
     0
 77
     1
 78
     8
140
25.0
141
2.5
143
0.03937007874016
147
6.25
171
     3
172
     1
271
     2
272
     2
274
     3
283
     0
284
     8
340
17
341
35A
342
356
371
    15
372
    15
  0
ENDTAB
  0
TABLE
  2
BLOCK_RECORD
  5
1
330
0
100
AcDbSymbolTable
 70
     3
  0
BLOCK_RECORD
  5
A
330
1
100
AcDbSymbolTableRecord
100
AcDbBlockTableRecord
  2
*MODEL_SPACE
340
20
  0
BLOCK_RECORD
  5
B
330
1
100
AcDbSymbolTableRecord
100
AcDbBlockTableRecord
  2
*PAPER_SPACE
340
21
  0
BLOCK_RECORD
  5
356
330
1
100
AcDbSymbolTableRecord
100
AcDbBlockTableRecord
  2
_DotSmall
340
0
  0
BLOCK_RECORD
  5
35A
330
1
100
AcDbSymbolTableRecord
100
AcDbBlockTableRecord
  2
_Open30
340
0
  0
ENDTAB
  0
ENDSEC
  0
SECTION
  2
BLOCKS
  0
BLOCK
  5
D
330
A
100
AcDbEntity
  8
0
100
AcDbBlockBegin
  2
*MODEL_SPACE
 70
     0
 10
0.0
 20
0.0
 30
0.0
  3
*MODEL_SPACE
  1

  0
ENDBLK
  5
E
330
A
100
AcDbEntity
  8
0
100
AcDbBlockEnd
  0
BLOCK
  5
F
330
B
100
AcDbEntity
 67
     1
  8
0
100
AcDbBlockBegin
  2
*PAPER_SPACE
 70
     0
 10
0.0
 20
0.0
 30
0.0
  3
*PAPER_SPACE
  1

  0
ENDBLK
  5
10
330
B
100
AcDbEntity
 67
     1
  8
0
100
AcDbBlockEnd
  0
BLOCK
  5
357
330
356
100
AcDbEntity
  8
0
100
AcDbBlockBegin
  2
_DotSmall
 70
     0
 10
0.0
 20
0.0
 30
0.0
  3
_DotSmall
  1

  0
LWPOLYLINE
  5
358
330
356
100
AcDbEntity
  8
0
 62
     0
100
AcDbPolyline
 90
        2
 70
     1
 43
0.5
 10
-0.0625
 20
0.0
 42
1.0
 10
0.0625
 20
0.0
 42
1.0
  0
ENDBLK
  5
359
330
356
100
AcDbEntity
  8
0
100
AcDbBlockEnd
  0
BLOCK
  5
35B
330
35A
100
AcDbEntity
  8
0
100
AcDbBlockBegin
  2
_Open30
 70
     0
 10
0.0
 20
0.0
 30
0.0
  3
_Open30
  1

  0
LINE
  5
35C
330
35A
100
AcDbEntity
  8
0
 62
     0
370
    -2
100
AcDbLine
 10
-1.0
 20
0.26794919
 30
0.0
 11
0.0
 21
0.0
 31
0.0
  0
LINE
  5
35D
330
35A
100
AcDbEntity
  8
0
 62
     0
370
    -2
100
AcDbLine
 10
0.0
 20
0.0
 30
0.0
 11
-1.0
 21
-0.26794919
 31
0.0
  0
LINE
  5
35E
330
35A
100
AcDbEntity
  8
0
 62
     0
370
    -2
100
AcDbLine
 10
0.0
 20
0.0
 30
0.0
 11
-1.0
 21
0.0
 31
0.0
  0
ENDBLK
  5
35F
330
35A
100
AcDbEntity
  8
0
100
AcDbBlockEnd
  0
ENDSEC
  0
SECTION
  2
ENTITIES
  0
LINE
  5
3AF
330
A
100
AcDbEntity
  8
0
100
AcDbLine
 10
4059.126701682209
 20
2441.709131718699
 30
0.0
 11
4059.126701682209
 21
521.6783295177569
 31
0.0
  0
LINE
  5
3BE
330
A
100
AcDbEntity
  8
0
100
AcDbLine
 10
4059.126701682209
 20
2246.709131718699
 30
0.0
 11
4059.126701682209
 21
2441.709131718699
 31
0.0
  0
LINE
  5
3BF
330
A
100
AcDbEntity
  8
実形
100
AcDbLine
 10
4059.126701682209
 20
2441.709131718699
 30
0.0
 11
4059.126701682209
 21
2246.709131718699
 31
0.0
  0
LINE
  5
3D0
330
A
100
AcDbEntity
  8
補助
100
AcDbLine
 10
3457.371916419397
 20
666.678329517757
 30
0.0
 11
4057.371916419397
 21
731.678329517757
 31
0.0
  0
LINE
  5
3D1
330
A
100
AcDbEntity
  8
補助
100
AcDbLine
 10
4057.371916419397
 20
601.6783295177567
 30
0.0
 11
3617.371916419398
 21
662.5293933475441
 31
0.0
  0
LINE
  5
3D2
330
A
100
AcDbEntity
  8
補助
100
AcDbLine
 10
3617.371916419398
 20
536.678329517757
 30
0.0
 11
4057.371916419397
 21
601.6783295177567
 31
0.0
  0
LINE
  5
3D3
330
A
100
AcDbEntity
  8
補助
100
AcDbLine
 10
3617.371916419398
 20
601.6783295177567
 30
0.0
 11
4057.371916419397
 21
536.678329517757
 31
0.0
  0
LINE
  5
3D4
330
A
100
AcDbEntity
  8
補助
100
AcDbLine
 10
4057.371916419397
 20
666.678329517757
 30
0.0
 11
3617.371916419398
 21
601.6783295177567
 31
0.0
  0
LINE
  5
3D5
330
A
100
AcDbEntity
  8
補助
100
AcDbLine
 10
3457.371916419397
 20
731.678329517757
 30
0.0
 11
4057.371916419397
 21
666.678329517757
 31
0.0
  0
LINE
  5
3D6
330
A
100
AcDbEntity
  8
補助
100
AcDbLine
 10
3457.371916419397
 20
601.6783295177567
 30
0.0
 11
3617.371916419398
 21
662.5293933475441
 31
0.0
  0
LINE
  5
3D7
330
A
100
AcDbEntity
  8
補助
100
AcDbLine
 10
3617.371916419398
 20
536.678329517757
 30
0.0
 11
3457.371916419397
 21
601.6783295177567
 31
0.0
  0
LINE
  5
3D8
330
A
100
AcDbEntity
  8
補助
100
AcDbLine
 10
3617.371916419398
 20
601.6783295177567
 30
0.0
 11
3457.371916419397
 21
536.678329517757
 31
0.0
  0
LINE
  5
3D9
330
A
100
AcDbEntity
  8
補助
100
AcDbLine
 10
3457.371916419397
 20
666.678329517757
 30
0.0
 11
3617.371916419398
 21
601.6783295177567
 31
0.0
  0
LINE
  5
3DA
330
A
100
AcDbEntity
  8
補助
100
AcDbLine
 10
1863.101669610269
 20
1042.353785193776
 30
0.0
 11
4035.595761267005
 21
1042.353785193776
 31
0.0
  0
LINE
  5
3DB
330
A
100
AcDbEntity
  8
補助
100
AcDbLine
 10
2976.96554620887
 20
2121.353785193777
 30
0.0
 11
2976.96554620887
 21
1640.702275405103
 31
0.0
  0
LINE
  5
3DC
330
A
100
AcDbEntity
  8
補助
100
AcDbLine
 10
2431.96554620887
 20
1681.353785193777
 30
0.0
 11
2431.96554620887
 21
2200.346374234629
 31
0.0
  0
LINE
  5
3DD
330
A
100
AcDbEntity
  8
補助
100
AcDbLine
 10
2976.96554620887
 20
2240.090071255157
 30
0.0
 11
2976.96554620887
 21
819.0875953030831
 31
0.0
  0
LINE
  5
3DE
330
A
100
AcDbEntity
  8
補助
100
AcDbLine
 10
2431.96554620887
 20
2240.090071255157
 30
0.0
 11
2431.96554620887
 21
819.0875953030831
 31
0.0
  0
LINE
  5
3DF
330
A
100
AcDbEntity
  8
補助
100
AcDbLine
 10
2061.965546208869
 20
2151.356661467201
 30
0.0
 11
2061.965546208869
 21
2223.282535680899
 31
0.0
  0
LINE
  5
3E0
330
A
100
AcDbEntity
  8
補助
100
AcDbLine
 10
2071.96554620887
 20
2161.356661467201
 30
0.0
 11
1957.688328695208
 21
2161.323792214825
 31
0.0
  0
LINE
  5
3E1
330
A
100
AcDbEntity
  8
補助
100
AcDbLine
 10
2796.96554620887
 20
2240.090071255157
 30
0.0
 11
2796.96554620887
 21
819.0875953030831
 31
0.0
  0
LINE
  5
3E2
330
A
100
AcDbEntity
  8
補助
100
AcDbLine
 10
2756.965546208869
 20
2240.090071255157
 30
0.0
 11
2756.965546208869
 21
819.0875953030831
 31
0.0
  0
LINE
  5
3E3
330
A
100
AcDbEntity
  8
補助
100
AcDbLine
 10
3156.96554620887
 20
2240.090071255157
 30
0.0
 11
3156.96554620887
 21
819.0875953030831
 31
0.0
  0
LINE
  5
3E4
330
A
100
AcDbEntity
  8
補助
100
AcDbLine
 10
2106.965546208869
 20
2240.090071255157
 30
0.0
 11
2106.965546208869
 21
819.0875953030831
 31
0.0
  0
LINE
  5
3E5
330
A
100
AcDbEntity
  8
補助
100
AcDbLine
 10
1863.101669610269
 20
1681.353785193777
 30
0.0
 11
4035.595761267005
 21
1681.353785193777
 31
0.0
  0
LINE
  5
3E6
330
A
100
AcDbEntity
  8
補助
100
AcDbLine
 10
1863.101669610269
 20
2121.353785193777
 30
0.0
 11
4035.595761267005
 21
2121.353785193777
 31
0.0
  0
LINE
  5
3E7
330
A
100
AcDbEntity
  8
補助
100
AcDbLine
 10
3183.96554620887
 20
2240.090071255157
 30
0.0
 11
3183.96554620887
 21
819.0875953030831
 31
0.0
  0
LINE
  5
3E8
330
A
100
AcDbEntity
  8
補助
100
AcDbLine
 10
2079.965546208869
 20
2240.090071255157
 30
0.0
 11
2079.965546208869
 21
819.0875953030831
 31
0.0
  0
LINE
  5
3E9
330
A
100
AcDbEntity
  8
補助
100
AcDbLine
 10
1863.101669610269
 20
1659.353785193777
 30
0.0
 11
4035.595761267005
 21
1659.353785193777
 31
0.0
  0
LINE
  5
3EA
330
A
100
AcDbEntity
  8
補助
100
AcDbLine
 10
1863.101669610269
 20
2143.353785193777
 30
0.0
 11
4035.595761267005
 21
2143.353785193777
 31
0.0
  0
LINE
  5
3EB
330
A
100
AcDbEntity
  8
補助
100
AcDbLine
 10
3201.96554620887
 20
2240.090071255157
 30
0.0
 11
3201.96554620887
 21
819.0875953030831
 31
0.0
  0
LINE
  5
3EC
330
A
100
AcDbEntity
  8
補助
100
AcDbLine
 10
2061.965546208869
 20
2240.090071255157
 30
0.0
 11
2061.965546208869
 21
819.0875953030831
 31
0.0
  0
LINE
  5
3ED
330
A
100
AcDbEntity
  8
補助
100
AcDbLine
 10
1863.101669610269
 20
1241.353785193777
 30
0.0
 11
4035.595761267005
 21
1241.353785193777
 31
0.0
  0
LINE
  5
3EE
330
A
100
AcDbEntity
  8
補助
100
AcDbLine
 10
1863.101669610269
 20
1641.353785193777
 30
0.0
 11
4035.595761267005
 21
1641.353785193777
 31
0.0
  0
LINE
  5
3EF
330
A
100
AcDbEntity
  8
補助
100
AcDbLine
 10
1863.101669610269
 20
2161.353785193777
 30
0.0
 11
4035.595761267005
 21
2161.353785193777
 31
0.0
  0
LINE
  5
3F1
330
A
100
AcDbEntity
  8
0
100
AcDbLine
 10
4059.126701682209
 20
2441.709131718699
 30
0.0
 11
1279.126701682208
 21
2441.709131718699
 31
0.0
  0
LINE
  5
3F2
330
A
100
AcDbEntity
  8
0
100
AcDbLine
 10
1279.126701682208
 20
2441.709131718699
 30
0.0
 11
1279.126701682208
 21
521.6783295177569
 31
0.0
  0
LINE
  5
3F3
330
A
100
AcDbEntity
  8
0
100
AcDbLine
 10
1279.126701682208
 20
521.6783295177569
 30
0.0
 11
4057.371916419397
 21
521.6783295177569
 31
0.0
  0
LINE
  5
3F4
330
A
100
AcDbEntity
  8
0
100
AcDbLine
 10
1279.126701682208
 20
521.6783295177569
 30
0.0
 11
1551.371916419397
 21
521.6783295177569
 31
0.0
  0
MTEXT
  5
477
102
{ACAD_XDICTIONARY
360
20AF
102
}
330
A
100
AcDbEntity
  8
実形
100
AcDbMText
 10
3473.895784273542
 20
580.4519938501003
 30
0.0
 40
25.0
 41
612.2988505747128
 71
     1
 72
     5
  1
{\fArial|b0|i0|c0|p32;\H1.8x; e\H0.7778x;-KITCHEN \H0.3428x;U-ARCHITECTURE WORKS}
 73
     1
 44
1.0
1001
ACAD
1000
MTEXTBEGIN
1070
    73
1070
     1
1070
    44
1040
1.0
1070
    74
1070
     0
1000
MTEXTEND
  0
LINE
  5
478
330
A
100
AcDbEntity
  8
0
100
AcDbLine
 10
4059.126701682209
 20
521.7091317186991
 30
0.0
 11
4059.126701682209
 21
586.7091317186991
 31
0.0
  0
LINE
  5
479
330
A
100
AcDbEntity
  8
0
100
AcDbLine
 10
4059.126701682209
 20
651.7091317186991
 30
0.0
 11
4059.126701682209
 21
716.7091317186991
 31
0.0
  0
LINE
  5
47A
330
A
100
AcDbEntity
  8
Cen
100
AcDbLine
 10
4059.126701682209
 20
586.7091317186991
 30
0.0
 11
4059.126701682209
 21
651.7091317186991
 31
0.0
  0
TEXT
  5
47B
330
A
100
AcDbEntity
  8
0
100
AcDbText
 10
3702.273909804037
 20
601.8867966933185
 30
0.0
 40
35.0
  1
1：10
  7
ＭＳ ゴシック
 72
     4
 11
3759.126701682209
 21
619.2091317186991
 31
0.0
100
AcDbText
  0
LINE
  5
47C
330
A
100
AcDbEntity
  8
0
100
AcDbLine
 10
3459.126701682209
 20
586.7091317186991
 30
0.0
 11
3459.126701682209
 21
716.7091317186991
 31
0.0
  0
TEXT
  5
47D
330
A
100
AcDbEntity
  8
0
100
AcDbText
 10
3702.273909804037
 20
666.8867966933184
 30
0.0
 40
35.0
  1
IB-ek
  7
ＭＳ ゴシック
 72
     4
 11
3759.126701682209
 21
684.2091317186991
 31
0.0
100
AcDbText
  0
LINE
  5
47E
330
A
100
AcDbEntity
  8
0
100
AcDbLine
 10
3459.126701682209
 20
586.7091317186991
 30
0.0
 11
4059.126701682209
 21
586.7091317186991
 31
0.0
  0
LINE
  5
47F
330
A
100
AcDbEntity
  8
0
100
AcDbLine
 10
3339.126701682209
 20
521.7091317186991
 30
0.0
 11
3339.126701682209
 21
716.7091317186991
 31
0.0
  0
LINE
  5
480
330
A
100
AcDbEntity
  8
0
100
AcDbLine
 10
3339.126701682209
 20
651.7091317186991
 30
0.0
 11
4059.126701682209
 21
651.7091317186991
 31
0.0
  0
LINE
  5
481
330
A
100
AcDbEntity
  8
0
100
AcDbLine
 10
3339.126701682209
 20
716.7091317186991
 30
0.0
 11
4059.126701682209
 21
716.7091317186991
 31
0.0
  0
LINE
  5
482
330
A
100
AcDbEntity
  8
0
100
AcDbLine
 10
3339.126701682209
 20
586.7091317186991
 30
0.0
 11
4059.126701682209
 21
586.7091317186991
 31
0.0
  0
TEXT
  5
483
330
A
100
AcDbEntity
  8
実形
100
AcDbText
 10
3353.644468179671
 20
668.3081164902727
 30
0.0
 40
35.0
  1
品番
  7
ＭＳ ゴシック
 72
     4
 11
3399.126701682209
 21
684.2091317186991
 31
0.0
100
AcDbText
  0
TEXT
  5
484
330
A
100
AcDbEntity
  8
実形
100
AcDbText
 10
3353.644468179671
 20
602.9527865410341
 30
0.0
 40
35.0
  1
尺度
  7
ＭＳ ゴシック
 72
     4
 11
3399.126701682209
 21
619.2091317186991
 31
0.0
100
AcDbText
  0
LINE
  5
485
330
A
100
AcDbEntity
  8
0
100
AcDbLine
 10
3784.126701682209
 20
2311.709131718699
 30
0.0
 11
3784.126701682209
 21
2441.709131718699
 31
0.0
  0
LINE
  5
486
330
A
100
AcDbEntity
  8
0
100
AcDbLine
 10
3509.126701682209
 20
2311.709131718699
 30
0.0
 11
3509.126701682209
 21
2441.709131718699
 31
0.0
  0
TEXT
  5
487
330
A
100
AcDbEntity
  8
実形
100
AcDbText
 10
3355.903351428402
 20
2326.62029923139
 30
0.0
 40
35.0
  1
ボール
  7
ＭＳ ゴシック
 72
     4
 11
3424.126701682209
 21
2344.209131718699
 31
0.0
100
AcDbText
  0
TEXT
  5
488
330
A
100
AcDbEntity
  8
実形
100
AcDbText
 10
3355.903351428402
 20
2392.863954053725
 30
0.0
 40
35.0
  1
部品名
  7
ＭＳ ゴシック
 72
     4
 11
3424.126701682209
 21
2409.209131718699
 31
0.0
100
AcDbText
  0
TEXT
  5
489
330
A
100
AcDbEntity
  8
実形
100
AcDbText
 10
3578.403351428402
 20
2326.886796693319
 30
0.0
 40
35.0
  1
SUS304
  7
ＭＳ ゴシック
 72
     4
 11
3646.626701682209
 21
2344.209131718699
 31
0.0
100
AcDbText
  0
TEXT
  5
48A
330
A
100
AcDbEntity
  8
実形
100
AcDbText
 10
3601.144468179671
 20
2393.219284002963
 30
0.0
 40
35.0
  1
材質
  7
ＭＳ ゴシック
 72
     4
 11
3646.626701682209
 21
2409.209131718699
 31
0.0
100
AcDbText
  0
TEXT
  5
48B
330
A
100
AcDbEntity
  8
実形
100
AcDbText
 10
3876.144468179671
 20
2392.863954053725
 30
0.0
 40
35.0
  1
板厚
  7
ＭＳ ゴシック
 72
     4
 11
3921.626701682209
 21
2409.209131718699
 31
0.0
100
AcDbText
  0
TEXT
  5
48C
330
A
100
AcDbEntity
  8
実形
100
AcDbText
 10
3842.032793052768
 20
2326.886796693319
 30
0.0
 40
35.0
  1
0.8ｍｍ
  7
ＭＳ ゴシック
 72
     4
 11
3921.626701682209
 21
2344.209131718699
 31
0.0
100
AcDbText
  0
LINE
  5
48D
330
A
100
AcDbEntity
  8
実形
100
AcDbLine
 10
3339.126701682209
 20
2311.709131718699
 30
0.0
 11
3339.126701682209
 21
2441.709131718699
 31
0.0
  0
LINE
  5
48E
330
A
100
AcDbEntity
  8
0
100
AcDbLine
 10
4059.126701682209
 20
2376.709131718699
 30
0.0
 11
3339.126701682209
 21
2376.709131718699
 31
0.0
  0
LINE
  5
48F
330
A
100
AcDbEntity
  8
0
100
AcDbLine
 10
4059.126701682209
 20
2311.709131718699
 30
0.0
 11
3339.126701682209
 21
2311.709131718699
 31
0.0
  0
TEXT
  5
1589
330
A
100
AcDbEntity
  8
0
100
AcDbText
 10
1402.558273152892
 20
937.5866769072086
 30
0.0
 40
30.0
  1
・表面仕様はBA材をプレスしたままとする。
100
AcDbText
  0
TEXT
  5
158A
330
A
100
AcDbEntity
  8
0
100
AcDbText
 10
1412.233101951982
 20
803.9814913800578
 30
0.0
 40
30.0
  1
※実寸には製造上の誤差が多少生ずる場合があります。シンクの穴あけ加工は現物合わせにてお願いします。
100
AcDbText
  0
LINE
  5
1DEB
330
A
100
AcDbEntity
  8
1
  6
HIDDEN
 62
     3
100
AcDbLine
 10
2478.339650453184
 20
2060.752440951989
 30
0.0
 11
2478.339650453184
 21
2048.752440951989
 31
0.0
  0
LINE
  5
1DEC
330
A
100
AcDbEntity
  8
1
  6
HIDDEN
 62
     3
100
AcDbLine
 10
2484.339650453184
 20
2054.752440951989
 30
0.0
 11
2016.339650453184
 21
2054.752440951989
 31
0.0
  0
LINE
  5
1DED
330
A
100
AcDbEntity
  8
1
  6
HIDDEN
 62
     3
100
AcDbLine
 10
2022.339650453184
 20
2060.752440951989
 30
0.0
 11
2022.339650453184
 21
2048.752440951989
 31
0.0
  0
LINE
  5
1DEE
330
A
100
AcDbEntity
  8
1
  6
HIDDEN
 62
     4
100
AcDbLine
 10
2559.839650453184
 20
2024.752440951989
 30
0.0
 11
2514.839650453184
 21
2024.752440951989
 31
0.0
  0
LINE
  5
1DEF
330
A
100
AcDbEntity
  8
1
  6
HIDDEN
 62
     4
100
AcDbLine
 10
2537.339650453184
 20
2002.252440951989
 30
0.0
 11
2537.339650453184
 21
2047.252440951989
 31
0.0
  0
LINE
  5
1DF1
330
A
100
AcDbEntity
  8
1
  6
HIDDEN
 62
     3
100
AcDbLine
 10
3416.144329289487
 20
1613.564697526283
 30
0.0
 11
3416.144329289487
 21
1583.97892966914
 31
0.0
  0
LINE
  5
1DF2
330
A
100
AcDbEntity
  8
1
  6
HIDDEN
 62
     3
100
AcDbLine
 10
3376.144329289488
 20
1613.564697526283
 30
0.0
 11
3376.144329289488
 21
1583.97892966914
 31
0.0
  0
LINE
  5
1DF3
330
A
100
AcDbEntity
  8
1
  6
HIDDEN
 62
     3
100
AcDbLine
 10
3222.063972146628
 20
1547.478929669139
 30
0.0
 11
3297.622186432344
 21
1547.478929669139
 31
0.0
  0
LINE
  5
1DF4
330
A
100
AcDbEntity
  8
1
  6
HIDDEN
 62
     4
100
AcDbLine
 10
1940.839650453184
 20
2024.752440951989
 30
0.0
 11
1985.839650453184
 21
2024.752440951989
 31
0.0
  0
LINE
  5
1DF5
330
A
100
AcDbEntity
  8
1
  6
HIDDEN
 62
     4
100
AcDbLine
 10
1963.339650453184
 20
2002.252440951989
 30
0.0
 11
1963.339650453184
 21
2047.252440951989
 31
0.0
  0
LINE
  5
1DF6
330
A
100
AcDbEntity
  8
1
  6
Continuous
 62
     3
100
AcDbLine
 10
2461.589650453185
 20
2023.00244095199
 30
0.0
 11
2039.089650453184
 21
2023.002440951989
 31
0.0
  0
LINE
  5
1DF7
330
A
100
AcDbEntity
  8
1
  6
Continuous
 62
     3
100
AcDbLine
 10
2461.589650453184
 20
2020.50244095199
 30
0.0
 11
2039.089650453184
 21
2020.50244095199
 31
0.0
  0
LINE
  5
1DF8
330
A
100
AcDbEntity
  8
1
  6
Continuous
 62
     3
100
AcDbLine
 10
2341.589650453184
 20
2035.052440951989
 30
0.0
 11
2341.589650453184
 21
2058.75244095199
 31
0.0
  0
LINE
  5
1DF9
330
A
100
AcDbEntity
  8
1
  6
Continuous
 62
     3
100
AcDbLine
 10
2339.089650453184
 20
2035.052440951989
 30
0.0
 11
2339.089650453184
 21
2058.75244095199
 31
0.0
  0
LINE
  5
1DFA
330
A
100
AcDbEntity
  8
1
  6
Continuous
 62
     3
100
AcDbLine
 10
2309.089650453184
 20
2035.052440951989
 30
0.0
 11
2309.089650453184
 21
2058.75244095199
 31
0.0
  0
LINE
  5
1DFB
330
A
100
AcDbEntity
  8
1
  6
Continuous
 62
     3
100
AcDbLine
 10
2311.589650453184
 20
2035.052440951989
 30
0.0
 11
2311.589650453184
 21
2058.75244095199
 31
0.0
  0
LINE
  5
1DFC
330
A
100
AcDbEntity
  8
1
  6
Continuous
 62
     3
100
AcDbLine
 10
2281.589650453184
 20
2035.052440951989
 30
0.0
 11
2281.589650453184
 21
2058.75244095199
 31
0.0
  0
LINE
  5
1DFD
330
A
100
AcDbEntity
  8
1
  6
Continuous
 62
     3
100
AcDbLine
 10
2279.089650453184
 20
2035.052440951989
 30
0.0
 11
2279.089650453184
 21
2058.75244095199
 31
0.0
  0
LINE
  5
1DFE
330
A
100
AcDbEntity
  8
1
  6
Continuous
 62
     3
100
AcDbLine
 10
2251.589650453184
 20
2035.052440951989
 30
0.0
 11
2251.589650453184
 21
2058.75244095199
 31
0.0
  0
LINE
  5
1DFF
330
A
100
AcDbEntity
  8
1
  6
Continuous
 62
     3
100
AcDbLine
 10
2249.089650453184
 20
2035.052440951989
 30
0.0
 11
2249.089650453184
 21
2058.75244095199
 31
0.0
  0
LINE
  5
1E00
330
A
100
AcDbEntity
  8
1
  6
Continuous
 62
     3
100
AcDbLine
 10
2221.589650453184
 20
2035.052440951989
 30
0.0
 11
2221.589650453184
 21
2058.75244095199
 31
0.0
  0
LINE
  5
1E01
330
A
100
AcDbEntity
  8
1
  6
Continuous
 62
     3
100
AcDbLine
 10
2219.089650453184
 20
2035.052440951989
 30
0.0
 11
2219.089650453184
 21
2058.75244095199
 31
0.0
  0
LINE
  5
1E02
330
A
100
AcDbEntity
  8
1
  6
Continuous
 62
     3
100
AcDbLine
 10
2191.589650453184
 20
2035.052440951989
 30
0.0
 11
2191.589650453184
 21
2058.75244095199
 31
0.0
  0
LINE
  5
1E03
330
A
100
AcDbEntity
  8
1
  6
Continuous
 62
     3
100
AcDbLine
 10
2189.089650453184
 20
2035.052440951989
 30
0.0
 11
2189.089650453184
 21
2058.75244095199
 31
0.0
  0
LINE
  5
1E04
330
A
100
AcDbEntity
  8
1
  6
Continuous
 62
     3
100
AcDbLine
 10
2161.589650453184
 20
2035.052440951989
 30
0.0
 11
2161.589650453184
 21
2058.75244095199
 31
0.0
  0
LINE
  5
1E05
330
A
100
AcDbEntity
  8
1
  6
Continuous
 62
     3
100
AcDbLine
 10
2159.089650453184
 20
2035.052440951989
 30
0.0
 11
2159.089650453184
 21
2058.75244095199
 31
0.0
  0
LINE
  5
1E06
330
A
100
AcDbEntity
  8
1
  6
Continuous
 62
     3
100
AcDbLine
 10
2461.589650453184
 20
1977.752440951989
 30
0.0
 11
2461.589650453184
 21
2058.75244095199
 31
0.0
  0
LINE
  5
1E07
330
A
100
AcDbEntity
  8
1
  6
Continuous
 62
     3
100
AcDbLine
 10
2459.089650453184
 20
1977.752440951989
 30
0.0
 11
2459.089650453184
 21
2058.75244095199
 31
0.0
  0
LINE
  5
1E08
330
A
100
AcDbEntity
  8
1
  6
Continuous
 62
     3
100
AcDbLine
 10
2431.589650453184
 20
1977.752440951989
 30
0.0
 11
2431.589650453184
 21
2058.75244095199
 31
0.0
  0
LINE
  5
1E09
330
A
100
AcDbEntity
  8
1
  6
Continuous
 62
     3
100
AcDbLine
 10
2429.089650453184
 20
1977.752440951989
 30
0.0
 11
2429.089650453184
 21
2058.75244095199
 31
0.0
  0
LINE
  5
1E0A
330
A
100
AcDbEntity
  8
1
  6
Continuous
 62
     3
100
AcDbLine
 10
2401.589650453184
 20
1977.752440951989
 30
0.0
 11
2401.589650453184
 21
2058.75244095199
 31
0.0
  0
LINE
  5
1E0B
330
A
100
AcDbEntity
  8
1
  6
Continuous
 62
     3
100
AcDbLine
 10
2399.089650453184
 20
1977.752440951989
 30
0.0
 11
2399.089650453184
 21
2058.75244095199
 31
0.0
  0
LINE
  5
1E0C
330
A
100
AcDbEntity
  8
1
  6
Continuous
 62
     3
100
AcDbLine
 10
2371.589650453184
 20
1977.752440951989
 30
0.0
 11
2371.589650453184
 21
2058.75244095199
 31
0.0
  0
LINE
  5
1E0D
330
A
100
AcDbEntity
  8
1
  6
Continuous
 62
     3
100
AcDbLine
 10
2369.089650453184
 20
1977.752440951989
 30
0.0
 11
2369.089650453184
 21
2058.75244095199
 31
0.0
  0
LINE
  5
1E0E
330
A
100
AcDbEntity
  8
1
  6
Continuous
 62
     3
100
AcDbLine
 10
2341.589650453184
 20
1977.752440951989
 30
0.0
 11
2341.589650453184
 21
2030.05244095199
 31
0.0
  0
LINE
  5
1E0F
330
A
100
AcDbEntity
  8
1
  6
Continuous
 62
     3
100
AcDbLine
 10
2339.089650453184
 20
1977.752440951989
 30
0.0
 11
2339.089650453184
 21
2030.05244095199
 31
0.0
  0
LINE
  5
1E10
330
A
100
AcDbEntity
  8
1
  6
Continuous
 62
     3
100
AcDbLine
 10
2311.589650453184
 20
1977.752440951989
 30
0.0
 11
2311.589650453185
 21
2030.05244095199
 31
0.0
  0
LINE
  5
1E11
330
A
100
AcDbEntity
  8
1
  6
Continuous
 62
     3
100
AcDbLine
 10
2309.089650453184
 20
1977.752440951989
 30
0.0
 11
2309.089650453185
 21
2030.05244095199
 31
0.0
  0
LINE
  5
1E12
330
A
100
AcDbEntity
  8
1
  6
Continuous
 62
     3
100
AcDbLine
 10
2281.589650453184
 20
1977.752440951989
 30
0.0
 11
2281.589650453184
 21
2030.05244095199
 31
0.0
  0
LINE
  5
1E13
330
A
100
AcDbEntity
  8
1
  6
Continuous
 62
     3
100
AcDbLine
 10
2279.089650453184
 20
1977.752440951989
 30
0.0
 11
2279.089650453184
 21
2030.05244095199
 31
0.0
  0
LINE
  5
1E14
330
A
100
AcDbEntity
  8
1
  6
Continuous
 62
     3
100
AcDbLine
 10
2251.589650453184
 20
1977.752440951989
 30
0.0
 11
2251.589650453185
 21
2030.05244095199
 31
0.0
  0
LINE
  5
1E15
330
A
100
AcDbEntity
  8
1
  6
Continuous
 62
     3
100
AcDbLine
 10
2249.089650453184
 20
1977.752440951989
 30
0.0
 11
2249.089650453185
 21
2030.05244095199
 31
0.0
  0
LINE
  5
1E16
330
A
100
AcDbEntity
  8
1
  6
Continuous
 62
     3
100
AcDbLine
 10
2221.589650453184
 20
1977.752440951989
 30
0.0
 11
2221.589650453184
 21
2030.05244095199
 31
0.0
  0
LINE
  5
1E17
330
A
100
AcDbEntity
  8
1
  6
Continuous
 62
     3
100
AcDbLine
 10
2219.089650453184
 20
1977.752440951989
 30
0.0
 11
2219.089650453184
 21
2030.05244095199
 31
0.0
  0
LINE
  5
1E18
330
A
100
AcDbEntity
  8
1
  6
Continuous
 62
     3
100
AcDbLine
 10
2191.589650453184
 20
1977.752440951989
 30
0.0
 11
2191.589650453184
 21
2030.05244095199
 31
0.0
  0
LINE
  5
1E19
330
A
100
AcDbEntity
  8
1
  6
Continuous
 62
     3
100
AcDbLine
 10
2189.089650453184
 20
1977.752440951989
 30
0.0
 11
2189.089650453184
 21
2030.05244095199
 31
0.0
  0
LINE
  5
1E1A
330
A
100
AcDbEntity
  8
1
  6
Continuous
 62
     3
100
AcDbLine
 10
2161.589650453184
 20
1977.752440951989
 30
0.0
 11
2161.589650453184
 21
2030.05244095199
 31
0.0
  0
LINE
  5
1E1B
330
A
100
AcDbEntity
  8
1
  6
Continuous
 62
     3
100
AcDbLine
 10
2159.089650453184
 20
1977.752440951989
 30
0.0
 11
2159.089650453184
 21
2030.05244095199
 31
0.0
  0
LINE
  5
1E1C
330
A
100
AcDbEntity
  8
1
  6
Continuous
 62
     3
100
AcDbLine
 10
2131.589650453184
 20
1977.752440951989
 30
0.0
 11
2131.589650453184
 21
2058.75244095199
 31
0.0
  0
LINE
  5
1E1D
330
A
100
AcDbEntity
  8
1
  6
Continuous
 62
     3
100
AcDbLine
 10
2129.089650453184
 20
1977.752440951989
 30
0.0
 11
2129.089650453184
 21
2058.75244095199
 31
0.0
  0
LINE
  5
1E1E
330
A
100
AcDbEntity
  8
1
  6
Continuous
 62
     3
100
AcDbLine
 10
2101.589650453184
 20
1977.752440951989
 30
0.0
 11
2101.589650453184
 21
2058.75244095199
 31
0.0
  0
LINE
  5
1E1F
330
A
100
AcDbEntity
  8
1
  6
Continuous
 62
     3
100
AcDbLine
 10
2099.089650453184
 20
1977.752440951989
 30
0.0
 11
2099.089650453184
 21
2058.75244095199
 31
0.0
  0
LINE
  5
1E20
330
A
100
AcDbEntity
  8
1
  6
Continuous
 62
     3
100
AcDbLine
 10
2071.589650453184
 20
1977.752440951989
 30
0.0
 11
2071.589650453184
 21
2058.75244095199
 31
0.0
  0
LINE
  5
1E21
330
A
100
AcDbEntity
  8
1
  6
Continuous
 62
     3
100
AcDbLine
 10
2069.089650453184
 20
1977.752440951989
 30
0.0
 11
2069.089650453184
 21
2058.75244095199
 31
0.0
  0
LINE
  5
1E22
330
A
100
AcDbEntity
  8
1
  6
Continuous
 62
     3
100
AcDbLine
 10
2041.589650453184
 20
1977.752440951989
 30
0.0
 11
2041.589650453184
 21
2058.75244095199
 31
0.0
  0
LINE
  5
1E23
330
A
100
AcDbEntity
  8
1
  6
Continuous
 62
     3
100
AcDbLine
 10
2039.089650453184
 20
1977.752440951989
 30
0.0
 11
2039.089650453184
 21
2058.75244095199
 31
0.0
  0
LINE
  5
1E24
330
A
100
AcDbEntity
  8
1
  6
Continuous
 62
     3
100
AcDbLine
 10
2342.839650453184
 20
2058.752440951989
 30
0.0
 11
2157.839650453183
 21
2058.752440951989
 31
0.0
  0
LINE
  5
1E25
330
A
100
AcDbEntity
  8
1
  6
Continuous
 62
     3
100
AcDbLine
 10
2342.839650453184
 20
2063.75244095199
 30
0.0
 11
2157.839650453183
 21
2063.75244095199
 31
0.0
  0
LINE
  5
1E26
330
A
100
AcDbEntity
  8
1
  6
Continuous
 62
     3
100
AcDbLine
 10
2152.839650453183
 20
2058.752440951989
 30
0.0
 11
2021.339650453183
 21
2058.752440951989
 31
0.0
  0
LINE
  5
1E27
330
A
100
AcDbEntity
  8
1
  6
Continuous
 62
     3
100
AcDbLine
 10
2152.839650453183
 20
2063.75244095199
 30
0.0
 11
2021.339650453183
 21
2063.75244095199
 31
0.0
  0
LINE
  5
1E28
330
A
100
AcDbEntity
  8
1
  6
Continuous
 62
     3
100
AcDbLine
 10
2342.839650453185
 20
2075.252440951988
 30
0.0
 11
2342.839650453184
 21
2035.052440951989
 31
0.0
  0
ARC
  5
1E29
330
A
100
AcDbEntity
  8
1
  6
Continuous
 62
     3
100
AcDbCircle
 10
2345.339650453185
 20
2075.252440951988
 30
0.0
 40
2.5
100
AcDbArc
 50
0.0
 51
90.0
  0
ARC
  5
1E2A
330
A
100
AcDbEntity
  8
1
  6
Continuous
 62
     3
100
AcDbCircle
 10
2345.339650453185
 20
2075.252440951988
 30
0.0
 40
2.5
100
AcDbArc
 50
90.0
 51
180.0
  0
ARC
  5
1E2B
330
A
100
AcDbEntity
  8
1
  6
Continuous
 62
     3
100
AcDbCircle
 10
2340.339650453185
 20
2075.25244095199
 30
0.0
 40
2.5
100
AcDbArc
 50
270.0
 51
0.0
  0
ARC
  5
1E2C
330
A
100
AcDbEntity
  8
1
  6
Continuous
 62
     3
100
AcDbCircle
 10
2340.339650453185
 20
2075.252440951989
 30
0.0
 40
2.5
100
AcDbArc
 50
0.0
 51
90.0
  0
ARC
  5
1E2D
330
A
100
AcDbEntity
  8
1
  6
Continuous
 62
     3
100
AcDbCircle
 10
2155.339650453183
 20
2075.252440951988
 30
0.0
 40
2.5
100
AcDbArc
 50
0.0
 51
90.0
  0
LINE
  5
1E2E
330
A
100
AcDbEntity
  8
1
  6
Continuous
 62
     3
100
AcDbLine
 10
2157.839650453183
 20
2075.252440951988
 30
0.0
 11
2157.839650453184
 21
2035.052440951989
 31
0.0
  0
ARC
  5
1E2F
330
A
100
AcDbEntity
  8
1
  6
Continuous
 62
     3
100
AcDbCircle
 10
2160.339650453184
 20
2075.252440951989
 30
0.0
 40
2.5
100
AcDbArc
 50
180.0
 51
270.0
  0
ARC
  5
1E30
330
A
100
AcDbEntity
  8
1
  6
Continuous
 62
     3
100
AcDbCircle
 10
2160.339650453185
 20
2075.252440951988
 30
0.0
 40
2.5
100
AcDbArc
 50
90.0
 51
180.0
  0
ARC
  5
1E31
330
A
100
AcDbEntity
  8
1
  6
Continuous
 62
     3
100
AcDbCircle
 10
2155.339650453183
 20
2075.252440951988
 30
0.0
 40
2.5
100
AcDbArc
 50
90.0
 51
180.0
  0
LINE
  5
1E32
330
A
100
AcDbEntity
  8
1
  6
Continuous
 62
     3
100
AcDbLine
 10
2160.339650453184
 20
2072.752440951989
 30
0.0
 11
2340.339650453185
 21
2072.752440951989
 31
0.0
  0
LINE
  5
1E33
330
A
100
AcDbEntity
  8
1
  6
Continuous
 62
     3
100
AcDbLine
 10
2157.839650453184
 20
2035.052440951989
 30
0.0
 11
2342.839650453184
 21
2035.052440951989
 31
0.0
  0
ARC
  5
1E34
330
A
100
AcDbEntity
  8
1
  6
Continuous
 62
     3
100
AcDbCircle
 10
2479.339650453184
 20
2053.752440951989
 30
0.0
 40
5.0
100
AcDbArc
 50
0.0
 51
90.0
  0
LINE
  5
1E35
330
A
100
AcDbEntity
  8
1
  6
Continuous
 62
     3
100
AcDbLine
 10
2484.339650453184
 20
1982.752440951989
 30
0.0
 11
2484.339650453184
 21
2053.752440951989
 31
0.0
  0
ARC
  5
1E36
330
A
100
AcDbEntity
  8
1
  6
Continuous
 62
     3
100
AcDbCircle
 10
2479.339650453184
 20
1982.752440951989
 30
0.0
 40
5.0
100
AcDbArc
 50
270.0
 51
0.0
  0
LINE
  5
1E37
330
A
100
AcDbEntity
  8
1
  6
Continuous
 62
     3
100
AcDbLine
 10
2021.339650453183
 20
1977.752440951989
 30
0.0
 11
2479.339650453184
 21
1977.752440951989
 31
0.0
  0
ARC
  5
1E38
330
A
100
AcDbEntity
  8
1
  6
Continuous
 62
     3
100
AcDbCircle
 10
2021.339650453183
 20
1982.752440951989
 30
0.0
 40
5.0
100
AcDbArc
 50
180.0
 51
270.0
  0
LINE
  5
1E39
330
A
100
AcDbEntity
  8
1
  6
Continuous
 62
     3
100
AcDbLine
 10
2016.339650453184
 20
2053.752440951989
 30
0.0
 11
2016.339650453184
 21
1982.752440951989
 31
0.0
  0
ARC
  5
1E3A
330
A
100
AcDbEntity
  8
1
  6
Continuous
 62
     3
100
AcDbCircle
 10
2021.339650453183
 20
2053.752440951989
 30
0.0
 40
5.0
100
AcDbArc
 50
90.0
 51
180.0
  0
LINE
  5
1E3B
330
A
100
AcDbEntity
  8
1
  6
Continuous
 62
     3
100
AcDbLine
 10
2479.339650453184
 20
2058.752440951989
 30
0.0
 11
2347.839650453185
 21
2058.752440951989
 31
0.0
  0
ARC
  5
1E3C
330
A
100
AcDbEntity
  8
1
  6
Continuous
 62
     3
100
AcDbCircle
 10
2342.839650453184
 20
2035.052440951989
 30
0.0
 40
5.0
100
AcDbArc
 50
270.0
 51
0.0
  0
ARC
  5
1E3D
330
A
100
AcDbEntity
  8
1
  6
Continuous
 62
     3
100
AcDbCircle
 10
2157.839650453184
 20
2035.052440951989
 30
0.0
 40
5.0
100
AcDbArc
 50
180.0
 51
270.0
  0
LINE
  5
1E3E
330
A
100
AcDbEntity
  8
1
  6
Continuous
 62
     3
100
AcDbLine
 10
2160.339650453185
 20
2077.752440951989
 30
0.0
 11
2340.339650453185
 21
2077.752440951989
 31
0.0
  0
LINE
  5
1E3F
330
A
100
AcDbEntity
  8
1
  6
Continuous
 62
     3
100
AcDbLine
 10
2152.839650453183
 20
2075.252440951988
 30
0.0
 11
2152.839650453184
 21
2035.052440951989
 31
0.0
  0
LINE
  5
1E40
330
A
100
AcDbEntity
  8
1
  6
Continuous
 62
     3
100
AcDbLine
 10
2157.839650453184
 20
2030.05244095199
 30
0.0
 11
2342.839650453184
 21
2030.05244095199
 31
0.0
  0
LINE
  5
1E41
330
A
100
AcDbEntity
  8
1
  6
Continuous
 62
     3
100
AcDbLine
 10
2347.839650453184
 20
2035.052440951989
 30
0.0
 11
2347.839650453184
 21
2075.252440951988
 31
0.0
  0
ARC
  5
1E42
330
A
100
AcDbEntity
  8
1
  6
Continuous
 62
     3
100
AcDbCircle
 10
2021.339650453183
 20
1982.752440951989
 30
0.0
 40
10.0
100
AcDbArc
 50
180.0
 51
270.0
  0
ARC
  5
1E43
330
A
100
AcDbEntity
  8
1
  6
Continuous
 62
     3
100
AcDbCircle
 10
2021.339650453183
 20
2053.752440951989
 30
0.0
 40
10.0
100
AcDbArc
 50
90.0
 51
180.0
  0
ARC
  5
1E44
330
A
100
AcDbEntity
  8
1
  6
Continuous
 62
     3
100
AcDbCircle
 10
2479.339650453184
 20
2053.752440951989
 30
0.0
 40
10.0
100
AcDbArc
 50
0.0
 51
90.0
  0
ARC
  5
1E45
330
A
100
AcDbEntity
  8
1
  6
Continuous
 62
     3
100
AcDbCircle
 10
2479.339650453184
 20
1982.752440951989
 30
0.0
 40
10.0
100
AcDbArc
 50
270.0
 51
0.0
  0
LINE
  5
1E46
330
A
100
AcDbEntity
  8
1
  6
Continuous
 62
     3
100
AcDbLine
 10
2011.339650453184
 20
2053.752440951989
 30
0.0
 11
2011.339650453184
 21
1982.752440951989
 31
0.0
  0
LINE
  5
1E47
330
A
100
AcDbEntity
  8
1
  6
Continuous
 62
     3
100
AcDbLine
 10
2479.339650453184
 20
2063.75244095199
 30
0.0
 11
2347.839650453185
 21
2063.75244095199
 31
0.0
  0
LINE
  5
1E48
330
A
100
AcDbEntity
  8
1
  6
Continuous
 62
     3
100
AcDbLine
 10
2489.339650453184
 20
1982.752440951989
 30
0.0
 11
2489.339650453184
 21
2053.752440951989
 31
0.0
  0
LINE
  5
1E49
330
A
100
AcDbEntity
  8
1
  6
Continuous
 62
     3
100
AcDbLine
 10
2021.339650453183
 20
1972.752440951989
 30
0.0
 11
2479.339650453184
 21
1972.752440951989
 31
0.0
  0
TEXT
  5
1E4A
330
A
100
AcDbEntity
  8
1
 62
     3
100
AcDbText
 10
2373.839580754331
 20
2194.752439016238
 30
0.0
 40
20.0
  1
287
 41
0.75
 51
15.0
 72
     1
 11
2393.839580754331
 21
2194.752439016238
 31
0.0
100
AcDbText
  0
LINE
  5
1E4B
330
A
100
AcDbEntity
  8
1
  6
Continuous
 62
     3
100
AcDbLine
 10
2250.339650453184
 20
2189.752440951989
 30
0.0
 11
2269.658166978966
 21
2184.576060049939
 31
0.0
  0
LINE
  5
1E4C
330
A
100
AcDbEntity
  8
1
  6
Continuous
 62
     3
100
AcDbLine
 10
2250.339650453184
 20
2189.752440951989
 30
0.0
 11
2269.658166978966
 21
2194.928821854039
 31
0.0
  0
LINE
  5
1E4D
330
A
100
AcDbEntity
  8
1
  6
Continuous
 62
     3
100
AcDbLine
 10
2537.339650453184
 20
2189.752440951989
 30
0.0
 11
2518.021133927403
 21
2194.928821854039
 31
0.0
  0
LINE
  5
1E4E
330
A
100
AcDbEntity
  8
1
  6
Continuous
 62
     3
100
AcDbLine
 10
2537.339650453184
 20
2189.752440951989
 30
0.0
 11
2518.021133927403
 21
2184.576060049939
 31
0.0
  0
LINE
  5
1E4F
330
A
100
AcDbEntity
  8
1
  6
Continuous
 62
     3
100
AcDbLine
 10
2537.339650453184
 20
2189.752440951989
 30
0.0
 11
2250.339650453184
 21
2189.752440951989
 31
0.0
  0
LINE
  5
1E50
330
A
100
AcDbEntity
  8
1
  6
Continuous
 62
     3
100
AcDbLine
 10
2250.339650453184
 20
2106.357537410775
 30
0.0
 11
2250.339650453184
 21
2194.752440951989
 31
0.0
  0
LINE
  5
1E51
330
A
100
AcDbEntity
  8
1
  6
Continuous
 62
     3
100
AcDbLine
 10
2537.339650453184
 20
2052.252440951989
 30
0.0
 11
2537.339650453184
 21
2194.752440951989
 31
0.0
  0
TEXT
  5
1E52
330
A
100
AcDbEntity
  8
1
 62
     3
100
AcDbText
 10
2571.306438664487
 20
2143.371335500613
 30
0.0
 40
20.0
  1
給水栓穴%%c
 41
0.75
 51
15.0
  7
BIGFONT
 72
     1
 11
2612.306438664487
 21
2153.371335500613
 31
0.0
100
AcDbText
 73
     2
  0
LINE
  5
1E53
330
A
100
AcDbEntity
  8
1
  6
Continuous
 62
     3
100
AcDbLine
 10
2572.339650453184
 20
2139.752440951989
 30
0.0
 11
2653.055880616367
 21
2139.752440951989
 31
0.0
  0
LINE
  5
1E54
330
A
100
AcDbEntity
  8
1
  6
Continuous
 62
     3
100
AcDbLine
 10
2542.434978729382
 20
2041.494233859495
 30
0.0
 11
2553.011897619696
 21
2058.468590600995
 31
0.0
  0
LINE
  5
1E55
330
A
100
AcDbEntity
  8
1
  6
Continuous
 62
     3
100
AcDbLine
 10
2542.434978729382
 20
2041.494233859495
 30
0.0
 11
2543.10768081141
 21
2061.48291745569
 31
0.0
  0
LINE
  5
1E56
330
A
100
AcDbEntity
  8
1
  6
Continuous
 62
     3
100
AcDbLine
 10
2542.434978729382
 20
2041.494233859495
 30
0.0
 11
2572.339650453184
 21
2139.752440951989
 31
0.0
  0
LINE
  5
1E57
330
A
100
AcDbEntity
  8
1
  6
DOT
 62
     5
100
AcDbLine
 10
2520.113534635524
 20
2027.836421145918
 30
0.0
 11
2502.339650453184
 21
2045.610305328259
 31
0.0
  0
LINE
  5
1E58
330
A
100
AcDbEntity
  8
1
  6
DOT
 62
     5
100
AcDbLine
 10
2524.965281782419
 20
2037.126809622754
 30
0.0
 11
2502.339650453184
 21
2059.752440951989
 31
0.0
  0
LINE
  5
1E59
330
A
100
AcDbEntity
  8
1
  6
DOT
 62
     5
100
AcDbLine
 10
2534.255670259256
 20
2041.97855676965
 30
0.0
 11
2516.481786076914
 21
2059.752440951989
 31
0.0
  0
LINE
  5
1E5A
330
A
100
AcDbEntity
  8
1
  6
DOT
 62
     5
100
AcDbLine
 10
2529.913243581992
 20
1989.752440951989
 30
0.0
 11
2502.339650453184
 21
2017.326034080797
 31
0.0
  0
LINE
  5
1E5B
330
A
100
AcDbEntity
  8
1
  6
DOT
 62
     5
100
AcDbLine
 10
2544.055379205722
 20
1989.752440951989
 30
0.0
 11
2502.339650453184
 21
2031.468169704527
 31
0.0
  0
LINE
  5
1E5C
330
A
100
AcDbEntity
  8
1
  6
DOT
 62
     5
100
AcDbLine
 10
2558.197514829453
 20
1989.752440951989
 30
0.0
 11
2540.423630647114
 21
2007.526325134329
 31
0.0
  0
LINE
  5
1E5D
330
A
100
AcDbEntity
  8
1
  6
DOT
 62
     5
100
AcDbLine
 10
2572.339650453184
 20
2046.320983446914
 30
0.0
 11
2558.908192948109
 21
2059.752440951989
 31
0.0
  0
LINE
  5
1E5E
330
A
100
AcDbEntity
  8
1
  6
DOT
 62
     5
100
AcDbLine
 10
2572.339650453184
 20
2032.178847823182
 30
0.0
 11
2544.766057324378
 21
2059.752440951989
 31
0.0
  0
LINE
  5
1E5F
330
A
100
AcDbEntity
  8
1
  6
DOT
 62
     5
100
AcDbLine
 10
2572.339650453184
 20
2018.036712199451
 30
0.0
 11
2530.623921700646
 21
2059.752440951989
 31
0.0
  0
LINE
  5
1E60
330
A
100
AcDbEntity
  8
1
  6
DOT
 62
     5
100
AcDbLine
 10
2572.339650453184
 20
2003.89457657572
 30
0.0
 11
2554.565766270846
 21
2021.66846075806
 31
0.0
  0
LINE
  5
1E61
330
A
100
AcDbEntity
  8
1
  6
DOT
 62
     5
100
AcDbLine
 10
2572.339650453184
 20
1989.752440951989
 30
0.0
 11
2549.714019123949
 21
2012.378072281225
 31
0.0
  0
LINE
  5
1E62
330
A
100
AcDbEntity
  8
1
  6
DOT
 62
     4
100
AcDbLine
 10
2527.339650453184
 20
1989.752440951989
 30
0.0
 11
2502.339650453184
 21
2014.752440951989
 31
0.0
  0
LINE
  5
1E63
330
A
100
AcDbEntity
  8
1
  6
DOT
 62
     4
100
AcDbLine
 10
2527.339650453184
 20
1989.752440951989
 30
0.0
 11
2572.339650453184
 21
1989.752440951989
 31
0.0
  0
LINE
  5
1E64
330
A
100
AcDbEntity
  8
1
  6
DOT
 62
     4
100
AcDbLine
 10
2572.339650453184
 20
1989.752440951989
 30
0.0
 11
2572.339650453184
 21
2059.752440951989
 31
0.0
  0
LINE
  5
1E65
330
A
100
AcDbEntity
  8
1
  6
DOT
 62
     4
100
AcDbLine
 10
2572.339650453184
 20
2059.752440951989
 30
0.0
 11
2502.339650453184
 21
2059.752440951989
 31
0.0
  0
LINE
  5
1E66
330
A
100
AcDbEntity
  8
1
  6
DOT
 62
     4
100
AcDbLine
 10
2502.339650453184
 20
2059.752440951989
 30
0.0
 11
2502.339650453184
 21
2014.752440951989
 31
0.0
  0
CIRCLE
  5
1E67
330
A
100
AcDbEntity
  8
1
  6
DASHED
 62
     2
100
AcDbCircle
 10
2537.339650453184
 20
2024.752440951989
 30
0.0
 40
17.5
  0
LINE
  5
1E68
330
A
100
AcDbEntity
  8
1
  6
DIVIDE
 62
     3
100
AcDbLine
 10
2974.217638695968
 20
2056.752440951989
 30
0.0
 11
2974.217638695968
 21
1587.752440951989
 31
0.0
  0
LINE
  5
1E69
330
A
100
AcDbEntity
  8
1
  6
Continuous
 62
     3
100
AcDbLine
 10
2435.937955560025
 20
1098.620112141349
 30
0.0
 11
2518.503920202882
 21
1098.620112141349
 31
0.0
  0
TEXT
  5
1E6A
330
A
100
AcDbEntity
  8
1
 62
     2
100
AcDbText
 10
2434.889521065814
 20
1103.208875234566
 30
0.0
 40
20.0
  1
防滴パツト
 50
0.1456066965960455
 41
0.75
 51
15.0
  7
BIGFONT
 72
     1
 11
2476.889385441831
 21
1103.315610402957
 31
0.0
100
AcDbText
  0
CIRCLE
  5
1E6B
330
A
100
AcDbEntity
  8
1
  6
Continuous
 62
     3
100
AcDbCircle
 10
2366.885455560025
 20
1146.847254998492
 30
0.0
 40
2.5
  0
LINE
  5
1E6C
330
A
100
AcDbEntity
  8
1
  6
Continuous
 62
     3
100
AcDbLine
 10
2435.937955560025
 20
1098.620112141349
 30
0.0
 11
2366.885455560025
 21
1146.847254998492
 31
0.0
  0
LINE
  5
1E6D
330
A
100
AcDbEntity
  8
4
  6
DIVIDE
 62
     3
100
AcDbLine
 10
2624.339650453185
 20
1241.244946950292
 30
0.0
 11
1876.339650453185
 21
1241.244946950292
 31
0.0
  0
LINE
  5
1E72
330
A
100
AcDbEntity
  8
4
  6
Continuous
 62
     3
100
AcDbLine
 10
3406.144329289487
 20
1547.478929669139
 30
0.0
 11
3406.144329289487
 21
1543.47892966914
 31
0.0
  0
LINE
  5
1E73
330
A
100
AcDbEntity
  8
4
  6
Continuous
 62
     3
100
AcDbLine
 10
3403.144329289488
 20
1543.47892966914
 30
0.0
 11
3403.144329289488
 21
1547.478929669139
 31
0.0
  0
LINE
  5
1E74
330
A
100
AcDbEntity
  8
4
  6
Continuous
 62
     3
100
AcDbLine
 10
3386.144329289488
 20
1517.079036869167
 30
0.0
 11
3386.144329289488
 21
1501.47892966914
 31
0.0
  0
LINE
  5
1E75
330
A
100
AcDbEntity
  8
1
  6
Continuous
 62
     3
100
AcDbLine
 10
3389.144329289486
 20
1543.47892966914
 30
0.0
 11
3389.144329289486
 21
1547.478929669139
 31
0.0
  0
LINE
  5
1E76
330
A
100
AcDbEntity
  8
4
  6
Continuous
 62
     3
100
AcDbLine
 10
3389.144329289488
 20
1498.47892966914
 30
0.0
 11
3386.144329289488
 21
1501.47892966914
 31
0.0
  0
LINE
  5
1E77
330
A
100
AcDbEntity
  8
4
  6
Continuous
 62
     3
100
AcDbLine
 10
3386.144329289488
 20
1547.478929669139
 30
0.0
 11
3386.144329289488
 21
1543.47892966914
 31
0.0
  0
LINE
  5
1E78
330
A
100
AcDbEntity
  8
1
  6
Continuous
 62
     2
100
AcDbLine
 10
3217.927766789486
 20
1381.485715383426
 30
0.0
 11
3242.306516789487
 21
1381.485715383426
 31
0.0
  0
LINE
  5
1E79
330
A
100
AcDbEntity
  8
1
  6
Continuous
 62
     2
100
AcDbLine
 10
3569.678302503773
 20
1381.485715383426
 30
0.0
 11
3231.858481075201
 21
1381.485715383426
 31
0.0
  0
TEXT
  5
1E7A
330
A
100
AcDbEntity
  8
1
 62
     2
100
AcDbText
 10
3199.952475448242
 20
1392.60577153577
 30
0.0
 40
30.0
  1
アミカゴ用ピン取付詳細　Ｓ＝１／１
 41
0.6666666666670001
  7
BIGFONT
 72
     1
 11
3397.285808781674
 21
1407.60577153577
 31
0.0
100
AcDbText
 73
     2
  0
CIRCLE
  5
1E7B
330
A
100
AcDbEntity
  8
1
  6
Continuous
 62
     3
100
AcDbCircle
 10
3396.144329289488
 20
1524.042038240569
 30
0.0
 40
2.5
  0
LINE
  5
1E7C
330
A
100
AcDbEntity
  8
1
  6
Continuous
 62
     3
100
AcDbLine
 10
3442.738275003772
 20
1471.294838240569
 30
0.0
 11
3396.144329289488
 21
1524.042038240569
 31
0.0
  0
CIRCLE
  5
1E7D
330
A
100
AcDbEntity
  8
1
  6
Continuous
 62
     3
100
AcDbCircle
 10
3409.588712605813
 20
1539.478929669139
 30
0.0
 40
2.5
  0
LINE
  5
1E7E
330
A
100
AcDbEntity
  8
1
  6
Continuous
 62
     3
100
AcDbLine
 10
3441.27910339663
 20
1505.577795740569
 30
0.0
 11
3409.588712605813
 21
1539.478929669139
 31
0.0
  0
LINE
  5
1E7F
330
A
100
AcDbEntity
  8
1
  6
Continuous
 62
     3
100
AcDbLine
 10
3532.674269873437
 20
1471.294838240569
 30
0.0
 11
3441.936142400047
 21
1471.294838240569
 31
0.0
  0
LINE
  5
1E80
330
A
100
AcDbEntity
  8
1
  6
Continuous
 62
     3
100
AcDbLine
 10
3557.942630360916
 20
1543.47892966914
 30
0.0
 11
3556.666750182343
 21
1543.47892966914
 31
0.0
  0
LINE
  5
1E81
330
A
100
AcDbEntity
  8
1
  6
Continuous
 62
     3
100
AcDbLine
 10
3557.631373855813
 20
1543.47892966914
 30
0.0
 11
3513.300757860915
 21
1543.47892966914
 31
0.0
  0
LINE
  5
1E82
330
A
100
AcDbEntity
  8
1
  6
Continuous
 62
     3
100
AcDbLine
 10
3557.942630360916
 20
1547.478929669139
 30
0.0
 11
3513.300757860915
 21
1547.478929669139
 31
0.0
  0
TEXT
  5
1E83
330
A
100
AcDbEntity
  8
1
 62
     2
100
AcDbText
 10
3442.655177462
 20
1474.484372602422
 30
0.0
 40
17.391794204712
  1
M4六角ナット
 50
0.0000000100051599
 41
0.661436347463
 51
15.0
  7
BIGFONT
 72
     1
 11
3485.985271672299
 21
1474.484372609988
 31
0.0
100
AcDbText
  0
LINE
  5
1E84
330
A
100
AcDbEntity
  8
1
  6
Continuous
 62
     3
100
AcDbLine
 10
3538.779708100217
 20
1505.577795740569
 30
0.0
 11
3512.688945443075
 21
1505.577795740569
 31
0.0
  0
TEXT
  5
1E85
330
A
100
AcDbEntity
  8
1
 62
     2
100
AcDbText
 10
3435.465543329616
 20
1508.972714885771
 30
0.0
 40
17.391794204712
  1
バネ座金＋平座金
 50
0.0000000100051599
 41
0.661436347463
 51
15.0
  7
BIGFONT
 72
     1
 11
3489.148845891049
 21
1508.972714895145
 31
0.0
100
AcDbText
  0
CIRCLE
  5
1E86
330
A
100
AcDbEntity
  8
1
  6
Continuous
 62
     3
100
AcDbCircle
 10
3416.144329289487
 20
1591.4498464421
 30
0.0
 40
2.5
  0
LINE
  5
1E87
330
A
100
AcDbEntity
  8
1
  6
Continuous
 62
     3
100
AcDbLine
 10
3453.53196214663
 20
1642.651251097712
 30
0.0
 11
3416.144329289487
 21
1591.4498464421
 31
0.0
  0
LINE
  5
1E88
330
A
100
AcDbEntity
  8
1
  6
Continuous
 62
     3
100
AcDbLine
 10
3256.43253719765
 20
1458.755329031385
 30
0.0
 11
3328.357701929794
 21
1458.755329031385
 31
0.0
  0
TEXT
  5
1E89
330
A
100
AcDbEntity
  8
1
 62
     2
100
AcDbText
 10
3213.217998341583
 20
1662.775815472201
 30
0.0
 40
16.8188400268555
  1
t0.4 塩ビシート
 50
0.0000000100051599
 41
0.650292880994
 51
15.0
  7
BIGFONT
 72
     1
 11
3264.075847844174
 21
1662.775815481082
 31
0.0
100
AcDbText
  0
LINE
  5
1E8A
330
A
100
AcDbEntity
  8
1
  6
Continuous
 62
     3
100
AcDbLine
 10
3323.430716919317
 20
1658.059400127413
 30
0.0
 11
3208.325985573651
 21
1658.059400127413
 31
0.0
  0
CIRCLE
  5
1E8B
330
A
100
AcDbEntity
  8
1
  6
Continuous
 62
     3
100
AcDbCircle
 10
3385.335782516982
 20
1549.47892966914
 30
0.0
 40
2.5
  0
LINE
  5
1E8C
330
A
100
AcDbEntity
  8
1
  6
Continuous
 62
     3
100
AcDbLine
 10
3323.430716919317
 20
1658.059400127413
 30
0.0
 11
3385.335782516982
 21
1549.47892966914
 31
0.0
  0
LINE
  5
1E8D
330
A
100
AcDbEntity
  8
1
  6
Continuous
 62
     3
100
AcDbLine
 10
3414.058059319488
 20
1547.478929669139
 30
0.0
 11
3414.058059319488
 21
1549.47892966914
 31
0.0
  0
LINE
  5
1E8E
330
A
100
AcDbEntity
  8
1
  6
Continuous
 62
     3
100
AcDbLine
 10
3378.230599259487
 20
1547.478929669139
 30
0.0
 11
3378.230599259487
 21
1549.47892966914
 31
0.0
  0
LINE
  5
1E8F
330
A
100
AcDbEntity
  8
1
  6
Continuous
 62
     3
100
AcDbLine
 10
3376.144329289488
 20
1549.47892966914
 30
0.0
 11
3416.144329289487
 21
1549.47892966914
 31
0.0
  0
TEXT
  5
1E90
330
A
100
AcDbEntity
  8
1
 62
     2
100
AcDbText
 10
3255.902263859799
 20
1461.975400435995
 30
0.0
 40
20.0
  1
シリコン
 50
0.0000000100051599
 41
0.75
 51
15.0
  7
BIGFONT
 72
     1
 11
3290.4022638598
 21
1461.97540044202
 31
0.0
100
AcDbText
  0
TEXT
  5
1E91
330
A
100
AcDbEntity
  8
1
 62
     2
100
AcDbText
 10
3261.156170109799
 20
1491.698972214997
 30
0.0
 40
20.0
  1
シンク
 50
0.0000000100051599
 41
0.75
 51
15.0
  7
BIGFONT
 72
     1
 11
3286.156170109799
 21
1491.698972219363
 31
0.0
100
AcDbText
  0
TEXT
  5
1E92
330
A
100
AcDbEntity
  8
1
 62
     2
100
AcDbText
 10
3477.676677922299
 20
1604.00811527992
 30
0.0
 40
20.0
  1
アミカゴ
 50
0.0000000100051599
 41
0.75
 51
15.0
  7
BIGFONT
 72
     1
 11
3511.176677922299
 21
1604.00811528577
 31
0.0
100
AcDbText
  0
TEXT
  5
1E93
330
A
100
AcDbEntity
  8
1
 62
     2
100
AcDbText
 10
3448.067791203549
 20
1646.273923380674
 30
0.0
 40
20.0
  1
アミカゴ用ピン
 50
0.0000000100051599
 41
0.75
 51
15.0
  7
BIGFONT
 72
     1
 11
3508.56779120355
 21
1646.273923391238
 31
0.0
100
AcDbText
  0
LINE
  5
1E94
330
A
100
AcDbEntity
  8
1
  6
Continuous
 62
     3
100
AcDbLine
 10
3514.96565093491
 20
1505.577795740569
 30
0.0
 11
3441.27910339663
 21
1505.577795740569
 31
0.0
  0
LINE
  5
1E95
330
A
100
AcDbEntity
  8
1
  6
Continuous
 62
     3
100
AcDbLine
 10
3561.787266948926
 20
1642.651251097712
 30
0.0
 11
3453.53196214663
 21
1642.651251097712
 31
0.0
  0
CIRCLE
  5
1E96
330
A
100
AcDbEntity
  8
1
  6
Continuous
 62
     3
100
AcDbCircle
 10
3441.248616700201
 20
1555.934198776284
 30
0.0
 40
2.5
  0
LINE
  5
1E97
330
A
100
AcDbEntity
  8
1
  6
Continuous
 62
     3
100
AcDbLine
 10
3474.248032255049
 20
1600.5677261066
 30
0.0
 11
3441.248616700201
 21
1555.934198776284
 31
0.0
  0
CIRCLE
  5
1E98
330
A
100
AcDbEntity
  8
1
  6
Continuous
 62
     3
100
AcDbCircle
 10
3375.301767817255
 20
1543.47892966914
 30
0.0
 40
2.5
  0
LINE
  5
1E99
330
A
100
AcDbEntity
  8
1
  6
Continuous
 62
     3
100
AcDbLine
 10
3328.357701929794
 20
1458.755329031385
 30
0.0
 11
3375.301767817255
 21
1543.47892966914
 31
0.0
  0
CIRCLE
  5
1E9A
330
A
100
AcDbEntity
  8
1
  6
Continuous
 62
     3
100
AcDbCircle
 10
3346.327175543291
 20
1541.391243789804
 30
0.0
 40
2.5
  0
LINE
  5
1E9B
330
A
100
AcDbEntity
  8
1
  6
Continuous
 62
     3
100
AcDbLine
 10
3317.430708472254
 20
1488.2822136726
 30
0.0
 11
3346.327175543291
 21
1541.391243789804
 31
0.0
  0
LINE
  5
1E9C
330
A
100
AcDbEntity
  8
1
  6
Continuous
 62
     3
100
AcDbLine
 10
3252.717090769078
 20
1488.2822136726
 30
0.0
 11
3317.430708472254
 21
1488.2822136726
 31
0.0
  0
LINE
  5
1E9D
330
A
100
AcDbEntity
  8
1
  6
Continuous
 62
     3
100
AcDbLine
 10
3551.877289289486
 20
1600.5677261066
 30
0.0
 11
3474.248032255049
 21
1600.5677261066
 31
0.0
  0
LINE
  5
1E9E
330
A
100
AcDbEntity
  8
1
  6
Continuous
 62
     3
100
AcDbLine
 10
3416.144329289487
 20
1642.651251097712
 30
0.0
 11
3376.144329289487
 21
1642.651251097712
 31
0.0
  0
LINE
  5
1E9F
330
A
100
AcDbEntity
  8
1
  6
Continuous
 62
     3
100
AcDbLine
 10
3416.144329289487
 20
1642.651251097712
 30
0.0
 11
3435.462845815268
 21
1637.474870195661
 31
0.0
  0
LINE
  5
1EA0
330
A
100
AcDbEntity
  8
1
  6
Continuous
 62
     3
100
AcDbLine
 10
3416.144329289487
 20
1642.651251097712
 30
0.0
 11
3435.462845815268
 21
1647.827631999762
 31
0.0
  0
LINE
  5
1EA1
330
A
100
AcDbEntity
  8
1
  6
Continuous
 62
     3
100
AcDbLine
 10
3444.867573575203
 20
1642.651251097712
 30
0.0
 11
3416.144329289487
 21
1642.651251097712
 31
0.0
  0
LINE
  5
1EA2
330
A
100
AcDbEntity
  8
1
  6
Continuous
 62
     3
100
AcDbLine
 10
3376.144329289487
 20
1642.651251097712
 30
0.0
 11
3356.825812763706
 21
1647.827631999762
 31
0.0
  0
LINE
  5
1EA3
330
A
100
AcDbEntity
  8
1
  6
Continuous
 62
     3
100
AcDbLine
 10
3376.144329289487
 20
1642.651251097712
 30
0.0
 11
3356.825812763706
 21
1637.474870195661
 31
0.0
  0
LINE
  5
1EA4
330
A
100
AcDbEntity
  8
1
  6
Continuous
 62
     3
100
AcDbLine
 10
3346.559725003772
 20
1642.651251097712
 30
0.0
 11
3376.144329289487
 21
1642.651251097712
 31
0.0
  0
TEXT
  5
1EA5
330
A
100
AcDbEntity
  8
1
 62
     2
100
AcDbText
 10
3378.644451359799
 20
1687.905393114745
 30
0.0
 40
20.0
  1
%%c12
 50
0.0000000100051599
 41
0.75
 51
15.0
 72
     1
 11
3396.144451359799
 21
1687.905393117801
 31
0.0
100
AcDbText
  0
LINE
  5
1EA6
330
A
100
AcDbEntity
  8
1
  6
Continuous
 62
     3
100
AcDbLine
 10
3426.144329289487
 20
1598.978929669141
 30
0.0
 11
3426.144329289487
 21
1687.905358240568
 31
0.0
  0
LINE
  5
1EA7
330
A
100
AcDbEntity
  8
1
  6
Continuous
 62
     3
100
AcDbLine
 10
3366.144329289487
 20
1598.97892966914
 30
0.0
 11
3366.144329289487
 21
1687.905358240568
 31
0.0
  0
LINE
  5
1EA8
330
A
100
AcDbEntity
  8
1
  6
Continuous
 62
     3
100
AcDbLine
 10
3426.144329289487
 20
1682.905358240568
 30
0.0
 11
3406.825812763706
 21
1688.081739142619
 31
0.0
  0
LINE
  5
1EA9
330
A
100
AcDbEntity
  8
1
  6
Continuous
 62
     3
100
AcDbLine
 10
3426.144329289487
 20
1682.905358240568
 30
0.0
 11
3406.825812763706
 21
1677.728977338519
 31
0.0
  0
LINE
  5
1EAA
330
A
100
AcDbEntity
  8
1
  6
Continuous
 62
     3
100
AcDbLine
 10
3366.144329289487
 20
1682.905358240568
 30
0.0
 11
3385.462845815268
 21
1677.728977338519
 31
0.0
  0
LINE
  5
1EAB
330
A
100
AcDbEntity
  8
1
  6
Continuous
 62
     3
100
AcDbLine
 10
3366.144329289487
 20
1682.905358240568
 30
0.0
 11
3385.462845815268
 21
1688.081739142619
 31
0.0
  0
LINE
  5
1EAC
330
A
100
AcDbEntity
  8
1
  6
Continuous
 62
     3
100
AcDbLine
 10
3366.144329289487
 20
1682.905358240568
 30
0.0
 11
3426.144329289487
 21
1682.905358240568
 31
0.0
  0
TEXT
  5
1EAD
330
A
100
AcDbEntity
  8
1
 62
     2
100
AcDbText
 10
3383.644451359799
 20
1647.65130376015
 30
0.0
 40
20.0
  1
%%c8
 50
0.0000000100051599
 41
0.75
 51
15.0
 72
     1
 11
3396.144451359799
 21
1647.651303762333
 31
0.0
100
AcDbText
  0
LINE
  5
1EAE
330
A
100
AcDbEntity
  8
1
  6
Continuous
 62
     3
100
AcDbLine
 10
3416.144329289487
 20
1603.97892966914
 30
0.0
 11
3416.144329289486
 21
1647.651251097712
 31
0.0
  0
LINE
  5
1EAF
330
A
100
AcDbEntity
  8
1
  6
Continuous
 62
     3
100
AcDbLine
 10
3376.144329289487
 20
1603.978929669139
 30
0.0
 11
3376.144329289487
 21
1647.651251097712
 31
0.0
  0
LINE
  5
1EB0
330
A
100
AcDbEntity
  8
1
  6
Continuous
 62
     3
100
AcDbLine
 10
3320.61970964663
 20
1547.478929669139
 30
0.0
 11
3315.443328744579
 21
1528.160413143359
 31
0.0
  0
LINE
  5
1EB1
330
A
100
AcDbEntity
  8
1
  6
Continuous
 62
     3
100
AcDbLine
 10
3320.61970964663
 20
1547.478929669139
 30
0.0
 11
3325.79609054868
 21
1528.160413143359
 31
0.0
  0
LINE
  5
1EB2
330
A
100
AcDbEntity
  8
1
  6
Continuous
 62
     3
100
AcDbLine
 10
3320.61970964663
 20
1516.745911238018
 30
0.0
 11
3320.61970964663
 21
1547.478929669139
 31
0.0
  0
TEXT
  5
1EB3
330
A
100
AcDbEntity
  8
1
 62
     2
100
AcDbText
 10
3271.340984562924
 20
1560.034238332645
 30
0.0
 40
20.0
  1
10.3
 50
90.0
 41
0.75
 51
15.0
 72
     1
 11
3271.340984562924
 21
1578.784238332645
 31
0.0
100
AcDbText
  0
LINE
  5
1EB4
330
A
100
AcDbEntity
  8
1
  6
Continuous
 62
     3
100
AcDbLine
 10
3280.686998932344
 20
1598.978929669139
 30
0.0
 11
3285.863379834395
 21
1618.297446194921
 31
0.0
  0
LINE
  5
1EB5
330
A
100
AcDbEntity
  8
1
  6
Continuous
 62
     3
100
AcDbLine
 10
3280.686998932344
 20
1598.978929669139
 30
0.0
 11
3275.510618030294
 21
1618.297446194921
 31
0.0
  0
LINE
  5
1EB6
330
A
100
AcDbEntity
  8
1
  6
Continuous
 62
     3
100
AcDbLine
 10
3280.686998932344
 20
1598.978929669139
 30
0.0
 11
3280.686998932344
 21
1628.978929669139
 31
0.0
  0
LINE
  5
1EB7
330
A
100
AcDbEntity
  8
1
  6
Continuous
 62
     3
100
AcDbLine
 10
3280.686998932344
 20
1547.478929669139
 30
0.0
 11
3275.510618030294
 21
1528.160413143359
 31
0.0
  0
LINE
  5
1EB8
330
A
100
AcDbEntity
  8
1
  6
Continuous
 62
     3
100
AcDbLine
 10
3280.686998932344
 20
1547.478929669139
 30
0.0
 11
3285.863379834395
 21
1528.160413143359
 31
0.0
  0
LINE
  5
1EB9
330
A
100
AcDbEntity
  8
1
  6
Continuous
 62
     3
100
AcDbLine
 10
3280.686998932344
 20
1517.478929669139
 30
0.0
 11
3280.686998932344
 21
1547.478929669139
 31
0.0
  0
LINE
  5
1EBA
330
A
100
AcDbEntity
  8
1
  6
Continuous
 62
     3
100
AcDbLine
 10
3323.266398932345
 20
1598.978929669139
 30
0.0
 11
3275.686998932344
 21
1598.978929669139
 31
0.0
  0
LINE
  5
1EBB
330
A
100
AcDbEntity
  8
1
  6
Continuous
 62
     3
100
AcDbLine
 10
3280.686998932344
 20
1547.478929669139
 30
0.0
 11
3280.686998932344
 21
1598.978929669139
 31
0.0
  0
TEXT
  5
1EBC
330
A
100
AcDbEntity
  8
1
 62
     2
100
AcDbText
 10
3313.931316594175
 20
1553.884073728449
 30
0.0
 40
19.743007659912
  1
7.3
 50
90.0
 41
0.601093254367
 51
15.0
 72
     1
 11
3313.931316594175
 21
1565.751462453738
 31
0.0
100
AcDbText
  0
CIRCLE
  5
1EBD
330
A
100
AcDbEntity
  8
1
  6
Continuous
 62
     3
100
AcDbCircle
 10
3320.61970964663
 20
1583.97892966914
 30
0.0
 40
2.5
  0
LINE
  5
1EBE
330
A
100
AcDbEntity
  8
1
  6
Continuous
 62
     3
100
AcDbLine
 10
3320.61970964663
 20
1547.478929669139
 30
0.0
 11
3320.61970964663
 21
1583.97892966914
 31
0.0
  0
TEXT
  5
1EBF
330
A
100
AcDbEntity
  8
1
 62
     2
100
AcDbText
 10
3315.619793156674
 20
1606.478940481083
 30
0.0
 40
20.0
  1
3
 50
90.0
 41
0.75
 51
15.0
 72
     1
 11
3315.619793156674
 21
1611.478940481083
 31
0.0
100
AcDbText
  0
LINE
  5
1EC0
330
A
100
AcDbEntity
  8
1
  6
Continuous
 62
     3
100
AcDbLine
 10
3320.61970964663
 20
1598.978929669139
 30
0.0
 11
3325.79609054868
 21
1618.297446194921
 31
0.0
  0
LINE
  5
1EC1
330
A
100
AcDbEntity
  8
1
  6
Continuous
 62
     3
100
AcDbLine
 10
3320.61970964663
 20
1598.978929669139
 30
0.0
 11
3315.443328744579
 21
1618.297446194921
 31
0.0
  0
LINE
  5
1EC2
330
A
100
AcDbEntity
  8
1
  6
Continuous
 62
     3
100
AcDbLine
 10
3320.61970964663
 20
1598.978929669139
 30
0.0
 11
3320.61970964663
 21
1623.97892966914
 31
0.0
  0
LINE
  5
1EC3
330
A
100
AcDbEntity
  8
1
  6
Continuous
 62
     3
100
AcDbLine
 10
3366.144329289487
 20
1598.978929669139
 30
0.0
 11
3315.619709646629
 21
1598.978929669139
 31
0.0
  0
LINE
  5
1EC4
330
A
100
AcDbEntity
  8
1
  6
Continuous
 62
     3
100
AcDbLine
 10
3362.144329289487
 20
1583.978929669141
 30
0.0
 11
3315.619709646629
 21
1583.97892966914
 31
0.0
  0
LINE
  5
1EC5
330
A
100
AcDbEntity
  8
1
  6
Continuous
 62
     3
100
AcDbLine
 10
3320.61970964663
 20
1583.97892966914
 30
0.0
 11
3320.61970964663
 21
1598.978929669139
 31
0.0
  0
LINE
  5
1EC6
330
A
100
AcDbEntity
  8
1
  6
Continuous
 62
     3
100
AcDbLine
 10
3222.063972146628
 20
1543.47892966914
 30
0.0
 11
3297.622186432344
 21
1543.47892966914
 31
0.0
  0
LINE
  5
1EC7
330
A
100
AcDbEntity
  8
1
  6
Continuous
 62
     3
100
AcDbLine
 10
3222.063972146628
 20
1547.478929669139
 30
0.0
 11
3297.622186432344
 21
1547.478929669139
 31
0.0
  0
LINE
  5
1EC8
330
A
100
AcDbEntity
  8
1
  6
Continuous
 62
     3
100
AcDbLine
 10
3557.631373855813
 20
1545.315994975262
 30
0.0
 11
3557.942630360916
 21
1543.47892966914
 31
0.0
  0
LINE
  5
1EC9
330
A
100
AcDbEntity
  8
1
  6
Continuous
 62
     3
100
AcDbLine
 10
3557.942630360916
 20
1547.478929669139
 30
0.0
 11
3557.631373855813
 21
1545.315994975262
 31
0.0
  0
LINE
  5
1ECA
330
A
100
AcDbEntity
  8
1
  6
Continuous
 62
     3
100
AcDbLine
 10
3219.511957295767
 20
1553.344283413253
 30
0.0
 11
3218.8354508201
 21
1559.07857089363
 31
0.0
  0
LINE
  5
1ECB
330
A
100
AcDbEntity
  8
1
  6
Continuous
 62
     3
100
AcDbLine
 10
3222.510068167038
 20
1536.540917832405
 30
0.0
 11
3223.979915105815
 21
1532.621325995671
 31
0.0
  0
LINE
  5
1ECC
330
A
100
AcDbEntity
  8
1
  6
Continuous
 62
     3
100
AcDbLine
 10
3223.00001714663
 20
1538.990662730365
 30
0.0
 11
3222.510068167038
 21
1536.540917832405
 31
0.0
  0
LINE
  5
1ECD
330
A
100
AcDbEntity
  8
1
  6
Continuous
 62
     3
100
AcDbLine
 10
3222.063972146628
 20
1543.47892966914
 30
0.0
 11
3223.00001714663
 21
1538.990662730365
 31
0.0
  0
LINE
  5
1ECE
330
A
100
AcDbEntity
  8
1
  6
Continuous
 62
     3
100
AcDbLine
 10
3222.063972146628
 20
1547.478929669139
 30
0.0
 11
3222.063972146628
 21
1543.47892966914
 31
0.0
  0
LINE
  5
1ECF
330
A
100
AcDbEntity
  8
1
  6
Continuous
 62
     3
100
AcDbLine
 10
3221.530170207854
 20
1550.749438240569
 30
0.0
 11
3222.063972146628
 21
1547.478929669139
 31
0.0
  0
LINE
  5
1ED0
330
A
100
AcDbEntity
  8
1
  6
Continuous
 62
     3
100
AcDbLine
 10
3219.511957295767
 20
1553.344283413253
 30
0.0
 11
3221.530170207854
 21
1550.749438240569
 31
0.0
  0
LINE
  5
1ED1
330
A
100
AcDbEntity
  8
1
  6
Continuous
 62
     3
100
AcDbLine
 10
3297.622186432344
 20
1547.478929669139
 30
0.0
 11
3513.300757860915
 21
1547.478929669139
 31
0.0
  0
ARC
  5
1ED2
330
A
100
AcDbEntity
  8
1
  6
Continuous
 62
     3
100
AcDbCircle
 10
3410.236705449153
 20
1521.302135784326
 30
0.0
 40
4.223098916478499
100
AcDbArc
 50
200.8097681873857
 51
339.1902318126144
  0
ARC
  5
1ED3
330
A
100
AcDbEntity
  8
1
  6
Continuous
 62
     3
100
AcDbCircle
 10
3396.144329289488
 20
1537.339599585777
 30
0.0
 40
20.26056271661
100
AcDbArc
 50
239.9526751350636
 51
300.0473248649364
  0
ARC
  5
1ED4
330
A
100
AcDbEntity
  8
1
  6
Continuous
 62
     3
100
AcDbCircle
 10
3382.051953129822
 20
1521.302135784326
 30
0.0
 40
4.223098916478
100
AcDbArc
 50
200.8097681873857
 51
339.1902318126144
  0
LINE
  5
1ED5
330
A
100
AcDbEntity
  8
1
  6
Continuous
 62
     3
100
AcDbLine
 10
3406.289099876631
 20
1535.47892966914
 30
0.0
 11
3406.289099876631
 21
1519.80181091879
 31
0.0
  0
LINE
  5
1ED6
330
A
100
AcDbEntity
  8
1
  6
Continuous
 62
     3
100
AcDbLine
 10
3385.999558702344
 20
1535.47892966914
 30
0.0
 11
3385.999558702344
 21
1519.80181091879
 31
0.0
  0
LINE
  5
1ED7
330
A
100
AcDbEntity
  8
1
  6
Continuous
 62
     3
100
AcDbLine
 10
3297.622186432344
 20
1543.47892966914
 30
0.0
 11
3513.300757860915
 21
1543.47892966914
 31
0.0
  0
LINE
  5
1ED8
330
A
100
AcDbEntity
  8
1
  6
Continuous
 62
     3
100
AcDbLine
 10
3372.644329289486
 20
1539.478929669139
 30
0.0
 11
3377.644329289488
 21
1539.478929669139
 31
0.0
  0
LINE
  5
1ED9
330
A
100
AcDbEntity
  8
1
  6
Continuous
 62
     3
100
AcDbLine
 10
3413.630520547459
 20
1539.47892966914
 30
0.0
 11
3419.644329289486
 21
1539.47892966914
 31
0.0
  0
ARC
  5
1EDA
330
A
100
AcDbEntity
  8
1
  6
Continuous
 62
     3
100
AcDbCircle
 10
3414.644329289487
 20
1536.97892966914
 30
0.0
 40
1.5
100
AcDbArc
 50
270.0
 51
0.0
  0
ARC
  5
1EDB
330
A
100
AcDbEntity
  8
1
  6
Continuous
 62
     3
100
AcDbCircle
 10
3377.644329289488
 20
1536.97892966914
 30
0.0
 40
1.5
100
AcDbArc
 50
180.0
 51
270.0
  0
ARC
  5
1EDC
330
A
100
AcDbEntity
  8
1
  6
Continuous
 62
     3
100
AcDbCircle
 10
3377.644329289488
 20
1537.978929669139
 30
0.0
 40
1.5
100
AcDbArc
 50
90.0
 51
180.0
  0
ARC
  5
1EDD
330
A
100
AcDbEntity
  8
1
  6
Continuous
 62
     3
100
AcDbCircle
 10
3414.644329289487
 20
1537.97892966914
 30
0.0
 40
1.5
100
AcDbArc
 50
0.0
 51
90.0
  0
ARC
  5
1EDE
330
A
100
AcDbEntity
  8
1
  6
Continuous
 62
     3
100
AcDbCircle
 10
3419.644329289486
 20
1540.97892966914
 30
0.0
 40
1.5
100
AcDbArc
 50
270.0
 51
0.0
  0
ARC
  5
1EDF
330
A
100
AcDbEntity
  8
1
  6
Continuous
 62
     3
100
AcDbCircle
 10
3372.644329289486
 20
1540.97892966914
 30
0.0
 40
1.5
100
AcDbArc
 50
180.0
 51
270.0
  0
ARC
  5
1EE0
330
A
100
AcDbEntity
  8
1
  6
Continuous
 62
     3
100
AcDbCircle
 10
3372.644329289486
 20
1541.97892966914
 30
0.0
 40
1.5
100
AcDbArc
 50
90.0
 51
180.0
  0
ARC
  5
1EE1
330
A
100
AcDbEntity
  8
1
  6
Continuous
 62
     3
100
AcDbCircle
 10
3419.644329289486
 20
1541.978929669141
 30
0.0
 40
1.5
100
AcDbArc
 50
0.0
 51
90.0
  0
LINE
  5
1EE2
330
A
100
AcDbEntity
  8
1
  6
Continuous
 62
     3
100
AcDbLine
 10
3403.144329289486
 20
1498.47892966914
 30
0.0
 11
3406.144329289487
 21
1501.47892966914
 31
0.0
  0
LINE
  5
1EE3
330
A
100
AcDbEntity
  8
1
  6
Continuous
 62
     3
100
AcDbLine
 10
3386.144329289488
 20
1501.47892966914
 30
0.0
 11
3406.144329289487
 21
1501.47892966914
 31
0.0
  0
LINE
  5
1EE4
330
A
100
AcDbEntity
  8
1
  6
Continuous
 62
     3
100
AcDbLine
 10
3389.144329289486
 20
1498.47892966914
 30
0.0
 11
3389.144329289488
 21
1517.079036869167
 31
0.0
  0
LINE
  5
1EE5
330
A
100
AcDbEntity
  8
1
  6
Continuous
 62
     3
100
AcDbLine
 10
3403.144329289486
 20
1498.47892966914
 30
0.0
 11
3403.144329289486
 21
1517.079036869167
 31
0.0
  0
LINE
  5
1EE6
330
A
100
AcDbEntity
  8
1
  6
Continuous
 62
     3
100
AcDbLine
 10
3410.236811021676
 20
1517.079036869167
 30
0.0
 11
3382.051953129822
 21
1517.079036869167
 31
0.0
  0
LINE
  5
1EE7
330
A
100
AcDbEntity
  8
1
  6
Continuous
 62
     3
100
AcDbLine
 10
3414.184311021674
 20
1519.80181091879
 30
0.0
 11
3414.184311021674
 21
1535.47892966914
 31
0.0
  0
LINE
  5
1EE8
330
A
100
AcDbEntity
  8
1
  6
Continuous
 62
     3
100
AcDbLine
 10
3378.104347557299
 20
1519.80181091879
 30
0.0
 11
3378.104347557299
 21
1535.47892966914
 31
0.0
  0
LINE
  5
1EE9
330
A
100
AcDbEntity
  8
1
  6
Continuous
 62
     3
100
AcDbLine
 10
3377.644329289488
 20
1535.47892966914
 30
0.0
 11
3414.644329289487
 21
1535.47892966914
 31
0.0
  0
LINE
  5
1EEA
330
A
100
AcDbEntity
  8
1
  6
Continuous
 62
     3
100
AcDbLine
 10
3416.144329289487
 20
1537.978929669139
 30
0.0
 11
3416.144329289487
 21
1536.97892966914
 31
0.0
  0
LINE
  5
1EEB
330
A
100
AcDbEntity
  8
1
  6
Continuous
 62
     3
100
AcDbLine
 10
3376.144329289488
 20
1537.978929669139
 30
0.0
 11
3376.144329289488
 21
1536.97892966914
 31
0.0
  0
LINE
  5
1EEC
330
A
100
AcDbEntity
  8
1
  6
Continuous
 62
     3
100
AcDbLine
 10
3421.144329289488
 20
1540.97892966914
 30
0.0
 11
3421.144329289488
 21
1541.97892966914
 31
0.0
  0
LINE
  5
1EED
330
A
100
AcDbEntity
  8
1
  6
Continuous
 62
     3
100
AcDbLine
 10
3377.644329289488
 20
1539.478929669139
 30
0.0
 11
3414.644329289487
 21
1539.47892966914
 31
0.0
  0
LINE
  5
1EEE
330
A
100
AcDbEntity
  8
1
  6
Continuous
 62
     3
100
AcDbLine
 10
3371.144329289486
 20
1541.97892966914
 30
0.0
 11
3371.144329289486
 21
1540.97892966914
 31
0.0
  0
LINE
  5
1EEF
330
A
100
AcDbEntity
  8
1
  6
Continuous
 62
     3
100
AcDbLine
 10
3406.144329289487
 20
1543.47892966914
 30
0.0
 11
3419.644329289486
 21
1543.47892966914
 31
0.0
  0
LINE
  5
1EF0
330
A
100
AcDbEntity
  8
1
  6
Continuous
 62
     3
100
AcDbLine
 10
3367.144329289487
 20
1583.97892966914
 30
0.0
 11
3366.144329289487
 21
1584.97892966914
 31
0.0
  0
LINE
  5
1EF1
330
A
100
AcDbEntity
  8
1
  6
Continuous
 62
     3
100
AcDbLine
 10
3425.144329289488
 20
1583.97892966914
 30
0.0
 11
3426.144329289487
 21
1584.97892966914
 31
0.0
  0
ARC
  5
1EF2
330
A
100
AcDbEntity
  8
1
  6
Continuous
 62
     3
100
AcDbCircle
 10
3421.144329289488
 20
1593.97892966914
 30
0.0
 40
5.0
100
AcDbArc
 50
0.0
 51
90.0
  0
ARC
  5
1EF3
330
A
100
AcDbEntity
  8
1
  6
Continuous
 62
     3
100
AcDbCircle
 10
3371.144329289488
 20
1593.97892966914
 30
0.0
 40
5.0
100
AcDbArc
 50
90.0
 51
180.0
  0
LINE
  5
1EF4
330
A
100
AcDbEntity
  8
1
  6
Continuous
 62
     3
100
AcDbLine
 10
3406.144329289487
 20
1517.079036869167
 30
0.0
 11
3406.144329289487
 21
1501.47892966914
 31
0.0
  0
LINE
  5
1EF5
330
A
100
AcDbEntity
  8
1
  6
Continuous
 62
     3
100
AcDbLine
 10
3389.144329289486
 20
1498.47892966914
 30
0.0
 11
3403.144329289486
 21
1498.47892966914
 31
0.0
  0
LINE
  5
1EF6
330
A
100
AcDbEntity
  8
1
  6
DASHDOT
 62
     4
100
AcDbLine
 10
3396.144329289488
 20
1605.687883750773
 30
0.0
 11
3396.144329289488
 21
1492.070230689548
 31
0.0
  0
LINE
  5
1EF7
330
A
100
AcDbEntity
  8
1
  6
Continuous
 62
     3
100
AcDbLine
 10
3372.644329289486
 20
1543.47892966914
 30
0.0
 11
3386.144329289486
 21
1543.47892966914
 31
0.0
  0
LINE
  5
1EF8
330
A
100
AcDbEntity
  8
1
  6
Continuous
 62
     3
100
AcDbLine
 10
3368.644329289487
 20
1547.478929669139
 30
0.0
 11
3513.300757860915
 21
1547.478929669139
 31
0.0
  0
LINE
  5
1EF9
330
A
100
AcDbEntity
  8
1
  6
Continuous
 62
     3
100
AcDbLine
 10
3416.144329289487
 20
1583.97892966914
 30
0.0
 11
3416.144329289487
 21
1549.47892966914
 31
0.0
  0
LINE
  5
1EFA
330
A
100
AcDbEntity
  8
1
  6
Continuous
 62
     3
100
AcDbLine
 10
3376.144329289488
 20
1583.97892966914
 30
0.0
 11
3376.144329289488
 21
1549.47892966914
 31
0.0
  0
LINE
  5
1EFB
330
A
100
AcDbEntity
  8
1
  6
Continuous
 62
     3
100
AcDbLine
 10
3425.144329289488
 20
1583.97892966914
 30
0.0
 11
3367.144329289487
 21
1583.97892966914
 31
0.0
  0
LINE
  5
1EFC
330
A
100
AcDbEntity
  8
1
  6
Continuous
 62
     3
100
AcDbLine
 10
3426.144329289487
 20
1593.978929669141
 30
0.0
 11
3426.144329289487
 21
1584.97892966914
 31
0.0
  0
LINE
  5
1EFD
330
A
100
AcDbEntity
  8
1
  6
Continuous
 62
     3
100
AcDbLine
 10
3371.144329289488
 20
1598.978929669139
 30
0.0
 11
3421.144329289488
 21
1598.97892966914
 31
0.0
  0
LINE
  5
1EFE
330
A
100
AcDbEntity
  8
1
  6
Continuous
 62
     3
100
AcDbLine
 10
3366.144329289487
 20
1584.97892966914
 30
0.0
 11
3366.144329289487
 21
1593.978929669139
 31
0.0
  0
TEXT
  5
1EFF
330
A
100
AcDbEntity
  8
1
 62
     3
100
AcDbText
 10
1847.372905949643
 20
2143.371335500613
 30
0.0
 40
20.0
  1
給水栓穴%%c
 41
0.75
 51
15.0
  7
BIGFONT
 72
     1
 11
1888.372905949642
 21
2143.371335500613
 31
0.0
100
AcDbText
  0
LINE
  5
1F00
330
A
100
AcDbEntity
  8
1
  6
Continuous
 62
     3
100
AcDbLine
 10
1928.339650453184
 20
2139.752440951989
 30
0.0
 11
1847.623420290002
 21
2139.752440951989
 31
0.0
  0
LINE
  5
1F01
330
A
100
AcDbEntity
  8
1
  6
Continuous
 62
     3
100
AcDbLine
 10
1958.244322176987
 20
2041.494233859495
 30
0.0
 11
1957.571620094958
 21
2061.48291745569
 31
0.0
  0
LINE
  5
1F02
330
A
100
AcDbEntity
  8
1
  6
Continuous
 62
     3
100
AcDbLine
 10
1958.244322176987
 20
2041.494233859495
 30
0.0
 11
1947.667403286673
 21
2058.468590600995
 31
0.0
  0
LINE
  5
1F03
330
A
100
AcDbEntity
  8
1
  6
Continuous
 62
     3
100
AcDbLine
 10
1958.244322176987
 20
2041.494233859495
 30
0.0
 11
1928.339650453184
 21
2139.752440951989
 31
0.0
  0
TEXT
  5
1F04
330
A
100
AcDbEntity
  8
1
 62
     3
100
AcDbText
 10
2526.089702824644
 20
2112.990720266238
 30
0.0
 40
20.0
  1
70
 41
0.75
 51
15.0
 72
     1
 11
2537.339702824644
 21
2112.990720266238
 31
0.0
100
AcDbText
  0
LINE
  5
1F05
330
A
100
AcDbEntity
  8
1
  6
Continuous
 62
     3
100
AcDbLine
 10
2572.339650453185
 20
2107.990689660161
 30
0.0
 11
2553.021133927403
 21
2113.167070562212
 31
0.0
  0
LINE
  5
1F06
330
A
100
AcDbEntity
  8
1
  6
Continuous
 62
     3
100
AcDbLine
 10
2572.339650453185
 20
2107.990689660161
 30
0.0
 11
2553.021133927403
 21
2102.814308758111
 31
0.0
  0
LINE
  5
1F07
330
A
100
AcDbEntity
  8
1
  6
Continuous
 62
     3
100
AcDbLine
 10
2502.339650453185
 20
2107.990689660161
 30
0.0
 11
2521.658166978965
 21
2102.814308758111
 31
0.0
  0
LINE
  5
1F08
330
A
100
AcDbEntity
  8
1
  6
Continuous
 62
     3
100
AcDbLine
 10
2502.339650453185
 20
2107.990689660161
 30
0.0
 11
2521.658166978965
 21
2113.167070562212
 31
0.0
  0
LINE
  5
1F09
330
A
100
AcDbEntity
  8
1
  6
Continuous
 62
     3
100
AcDbLine
 10
2502.339650453185
 20
2107.990689660161
 30
0.0
 11
2572.339650453185
 21
2107.990689660161
 31
0.0
  0
LINE
  5
1F0A
330
A
100
AcDbEntity
  8
1
  6
Continuous
 62
     3
100
AcDbLine
 10
2572.339650453185
 20
2064.752440951989
 30
0.0
 11
2572.339650453185
 21
2112.990689660161
 31
0.0
  0
LINE
  5
1F0B
330
A
100
AcDbEntity
  8
1
  6
Continuous
 62
     3
100
AcDbLine
 10
2502.339650453185
 20
2064.752440951989
 30
0.0
 11
2502.339650453185
 21
2112.990689660161
 31
0.0
  0
TEXT
  5
1F0C
330
A
100
AcDbEntity
  8
1
 62
     3
100
AcDbText
 10
2609.022258976987
 20
2013.502439016238
 30
0.0
 40
20.0
  1
70
 50
90.0
 41
0.75
 51
15.0
 72
     1
 11
2609.022258976987
 21
2024.752439016238
 31
0.0
100
AcDbText
  0
LINE
  5
1F0D
330
A
100
AcDbEntity
  8
1
  6
Continuous
 62
     3
100
AcDbLine
 10
2614.022323365563
 20
2059.752440951989
 30
0.0
 11
2608.845942463513
 21
2040.433924426208
 31
0.0
  0
LINE
  5
1F0E
330
A
100
AcDbEntity
  8
1
  6
Continuous
 62
     3
100
AcDbLine
 10
2614.022323365563
 20
2059.752440951989
 30
0.0
 11
2619.198704267614
 21
2040.433924426208
 31
0.0
  0
LINE
  5
1F0F
330
A
100
AcDbEntity
  8
1
  6
Continuous
 62
     3
100
AcDbLine
 10
2614.022323365563
 20
1989.752440951989
 30
0.0
 11
2619.198704267614
 21
2009.07095747777
 31
0.0
  0
LINE
  5
1F10
330
A
100
AcDbEntity
  8
1
  6
Continuous
 62
     3
100
AcDbLine
 10
2614.022323365563
 20
1989.752440951989
 30
0.0
 11
2608.845942463513
 21
2009.07095747777
 31
0.0
  0
LINE
  5
1F11
330
A
100
AcDbEntity
  8
1
  6
Continuous
 62
     3
100
AcDbLine
 10
2614.022323365563
 20
1989.752440951989
 30
0.0
 11
2614.022323365563
 21
2059.752440951989
 31
0.0
  0
LINE
  5
1F12
330
A
100
AcDbEntity
  8
1
  6
Continuous
 62
     3
100
AcDbLine
 10
2577.339650453185
 20
2059.752440951989
 30
0.0
 11
2619.022323365563
 21
2059.752440951989
 31
0.0
  0
LINE
  5
1F13
330
A
100
AcDbEntity
  8
1
  6
Continuous
 62
     3
100
AcDbLine
 10
2577.339650453184
 20
1989.752440951989
 30
0.0
 11
2619.022323365563
 21
1989.752440951989
 31
0.0
  0
LINE
  5
1F14
330
A
100
AcDbEntity
  8
1
  6
DASHDOT
 62
     4
100
AcDbLine
 10
2250.339650453184
 20
1548.988017461599
 30
0.0
 11
2250.339650453184
 21
2104.520299048903
 31
0.0
  0
TEXT
  5
1F15
330
A
100
AcDbEntity
  8
1
 62
     3
100
AcDbText
 10
3025.236531557899
 20
1643.702256587723
 30
0.0
 40
20.0
  1
R25
 50
313.3068237304691
 41
0.75
 51
15.0
 72
     1
 11
3038.954632023862
 21
1629.148435109988
 31
0.0
100
AcDbText
  0
LINE
  5
1F16
330
A
100
AcDbEntity
  8
1
  6
Continuous
 62
     3
100
AcDbLine
 10
3062.80082937798
 20
1596.56016682983
 30
0.0
 11
3053.316965229504
 21
1614.168583022471
 31
0.0
  0
LINE
  5
1F17
330
A
100
AcDbEntity
  8
1
  6
Continuous
 62
     3
100
AcDbLine
 10
3062.80082937798
 20
1596.56016682983
 30
0.0
 11
3045.783354003039
 21
1607.067570498828
 31
0.0
  0
LINE
  5
1F18
330
A
100
AcDbEntity
  8
1
  6
Continuous
 62
     3
100
AcDbLine
 10
3062.80082937798
 20
1596.56016682983
 30
0.0
 11
3014.739196158673
 21
1647.549748720815
 31
0.0
  0
LINE
  5
1F19
330
A
100
AcDbEntity
  8
1
  6
Continuous
 62
     2
100
AcDbLine
 10
1860.339650453185
 20
1310.244946950293
 30
0.0
 11
1848.339650453185
 21
1310.244946950293
 31
0.0
  0
ARC
  5
1F1A
330
A
100
AcDbEntity
  8
1
  6
Continuous
 62
     2
100
AcDbCircle
 10
1860.339650453185
 20
1309.244946950292
 30
0.0
 40
1.0
100
AcDbArc
 50
0.0
 51
90.0
  0
LINE
  5
1F1B
330
A
100
AcDbEntity
  8
1
  6
Continuous
 62
     2
100
AcDbLine
 10
1861.339650453185
 20
1302.244946950291
 30
0.0
 11
1861.339650453185
 21
1309.244946950292
 31
0.0
  0
ARC
  5
1F1C
330
A
100
AcDbEntity
  8
1
  6
Continuous
 62
     2
100
AcDbCircle
 10
1868.339650453185
 20
1302.244946950291
 30
0.0
 40
7.0
100
AcDbArc
 50
180.0
 51
270.0
  0
LINE
  5
1F1D
330
A
100
AcDbEntity
  8
1
  6
Continuous
 62
     2
100
AcDbLine
 10
1873.339650453185
 20
1295.244946950292
 30
0.0
 11
1868.339650453185
 21
1295.244946950292
 31
0.0
  0
ARC
  5
1F1E
330
A
100
AcDbEntity
  8
1
  6
Continuous
 62
     2
100
AcDbCircle
 10
1873.339650453185
 20
1292.244946950291
 30
0.0
 40
3.0
100
AcDbArc
 50
0.0
 51
90.0
  0
LINE
  5
1F1F
330
A
100
AcDbEntity
  8
1
  6
Continuous
 62
     2
100
AcDbLine
 10
1876.339650453185
 20
1169.948265020893
 30
0.0
 11
1876.339650453185
 21
1292.244946950291
 31
0.0
  0
ARC
  5
1F20
330
A
100
AcDbEntity
  8
1
  6
Continuous
 62
     2
100
AcDbCircle
 10
1903.339650453185
 20
1169.948265020893
 30
0.0
 40
27.0
100
AcDbArc
 50
180.0
 51
266.9498236266337
  0
LINE
  5
1F21
330
A
100
AcDbEntity
  8
1
  6
Continuous
 62
     2
100
AcDbLine
 10
2157.839650453184
 20
1129.348681504643
 30
0.0
 11
1901.902967525344
 21
1142.986515408436
 31
0.0
  0
LINE
  5
1F22
330
A
100
AcDbEntity
  8
1
  6
Continuous
 62
     2
100
AcDbLine
 10
2157.839650453184
 20
1125.244946950291
 30
0.0
 11
2157.839650453184
 21
1129.348681504643
 31
0.0
  0
ARC
  5
1F23
330
A
100
AcDbEntity
  8
1
  6
Continuous
 62
     2
100
AcDbCircle
 10
2161.839650453185
 20
1125.244946950291
 30
0.0
 40
4.0
100
AcDbArc
 50
180.0
 51
270.0
  0
LINE
  5
1F24
330
A
100
AcDbEntity
  8
1
  6
Continuous
 62
     2
100
AcDbLine
 10
2338.839650453184
 20
1121.244946950292
 30
0.0
 11
2161.839650453185
 21
1121.244946950292
 31
0.0
  0
ARC
  5
1F25
330
A
100
AcDbEntity
  8
1
  6
Continuous
 62
     2
100
AcDbCircle
 10
2338.839650453184
 20
1125.244946950291
 30
0.0
 40
4.0
100
AcDbArc
 50
270.0
 51
0.0
  0
LINE
  5
1F26
330
A
100
AcDbEntity
  8
1
  6
Continuous
 62
     2
100
AcDbLine
 10
2342.839650453185
 20
1129.348681504644
 30
0.0
 11
2342.839650453184
 21
1125.244946950291
 31
0.0
  0
LINE
  5
1F27
330
A
100
AcDbEntity
  8
1
  6
Continuous
 62
     2
100
AcDbLine
 10
2598.776333381024
 20
1142.986515408437
 30
0.0
 11
2342.839650453185
 21
1129.348681504644
 31
0.0
  0
ARC
  5
1F28
330
A
100
AcDbEntity
  8
1
  6
Continuous
 62
     2
100
AcDbCircle
 10
2597.339650453184
 20
1169.948265020894
 30
0.0
 40
27.0
100
AcDbArc
 50
273.0501763733664
 51
0.0
  0
LINE
  5
1F29
330
A
100
AcDbEntity
  8
1
  6
Continuous
 62
     2
100
AcDbLine
 10
2624.339650453185
 20
1292.244946950293
 30
0.0
 11
2624.339650453185
 21
1169.948265020894
 31
0.0
  0
ARC
  5
1F2A
330
A
100
AcDbEntity
  8
1
  6
Continuous
 62
     2
100
AcDbCircle
 10
2627.339650453185
 20
1292.244946950293
 30
0.0
 40
3.0
100
AcDbArc
 50
90.0
 51
180.0
  0
LINE
  5
1F2B
330
A
100
AcDbEntity
  8
1
  6
Continuous
 62
     2
100
AcDbLine
 10
2632.339650453185
 20
1295.244946950293
 30
0.0
 11
2627.339650453185
 21
1295.244946950293
 31
0.0
  0
ARC
  5
1F2C
330
A
100
AcDbEntity
  8
1
  6
Continuous
 62
     2
100
AcDbCircle
 10
2632.339650453185
 20
1302.244946950293
 30
0.0
 40
7.0
100
AcDbArc
 50
270.0
 51
0.0
  0
LINE
  5
1F2D
330
A
100
AcDbEntity
  8
1
  6
Continuous
 62
     2
100
AcDbLine
 10
2639.339650453185
 20
1309.244946950293
 30
0.0
 11
2639.339650453185
 21
1302.244946950293
 31
0.0
  0
ARC
  5
1F2E
330
A
100
AcDbEntity
  8
1
  6
Continuous
 62
     2
100
AcDbCircle
 10
2640.339650453185
 20
1309.244946950293
 30
0.0
 40
1.0
100
AcDbArc
 50
90.0
 51
180.0
  0
LINE
  5
1F2F
330
A
100
AcDbEntity
  8
1
  6
Continuous
 62
     2
100
AcDbLine
 10
2652.339650453185
 20
1310.244946950293
 30
0.0
 11
2640.339650453185
 21
1310.244946950293
 31
0.0
  0
ARC
  5
1F30
330
A
100
AcDbEntity
  8
1
  6
Continuous
 62
     2
100
AcDbCircle
 10
2161.839650453185
 20
1125.244946950291
 30
0.0
 40
2.0
100
AcDbArc
 50
180.0
 51
270.0
  0
ARC
  5
1F31
330
A
100
AcDbEntity
  8
1
  6
Continuous
 62
     2
100
AcDbCircle
 10
2338.839650453184
 20
1125.244946950291
 30
0.0
 40
2.0
100
AcDbArc
 50
270.0
 51
0.0
  0
LINE
  5
1F32
330
A
100
AcDbEntity
  8
1
  6
Continuous
 62
     2
100
AcDbLine
 10
2159.839650453184
 20
1131.244946950292
 30
0.0
 11
2340.839650453184
 21
1131.244946950292
 31
0.0
  0
TEXT
  5
1F33
330
A
100
AcDbEntity
  8
1
 62
     3
100
AcDbText
 10
1793.339626530697
 20
1206.745084279911
 30
0.0
 40
20.0
  1
181
 50
90.0
 41
0.75
 51
15.0
 72
     1
 11
1793.339626530697
 21
1221.745084279911
 31
0.0
100
AcDbText
  0
LINE
  5
1F34
330
A
100
AcDbEntity
  8
1
  6
Continuous
 62
     3
100
AcDbLine
 10
1798.339650453185
 20
1312.244946950293
 30
0.0
 11
1793.163269551134
 21
1292.926430424511
 31
0.0
  0
LINE
  5
1F35
330
A
100
AcDbEntity
  8
1
  6
Continuous
 62
     3
100
AcDbLine
 10
1798.339650453185
 20
1312.244946950293
 30
0.0
 11
1803.516031355234
 21
1292.926430424511
 31
0.0
  0
LINE
  5
1F36
330
A
100
AcDbEntity
  8
1
  6
Continuous
 62
     3
100
AcDbLine
 10
1798.339650453185
 20
1131.244946950292
 30
0.0
 11
1803.516031355235
 21
1150.563463476073
 31
0.0
  0
LINE
  5
1F37
330
A
100
AcDbEntity
  8
1
  6
Continuous
 62
     3
100
AcDbLine
 10
1798.339650453185
 20
1131.244946950292
 30
0.0
 11
1793.163269551134
 21
1150.563463476073
 31
0.0
  0
LINE
  5
1F38
330
A
100
AcDbEntity
  8
1
  6
Continuous
 62
     3
100
AcDbLine
 10
1798.339650453185
 20
1131.244946950292
 30
0.0
 11
1798.339650453185
 21
1312.244946950293
 31
0.0
  0
LINE
  5
1F39
330
A
100
AcDbEntity
  8
1
  6
Continuous
 62
     3
100
AcDbLine
 10
1843.339650453185
 20
1312.244946950293
 30
0.0
 11
1793.339650453185
 21
1312.244946950293
 31
0.0
  0
TEXT
  5
1F3A
330
A
100
AcDbEntity
  8
1
 62
     3
100
AcDbText
 10
1793.339626530697
 20
1095.744962209598
 30
0.0
 40
20.0
  1
8
 50
90.0
 41
0.75
 51
15.0
 72
     1
 11
1793.339626530697
 21
1100.744962209597
 31
0.0
100
AcDbText
  0
LINE
  5
1F3B
330
A
100
AcDbEntity
  8
1
  6
Continuous
 62
     3
100
AcDbLine
 10
1798.339650453185
 20
1123.244946950292
 30
0.0
 11
1798.339650453185
 21
1131.244946950292
 31
0.0
  0
LINE
  5
1F3C
330
A
100
AcDbEntity
  8
1
  6
Continuous
 62
     3
100
AcDbLine
 10
1798.339650453185
 20
1123.244946950292
 30
0.0
 11
1793.163269551134
 21
1103.92643042451
 31
0.0
  0
LINE
  5
1F3D
330
A
100
AcDbEntity
  8
1
  6
Continuous
 62
     3
100
AcDbLine
 10
1798.339650453185
 20
1123.244946950292
 30
0.0
 11
1803.516031355234
 21
1103.92643042451
 31
0.0
  0
LINE
  5
1F3E
330
A
100
AcDbEntity
  8
1
  6
Continuous
 62
     3
100
AcDbLine
 10
1798.339650453185
 20
1078.244946950292
 30
0.0
 11
1798.339650453185
 21
1123.244946950292
 31
0.0
  0
LINE
  5
1F3F
330
A
100
AcDbEntity
  8
1
  6
Continuous
 62
     3
100
AcDbLine
 10
2052.604425086664
 20
1131.244946950292
 30
0.0
 11
1793.339650453185
 21
1131.244946950292
 31
0.0
  0
LINE
  5
1F40
330
A
100
AcDbEntity
  8
1
  6
Continuous
 62
     3
100
AcDbLine
 10
2154.839650453185
 20
1123.244946950292
 30
0.0
 11
1793.339650453185
 21
1123.244946950292
 31
0.0
  0
TEXT
  5
1F41
330
A
100
AcDbEntity
  8
1
 62
     3
100
AcDbText
 10
2697.339641789487
 20
1211.745084279911
 30
0.0
 40
20.0
  1
166
 50
90.0
 41
0.75
 51
15.0
 72
     1
 11
2697.339641789487
 21
1229.24508427991
 31
0.0
100
AcDbText
  0
LINE
  5
1F42
330
A
100
AcDbEntity
  8
1
  6
Continuous
 62
     3
100
AcDbLine
 10
2702.339650453185
 20
1312.244946950293
 30
0.0
 11
2697.163269551135
 21
1292.926430424511
 31
0.0
  0
LINE
  5
1F43
330
A
100
AcDbEntity
  8
1
  6
Continuous
 62
     3
100
AcDbLine
 10
2702.339650453185
 20
1312.244946950293
 30
0.0
 11
2707.516031355235
 21
1292.926430424511
 31
0.0
  0
LINE
  5
1F44
330
A
100
AcDbEntity
  8
1
  6
Continuous
 62
     3
100
AcDbLine
 10
2702.339650453185
 20
1146.244946950293
 30
0.0
 11
2707.516031355235
 21
1165.563463476074
 31
0.0
  0
LINE
  5
1F45
330
A
100
AcDbEntity
  8
1
  6
Continuous
 62
     3
100
AcDbLine
 10
2702.339650453185
 20
1146.244946950293
 30
0.0
 11
2697.163269551135
 21
1165.563463476074
 31
0.0
  0
LINE
  5
1F46
330
A
100
AcDbEntity
  8
1
  6
Continuous
 62
     3
100
AcDbLine
 10
2702.339650453185
 20
1146.244946950293
 30
0.0
 11
2702.339650453185
 21
1312.244946950293
 31
0.0
  0
LINE
  5
1F47
330
A
100
AcDbEntity
  8
1
  6
Continuous
 62
     3
100
AcDbLine
 10
2657.339650453185
 20
1312.244946950293
 30
0.0
 11
2707.339650453185
 21
1312.244946950293
 31
0.0
  0
TEXT
  5
1F48
330
A
100
AcDbEntity
  8
1
 62
     3
100
AcDbText
 10
2697.339641789487
 20
1098.744962209598
 30
0.0
 40
20.0
  1
15
 50
90.0
 41
0.75
 51
15.0
 72
     1
 11
2697.339641789487
 21
1108.744962209597
 31
0.0
100
AcDbText
  0
LINE
  5
1F49
330
A
100
AcDbEntity
  8
1
  6
Continuous
 62
     3
100
AcDbLine
 10
2702.339650453185
 20
1131.244946950292
 30
0.0
 11
2702.339650453185
 21
1146.244946950293
 31
0.0
  0
LINE
  5
1F4A
330
A
100
AcDbEntity
  8
1
  6
Continuous
 62
     3
100
AcDbLine
 10
2702.339650453185
 20
1131.244946950292
 30
0.0
 11
2697.163269551135
 21
1111.926430424512
 31
0.0
  0
LINE
  5
1F4B
330
A
100
AcDbEntity
  8
1
  6
Continuous
 62
     3
100
AcDbLine
 10
2702.339650453185
 20
1131.244946950292
 30
0.0
 11
2707.516031355235
 21
1111.926430424512
 31
0.0
  0
LINE
  5
1F4C
330
A
100
AcDbEntity
  8
1
  6
Continuous
 62
     3
100
AcDbLine
 10
2702.339650453185
 20
1086.244946950293
 30
0.0
 11
2702.339650453185
 21
1131.244946950292
 31
0.0
  0
LINE
  5
1F4D
330
A
100
AcDbEntity
  8
1
  6
Continuous
 62
     3
100
AcDbLine
 10
2629.100965894977
 20
1146.244946950293
 30
0.0
 11
2707.339650453185
 21
1146.244946950293
 31
0.0
  0
LINE
  5
1F4E
330
A
100
AcDbEntity
  8
1
  6
Continuous
 62
     3
100
AcDbLine
 10
2425.94665069743
 20
1131.244946950292
 30
0.0
 11
2707.339650453185
 21
1131.244946950292
 31
0.0
  0
ARC
  5
1F4F
330
A
100
AcDbEntity
  8
1
  6
Continuous
 62
     2
100
AcDbCircle
 10
2597.339650453184
 20
1169.948265020894
 30
0.0
 40
25.0
100
AcDbArc
 50
273.0501763733664
 51
0.0
  0
ARC
  5
1F50
330
A
100
AcDbEntity
  8
1
  6
Continuous
 62
     2
100
AcDbCircle
 10
1903.339650453185
 20
1169.948265020893
 30
0.0
 40
25.0
100
AcDbArc
 50
180.0
 51
266.9498236266337
  0
LINE
  5
1F51
330
A
100
AcDbEntity
  8
1
  6
Continuous
 62
     2
100
AcDbLine
 10
2598.669912423406
 20
1144.983682046397
 30
0.0
 11
2340.839650453184
 21
1131.244946950292
 31
0.0
  0
LINE
  5
1F52
330
A
100
AcDbEntity
  8
1
  6
Continuous
 62
     2
100
AcDbLine
 10
1902.009388482962
 20
1144.983682046396
 30
0.0
 11
2159.839650453184
 21
1131.244946950292
 31
0.0
  0
LINE
  5
1F53
330
A
100
AcDbEntity
  8
1
  6
Continuous
 62
     2
100
AcDbLine
 10
2338.839650453184
 20
1123.244946950292
 30
0.0
 11
2161.839650453185
 21
1123.244946950292
 31
0.0
  0
LINE
  5
1F54
330
A
100
AcDbEntity
  8
1
  6
Continuous
 62
     2
100
AcDbLine
 10
1873.339650453185
 20
1297.244946950292
 30
0.0
 11
2629.839650453185
 21
1297.244946950292
 31
0.0
  0
ARC
  5
1F55
330
A
100
AcDbEntity
  8
1
  6
Continuous
 62
     2
100
AcDbCircle
 10
1873.339650453185
 20
1292.244946950291
 30
0.0
 40
5.0
100
AcDbArc
 50
0.0
 51
90.0
  0
LINE
  5
1F56
330
A
100
AcDbEntity
  8
1
  6
Continuous
 62
     2
100
AcDbLine
 10
1873.339650453185
 20
1297.244946950292
 30
0.0
 11
1868.339650453185
 21
1297.244946950292
 31
0.0
  0
ARC
  5
1F57
330
A
100
AcDbEntity
  8
1
  6
Continuous
 62
     2
100
AcDbCircle
 10
2627.339650453185
 20
1292.244946950293
 30
0.0
 40
5.0
100
AcDbArc
 50
90.0
 51
180.0
  0
ARC
  5
1F58
330
A
100
AcDbEntity
  8
1
  6
Continuous
 62
     2
100
AcDbCircle
 10
2632.339650453185
 20
1302.244946950293
 30
0.0
 40
5.0
100
AcDbArc
 50
270.0
 51
0.0
  0
ARC
  5
1F59
330
A
100
AcDbEntity
  8
1
  6
Continuous
 62
     2
100
AcDbCircle
 10
1868.339650453185
 20
1302.244946950291
 30
0.0
 40
5.0
100
AcDbArc
 50
180.0
 51
270.0
  0
LINE
  5
1F5A
330
A
100
AcDbEntity
  8
1
  6
Continuous
 62
     2
100
AcDbLine
 10
2627.339650453185
 20
1297.244946950293
 30
0.0
 11
2632.339650453185
 21
1297.244946950293
 31
0.0
  0
ARC
  5
1F5B
330
A
100
AcDbEntity
  8
1
  6
Continuous
 62
     2
100
AcDbCircle
 10
2640.339650453185
 20
1309.244946950293
 30
0.0
 40
3.0
100
AcDbArc
 50
90.0
 51
180.0
  0
LINE
  5
1F5C
330
A
100
AcDbEntity
  8
1
  6
Continuous
 62
     2
100
AcDbLine
 10
1860.339650453185
 20
1312.244946950292
 30
0.0
 11
2652.339650453185
 21
1312.244946950293
 31
0.0
  0
ARC
  5
1F5D
330
A
100
AcDbEntity
  8
1
  6
Continuous
 62
     2
100
AcDbCircle
 10
1860.339650453185
 20
1309.244946950292
 30
0.0
 40
3.0
100
AcDbArc
 50
0.0
 51
90.0
  0
LINE
  5
1F5E
330
A
100
AcDbEntity
  8
1
  6
Continuous
 62
     2
100
AcDbLine
 10
1848.339650453185
 20
1312.244946950293
 30
0.0
 11
1860.339650453185
 21
1312.244946950293
 31
0.0
  0
LINE
  5
1F5F
330
A
100
AcDbEntity
  8
1
  6
Continuous
 62
     2
100
AcDbLine
 10
2340.839650453184
 20
1131.244946950292
 30
0.0
 11
2340.839650453184
 21
1125.244946950291
 31
0.0
  0
LINE
  5
1F60
330
A
100
AcDbEntity
  8
1
  6
Continuous
 62
     2
100
AcDbLine
 10
2159.839650453184
 20
1125.244946950291
 30
0.0
 11
2159.839650453184
 21
1131.244946950292
 31
0.0
  0
LINE
  5
1F61
330
A
100
AcDbEntity
  8
1
  6
Continuous
 62
     2
100
AcDbLine
 10
2637.339650453185
 20
1302.244946950293
 30
0.0
 11
2637.339650453185
 21
1309.244946950293
 31
0.0
  0
LINE
  5
1F62
330
A
100
AcDbEntity
  8
1
  6
Continuous
 62
     2
100
AcDbLine
 10
2622.339650453185
 20
1292.244946950293
 30
0.0
 11
2622.339650453185
 21
1169.948265020894
 31
0.0
  0
LINE
  5
1F63
330
A
100
AcDbEntity
  8
1
  6
Continuous
 62
     2
100
AcDbLine
 10
1878.339650453185
 20
1292.244946950291
 30
0.0
 11
1878.339650453185
 21
1169.948265020893
 31
0.0
  0
LINE
  5
1F64
330
A
100
AcDbEntity
  8
1
  6
Continuous
 62
     2
100
AcDbLine
 10
1863.339650453185
 20
1309.244946950292
 30
0.0
 11
1863.339650453185
 21
1302.244946950291
 31
0.0
  0
LINE
  5
1F65
330
A
100
AcDbEntity
  8
1
  6
Continuous
 62
     2
100
AcDbLine
 10
2905.217638695967
 20
1571.752440951989
 30
0.0
 11
2905.217638695967
 21
1559.752440951989
 31
0.0
  0
ARC
  5
1F66
330
A
100
AcDbEntity
  8
1
  6
Continuous
 62
     2
100
AcDbCircle
 10
2906.217638695967
 20
1571.752440951989
 30
0.0
 40
1.0
100
AcDbArc
 50
90.0
 51
180.0
  0
LINE
  5
1F67
330
A
100
AcDbEntity
  8
1
  6
Continuous
 62
     2
100
AcDbLine
 10
2913.217638695968
 20
1572.752440951989
 30
0.0
 11
2906.217638695967
 21
1572.752440951989
 31
0.0
  0
ARC
  5
1F68
330
A
100
AcDbEntity
  8
1
  6
Continuous
 62
     2
100
AcDbCircle
 10
2913.217638695968
 20
1579.752440951989
 30
0.0
 40
7.0
100
AcDbArc
 50
270.0
 51
0.0
  0
LINE
  5
1F69
330
A
100
AcDbEntity
  8
1
  6
Continuous
 62
     2
100
AcDbLine
 10
2920.217638695968
 20
1584.752440951989
 30
0.0
 11
2920.217638695968
 21
1579.75244095199
 31
0.0
  0
ARC
  5
1F6A
330
A
100
AcDbEntity
  8
1
  6
Continuous
 62
     2
100
AcDbCircle
 10
2923.217638695967
 20
1584.752440951989
 30
0.0
 40
3.0
100
AcDbArc
 50
90.0
 51
180.0
  0
LINE
  5
1F6B
330
A
100
AcDbEntity
  8
1
  6
Continuous
 62
     2
100
AcDbLine
 10
3045.653200904508
 20
1587.752440951989
 30
0.0
 11
2923.217638695967
 21
1587.752440951989
 31
0.0
  0
ARC
  5
1F6C
330
A
100
AcDbEntity
  8
1
  6
Continuous
 62
     2
100
AcDbCircle
 10
3045.653200904508
 20
1614.752440951989
 30
0.0
 40
27.0
100
AcDbArc
 50
270.0
 51
356.6136656712032
  0
LINE
  5
1F6D
330
A
100
AcDbEntity
  8
1
  6
Continuous
 62
     2
100
AcDbLine
 10
3086.102793719284
 20
1841.252440951989
 30
0.0
 11
3072.606057412754
 21
1613.157597371619
 31
0.0
  0
LINE
  5
1F6E
330
A
100
AcDbEntity
  8
1
  6
Continuous
 62
     2
100
AcDbLine
 10
3090.217638695968
 20
1841.252440951989
 30
0.0
 11
3086.102793719284
 21
1841.252440951989
 31
0.0
  0
ARC
  5
1F6F
330
A
100
AcDbEntity
  8
1
  6
Continuous
 62
     2
100
AcDbCircle
 10
3090.217638695968
 20
1845.252440951989
 30
0.0
 40
4.0
100
AcDbArc
 50
270.0
 51
0.0
  0
LINE
  5
1F70
330
A
100
AcDbEntity
  8
1
  6
Continuous
 62
     2
100
AcDbLine
 10
3094.217638695968
 20
2022.252440951989
 30
0.0
 11
3094.217638695968
 21
1845.252440951989
 31
0.0
  0
ARC
  5
1F71
330
A
100
AcDbEntity
  8
1
  6
Continuous
 62
     2
100
AcDbCircle
 10
3090.217638695968
 20
2022.252440951989
 30
0.0
 40
4.0
100
AcDbArc
 50
0.0
 51
90.0
  0
LINE
  5
1F72
330
A
100
AcDbEntity
  8
1
  6
Continuous
 62
     2
100
AcDbLine
 10
3086.217638695968
 20
2026.252440951989
 30
0.0
 11
3090.217638695968
 21
2026.252440951989
 31
0.0
  0
LINE
  5
1F73
330
A
100
AcDbEntity
  8
1
  6
Continuous
 62
     2
100
AcDbLine
 10
3086.217638695968
 20
2029.752440951988
 30
0.0
 11
3086.217638695968
 21
2026.252440951989
 31
0.0
  0
ARC
  5
1F74
330
A
100
AcDbEntity
  8
1
  6
Continuous
 62
     2
100
AcDbCircle
 10
3059.217638695967
 20
2029.752440951988
 30
0.0
 40
27.0
100
AcDbArc
 50
0.0
 51
90.0
  0
LINE
  5
1F75
330
A
100
AcDbEntity
  8
1
  6
Continuous
 62
     2
100
AcDbLine
 10
2923.217638695967
 20
2056.752440951989
 30
0.0
 11
3059.217638695967
 21
2056.752440951989
 31
0.0
  0
ARC
  5
1F76
330
A
100
AcDbEntity
  8
1
  6
Continuous
 62
     2
100
AcDbCircle
 10
2923.217638695967
 20
2059.752440951989
 30
0.0
 40
3.0
100
AcDbArc
 50
180.0
 51
270.0
  0
LINE
  5
1F77
330
A
100
AcDbEntity
  8
1
  6
Continuous
 62
     2
100
AcDbLine
 10
2920.217638695968
 20
2069.75244095199
 30
0.0
 11
2920.217638695968
 21
2059.752440951989
 31
0.0
  0
ARC
  5
1F78
330
A
100
AcDbEntity
  8
1
  6
Continuous
 62
     2
100
AcDbCircle
 10
2913.217638695968
 20
2069.75244095199
 30
0.0
 40
7.0
100
AcDbArc
 50
0.0
 51
90.0
  0
LINE
  5
1F79
330
A
100
AcDbEntity
  8
1
  6
Continuous
 62
     2
100
AcDbLine
 10
2906.217638695967
 20
2076.752440951989
 30
0.0
 11
2913.217638695968
 21
2076.75244095199
 31
0.0
  0
ARC
  5
1F7A
330
A
100
AcDbEntity
  8
1
  6
Continuous
 62
     2
100
AcDbCircle
 10
2906.217638695967
 20
2077.752440951988
 30
0.0
 40
1.0
100
AcDbArc
 50
180.0
 51
270.0
  0
LINE
  5
1F7B
330
A
100
AcDbEntity
  8
1
  6
Continuous
 62
     2
100
AcDbLine
 10
2905.217638695967
 20
2089.752440951989
 30
0.0
 11
2905.217638695967
 21
2077.752440951988
 31
0.0
  0
ARC
  5
1F7C
330
A
100
AcDbEntity
  8
1
  6
Continuous
 62
     2
100
AcDbCircle
 10
3090.217638695968
 20
1845.252440951989
 30
0.0
 40
2.0
100
AcDbArc
 50
270.0
 51
0.0
  0
ARC
  5
1F7D
330
A
100
AcDbEntity
  8
1
  6
Continuous
 62
     2
100
AcDbCircle
 10
3090.217638695968
 20
2022.252440951989
 30
0.0
 40
2.0
100
AcDbArc
 50
0.0
 51
90.0
  0
LINE
  5
1F7E
330
A
100
AcDbEntity
  8
1
  6
Continuous
 62
     2
100
AcDbLine
 10
3084.217638695967
 20
1843.25244095199
 30
0.0
 11
3084.217638695967
 21
2029.752440951988
 31
0.0
  0
TEXT
  5
1F7F
330
A
100
AcDbEntity
  8
1
 62
     3
100
AcDbText
 10
3109.717327336362
 20
2144.752439016238
 30
0.0
 40
20.0
  1
8
 41
0.75
 51
15.0
 72
     1
 11
3114.717327336362
 21
2144.752439016238
 31
0.0
100
AcDbText
  0
LINE
  5
1F80
330
A
100
AcDbEntity
  8
1
  6
Continuous
 62
     3
100
AcDbLine
 10
3084.217638695967
 20
2139.752440951989
 30
0.0
 11
3092.217638695967
 21
2139.752440951989
 31
0.0
  0
LINE
  5
1F81
330
A
100
AcDbEntity
  8
1
  6
Continuous
 62
     3
100
AcDbLine
 10
3092.217638695967
 20
2139.752440951989
 30
0.0
 11
3111.536155221749
 21
2134.576060049939
 31
0.0
  0
LINE
  5
1F82
330
A
100
AcDbEntity
  8
1
  6
Continuous
 62
     3
100
AcDbLine
 10
3092.217638695967
 20
2139.752440951989
 30
0.0
 11
3111.536155221749
 21
2144.92882185404
 31
0.0
  0
LINE
  5
1F83
330
A
100
AcDbEntity
  8
1
  6
Continuous
 62
     3
100
AcDbLine
 10
3092.217638695967
 20
2139.752440951989
 30
0.0
 11
3137.217638695967
 21
2139.752440951989
 31
0.0
  0
LINE
  5
1F84
330
A
100
AcDbEntity
  8
1
  6
Continuous
 62
     3
100
AcDbLine
 10
3092.217638695967
 20
2029.252440951989
 30
0.0
 11
3092.217638695967
 21
2144.75244095199
 31
0.0
  0
TEXT
  5
1F85
330
A
100
AcDbEntity
  8
1
 62
     3
100
AcDbText
 10
2978.717449406674
 20
2144.752439016238
 30
0.0
 40
20.0
  1
181
 41
0.75
 51
15.0
 72
     1
 11
2993.717449406674
 21
2144.752439016238
 31
0.0
100
AcDbText
  0
LINE
  5
1F86
330
A
100
AcDbEntity
  8
1
  6
Continuous
 62
     3
100
AcDbLine
 10
3084.217638695967
 20
2139.752440951989
 30
0.0
 11
3064.899122170186
 21
2144.92882185404
 31
0.0
  0
LINE
  5
1F87
330
A
100
AcDbEntity
  8
1
  6
Continuous
 62
     3
100
AcDbLine
 10
3084.217638695967
 20
2139.752440951989
 30
0.0
 11
3064.899122170186
 21
2134.576060049939
 31
0.0
  0
LINE
  5
1F88
330
A
100
AcDbEntity
  8
1
  6
Continuous
 62
     3
100
AcDbLine
 10
2903.217638695967
 20
2139.752440951989
 30
0.0
 11
2922.536155221749
 21
2134.576060049939
 31
0.0
  0
LINE
  5
1F89
330
A
100
AcDbEntity
  8
1
  6
Continuous
 62
     3
100
AcDbLine
 10
2903.217638695967
 20
2139.752440951989
 30
0.0
 11
2922.536155221749
 21
2144.92882185404
 31
0.0
  0
LINE
  5
1F8A
330
A
100
AcDbEntity
  8
1
  6
Continuous
 62
     3
100
AcDbLine
 10
2903.217638695967
 20
2139.752440951989
 30
0.0
 11
3084.217638695967
 21
2139.752440951989
 31
0.0
  0
LINE
  5
1F8B
330
A
100
AcDbEntity
  8
1
  6
Continuous
 62
     3
100
AcDbLine
 10
3084.217638695967
 20
2034.752440951988
 30
0.0
 11
3084.217638695967
 21
2144.75244095199
 31
0.0
  0
LINE
  5
1F8C
330
A
100
AcDbEntity
  8
1
  6
Continuous
 62
     3
100
AcDbLine
 10
2903.217638695967
 20
2094.752440951989
 30
0.0
 11
2903.217638695967
 21
2144.75244095199
 31
0.0
  0
TEXT
  5
1F8D
330
A
100
AcDbEntity
  8
1
 62
     3
100
AcDbText
 10
3096.717327336362
 20
1514.752439016238
 30
0.0
 40
20.0
  1
15
 41
0.75
 51
15.0
 72
     1
 11
3106.717327336362
 21
1514.752439016238
 31
0.0
100
AcDbText
  0
LINE
  5
1F8E
330
A
100
AcDbEntity
  8
1
  6
Continuous
 62
     3
100
AcDbLine
 10
3069.217638695967
 20
1509.752440951989
 30
0.0
 11
3084.217638695967
 21
1509.752440951989
 31
0.0
  0
LINE
  5
1F8F
330
A
100
AcDbEntity
  8
1
  6
Continuous
 62
     3
100
AcDbLine
 10
3084.217638695967
 20
1509.752440951989
 30
0.0
 11
3103.536155221749
 21
1504.576060049939
 31
0.0
  0
LINE
  5
1F90
330
A
100
AcDbEntity
  8
1
  6
Continuous
 62
     3
100
AcDbLine
 10
3084.217638695967
 20
1509.752440951989
 30
0.0
 11
3103.536155221749
 21
1514.92882185404
 31
0.0
  0
LINE
  5
1F91
330
A
100
AcDbEntity
  8
1
  6
Continuous
 62
     3
100
AcDbLine
 10
3084.217638695967
 20
1509.752440951989
 30
0.0
 11
3129.217638695968
 21
1509.752440951989
 31
0.0
  0
LINE
  5
1F92
330
A
100
AcDbEntity
  8
1
  6
Continuous
 62
     3
100
AcDbLine
 10
3084.217638695967
 20
1798.648790829478
 30
0.0
 11
3084.217638695967
 21
1504.752440951989
 31
0.0
  0
TEXT
  5
1F93
330
A
100
AcDbEntity
  8
1
 62
     3
100
AcDbText
 10
2968.717449406674
 20
1514.752439016238
 30
0.0
 40
20.0
  1
166
 41
0.75
 51
15.0
 72
     1
 11
2986.217449406674
 21
1514.752439016238
 31
0.0
100
AcDbText
  0
LINE
  5
1F94
330
A
100
AcDbEntity
  8
1
  6
Continuous
 62
     3
100
AcDbLine
 10
3069.217638695967
 20
1509.752440951989
 30
0.0
 11
3049.899122170185
 21
1514.92882185404
 31
0.0
  0
LINE
  5
1F95
330
A
100
AcDbEntity
  8
1
  6
Continuous
 62
     3
100
AcDbLine
 10
3069.217638695967
 20
1509.752440951989
 30
0.0
 11
3049.899122170185
 21
1504.576060049939
 31
0.0
  0
LINE
  5
1F96
330
A
100
AcDbEntity
  8
1
  6
Continuous
 62
     3
100
AcDbLine
 10
2903.217638695967
 20
1509.752440951989
 30
0.0
 11
2922.536155221749
 21
1504.576060049939
 31
0.0
  0
LINE
  5
1F97
330
A
100
AcDbEntity
  8
1
  6
Continuous
 62
     3
100
AcDbLine
 10
2903.217638695967
 20
1509.752440951989
 30
0.0
 11
2922.536155221749
 21
1514.92882185404
 31
0.0
  0
LINE
  5
1F98
330
A
100
AcDbEntity
  8
1
  6
Continuous
 62
     3
100
AcDbLine
 10
2903.217638695967
 20
1509.752440951989
 30
0.0
 11
3069.217638695967
 21
1509.752440951989
 31
0.0
  0
LINE
  5
1F99
330
A
100
AcDbEntity
  8
1
  6
Continuous
 62
     3
100
AcDbLine
 10
3069.217638695967
 20
1584.752440951989
 30
0.0
 11
3069.217638695967
 21
1504.752440951989
 31
0.0
  0
LINE
  5
1F9A
330
A
100
AcDbEntity
  8
1
  6
Continuous
 62
     3
100
AcDbLine
 10
2903.217638695967
 20
1554.752440951989
 30
0.0
 11
2903.217638695967
 21
1504.752440951989
 31
0.0
  0
ARC
  5
1F9B
330
A
100
AcDbEntity
  8
1
  6
Continuous
 62
     2
100
AcDbCircle
 10
3045.653200904508
 20
1614.752440951989
 30
0.0
 40
25.0
100
AcDbArc
 50
270.0
 51
356.6136656712032
  0
ARC
  5
1F9C
330
A
100
AcDbEntity
  8
1
  6
Continuous
 62
     2
100
AcDbCircle
 10
3059.217638695967
 20
1949.75244095199
 30
0.0
 40
25.0
100
AcDbArc
 50
0.0
 51
90.0
  0
ARC
  5
1F9D
330
A
100
AcDbEntity
  8
1
  6
Continuous
 62
     2
100
AcDbCircle
 10
3059.217638695967
 20
2029.752440951988
 30
0.0
 40
25.0
100
AcDbArc
 50
0.0
 51
90.0
  0
LINE
  5
1F9E
330
A
100
AcDbEntity
  8
1
  6
Continuous
 62
     2
100
AcDbLine
 10
3084.217638695967
 20
1843.25244095199
 30
0.0
 11
3070.609549523254
 21
1613.275733933128
 31
0.0
  0
LINE
  5
1F9F
330
A
100
AcDbEntity
  8
1
  6
Continuous
 62
     2
100
AcDbLine
 10
3092.217638695967
 20
1845.252440951989
 30
0.0
 11
3092.217638695967
 21
2022.252440951989
 31
0.0
  0
LINE
  5
1FA0
330
A
100
AcDbEntity
  8
1
  6
Continuous
 62
     2
100
AcDbLine
 10
2903.217638695967
 20
2077.752440951988
 30
0.0
 11
2903.217638695967
 21
1571.752440951989
 31
0.0
  0
ARC
  5
1FA1
330
A
100
AcDbEntity
  8
1
  6
Continuous
 62
     2
100
AcDbCircle
 10
2906.217638695967
 20
1571.752440951989
 30
0.0
 40
3.0
100
AcDbArc
 50
90.0
 51
180.0
  0
ARC
  5
1FA2
330
A
100
AcDbEntity
  8
1
  6
Continuous
 62
     2
100
AcDbCircle
 10
2913.217638695968
 20
1579.752440951989
 30
0.0
 40
5.0
100
AcDbArc
 50
270.0
 51
0.0
  0
ARC
  5
1FA3
330
A
100
AcDbEntity
  8
1
  6
Continuous
 62
     2
100
AcDbCircle
 10
2923.217638695967
 20
1584.752440951989
 30
0.0
 40
5.0
100
AcDbArc
 50
90.0
 51
180.0
  0
LINE
  5
1FA4
330
A
100
AcDbEntity
  8
1
  6
Continuous
 62
     2
100
AcDbLine
 10
2918.217638695967
 20
1584.752440951989
 30
0.0
 11
2918.217638695967
 21
1579.752440951989
 31
0.0
  0
LINE
  5
1FA5
330
A
100
AcDbEntity
  8
1
  6
Continuous
 62
     2
100
AcDbLine
 10
2903.217638695967
 20
1571.752440951989
 30
0.0
 11
2903.217638695967
 21
1559.752440951989
 31
0.0
  0
ARC
  5
1FA6
330
A
100
AcDbEntity
  8
1
  6
Continuous
 62
     2
100
AcDbCircle
 10
2923.217638695967
 20
2059.752440951989
 30
0.0
 40
5.0
100
AcDbArc
 50
180.0
 51
270.0
  0
ARC
  5
1FA7
330
A
100
AcDbEntity
  8
1
  6
Continuous
 62
     2
100
AcDbCircle
 10
2913.217638695968
 20
2069.75244095199
 30
0.0
 40
5.0
100
AcDbArc
 50
0.0
 51
90.0
  0
ARC
  5
1FA8
330
A
100
AcDbEntity
  8
1
  6
Continuous
 62
     2
100
AcDbCircle
 10
2906.217638695967
 20
2077.752440951988
 30
0.0
 40
3.0
100
AcDbArc
 50
180.0
 51
270.0
  0
LINE
  5
1FA9
330
A
100
AcDbEntity
  8
1
  6
Continuous
 62
     2
100
AcDbLine
 10
2918.217638695967
 20
1584.752440951989
 30
0.0
 11
2918.217638695967
 21
2069.75244095199
 31
0.0
  0
LINE
  5
1FAA
330
A
100
AcDbEntity
  8
1
  6
Continuous
 62
     2
100
AcDbLine
 10
2913.217638695968
 20
1574.752440951989
 30
0.0
 11
2906.217638695967
 21
1574.752440951989
 31
0.0
  0
LINE
  5
1FAB
330
A
100
AcDbEntity
  8
1
  6
Continuous
 62
     2
100
AcDbLine
 10
3045.653200904508
 20
1589.752440951989
 30
0.0
 11
2923.217638695967
 21
1589.752440951989
 31
0.0
  0
LINE
  5
1FAC
330
A
100
AcDbEntity
  8
1
  6
Continuous
 62
     2
100
AcDbLine
 10
3084.217638695967
 20
1843.252440951989
 30
0.0
 11
3090.217638695968
 21
1843.252440951989
 31
0.0
  0
LINE
  5
1FAD
330
A
100
AcDbEntity
  8
1
  6
Continuous
 62
     2
100
AcDbLine
 10
3090.217638695968
 20
2024.252440951988
 30
0.0
 11
3084.217638695967
 21
2024.252440951988
 31
0.0
  0
LINE
  5
1FAE
330
A
100
AcDbEntity
  8
1
  6
Continuous
 62
     2
100
AcDbLine
 10
2918.217638695967
 20
1974.75244095199
 30
0.0
 11
3059.217638695967
 21
1974.75244095199
 31
0.0
  0
LINE
  5
1FAF
330
A
100
AcDbEntity
  8
1
  6
Continuous
 62
     2
100
AcDbLine
 10
2923.217638695967
 20
2054.752440951989
 30
0.0
 11
3059.217638695967
 21
2054.752440951989
 31
0.0
  0
LINE
  5
1FB0
330
A
100
AcDbEntity
  8
1
  6
Continuous
 62
     2
100
AcDbLine
 10
2906.217638695967
 20
2074.752440951989
 30
0.0
 11
2913.217638695968
 21
2074.75244095199
 31
0.0
  0
LINE
  5
1FB1
330
A
100
AcDbEntity
  8
1
  6
Continuous
 62
     2
100
AcDbLine
 10
2903.217638695967
 20
2089.752440951988
 30
0.0
 11
2903.217638695967
 21
2077.752440951988
 31
0.0
  0
TEXT
  5
1FB2
330
A
100
AcDbEntity
  8
1
 62
     3
100
AcDbText
 10
1879.293016625058
 20
2013.761505171022
 30
0.0
 40
20.0
  1
2-R80
 50
304.7822265624926
 41
0.75
 51
15.0
 72
     1
 11
1898.546001652768
 21
1986.041745656863
 31
0.0
100
AcDbText
  0
LINE
  5
1FB3
330
A
100
AcDbEntity
  8
1
  6
Continuous
 62
     3
100
AcDbLine
 10
1868.084395037783
 20
2021.134309261099
 30
0.0
 11
1874.853315659938
 21
2002.314593173682
 31
0.0
  0
LINE
  5
1FB4
330
A
100
AcDbEntity
  8
1
  6
Continuous
 62
     3
100
AcDbLine
 10
1868.084395037783
 20
2021.134309261099
 30
0.0
 11
1883.356310296478
 21
2008.220417348463
 31
0.0
  0
LINE
  5
1FB5
330
A
100
AcDbEntity
  8
1
  6
Continuous
 62
     3
100
AcDbLine
 10
1868.084395037783
 20
2021.134309261099
 30
0.0
 11
1915.831628670871
 21
1952.389548246122
 31
0.0
  0
TEXT
  5
1FB6
330
A
100
AcDbEntity
  8
1
 62
     3
100
AcDbText
 10
2268.633252621698
 20
1924.851565059678
 30
0.0
 40
20.0
  1
%%c181
 50
319.8271484374968
 41
0.75
 51
15.0
 72
     1
 11
2285.825542668394
 21
1910.336911672488
 31
0.0
100
AcDbText
  0
LINE
  5
1FB7
330
A
100
AcDbEntity
  8
1
  6
Continuous
 62
     3
100
AcDbLine
 10
2319.490851644801
 20
1875.371267841503
 30
0.0
 11
2308.068802656188
 21
1891.788843694891
 31
0.0
  0
LINE
  5
1FB8
330
A
100
AcDbEntity
  8
1
  6
Continuous
 62
     3
100
AcDbLine
 10
2319.490851644801
 20
1875.371267841503
 30
0.0
 11
2301.390279130698
 21
1883.878281104788
 31
0.0
  0
LINE
  5
1FB9
330
A
100
AcDbEntity
  8
1
  6
Continuous
 62
     3
100
AcDbLine
 10
2181.188449261567
 20
1992.133614062475
 30
0.0
 11
2192.61049825018
 21
1975.716038209088
 31
0.0
  0
LINE
  5
1FBA
330
A
100
AcDbEntity
  8
1
  6
Continuous
 62
     3
100
AcDbLine
 10
2181.188449261567
 20
1992.133614062475
 30
0.0
 11
2199.28902177567
 21
1983.626600799191
 31
0.0
  0
LINE
  5
1FBB
330
A
100
AcDbEntity
  8
1
  6
Continuous
 62
     3
100
AcDbLine
 10
2181.188449261567
 20
1992.133614062475
 30
0.0
 11
2319.490851644801
 21
1875.371267841503
 31
0.0
  0
TEXT
  5
1FBC
330
A
100
AcDbEntity
  8
1
 62
     3
100
AcDbText
 10
2196.107036791746
 20
1896.084756324174
 30
0.0
 40
20.0
  1
%%c159
 50
39.12496948241442
 41
0.75
 51
15.0
 72
     1
 11
2215.501323918393
 21
1911.860105031863
 31
0.0
100
AcDbText
  0
LINE
  5
1FBD
330
A
100
AcDbEntity
  8
1
  6
Continuous
 62
     3
100
AcDbLine
 10
2188.471873000955
 20
1883.429080440976
 30
0.0
 11
2206.724996052998
 21
1891.603644579018
 31
0.0
  0
LINE
  5
1FBE
330
A
100
AcDbEntity
  8
1
  6
Continuous
 62
     3
100
AcDbLine
 10
2188.471873000955
 20
1883.429080440976
 30
0.0
 11
2200.192259193407
 21
1899.635022175407
 31
0.0
  0
LINE
  5
1FBF
330
A
100
AcDbEntity
  8
1
  6
Continuous
 62
     3
100
AcDbLine
 10
2312.207427905413
 20
1984.075801463003
 30
0.0
 11
2293.954304853371
 21
1975.901237324961
 31
0.0
  0
LINE
  5
1FC0
330
A
100
AcDbEntity
  8
1
  6
Continuous
 62
     3
100
AcDbLine
 10
2312.207427905413
 20
1984.075801463003
 30
0.0
 11
2300.487041712961
 21
1967.869859728571
 31
0.0
  0
LINE
  5
1FC1
330
A
100
AcDbEntity
  8
1
  6
Continuous
 62
     3
100
AcDbLine
 10
2312.207427905413
 20
1984.075801463003
 30
0.0
 11
2188.471873000955
 21
1883.429080440976
 31
0.0
  0
TEXT
  5
1FC2
330
A
100
AcDbEntity
  8
1
 62
     3
100
AcDbText
 10
1890.515573081599
 20
1594.281596518911
 30
0.0
 40
20.0
  1
2-R60
 50
32.48981475829713
 41
0.75
 51
15.0
 72
     1
 11
1918.983257512143
 21
1612.410398000613
 31
0.0
100
AcDbText
  0
LINE
  5
1FC3
330
A
100
AcDbEntity
  8
1
  6
Continuous
 62
     3
100
AcDbLine
 10
1887.644342954184
 20
1586.525425467389
 30
0.0
 11
1906.719750615614
 21
1592.536151093324
 31
0.0
  0
LINE
  5
1FC4
330
A
100
AcDbEntity
  8
1
  6
Continuous
 62
     3
100
AcDbLine
 10
1887.644342954184
 20
1586.525425467389
 30
0.0
 11
1901.158767763559
 21
1601.268570385342
 31
0.0
  0
LINE
  5
1FC5
330
A
100
AcDbEntity
  8
1
  6
Continuous
 62
     3
100
AcDbLine
 10
1887.644342954184
 20
1586.525425467389
 30
0.0
 11
1953.299790027741
 21
1628.336154328494
 31
0.0
  0
TEXT
  5
1FC6
330
A
100
AcDbEntity
  8
1
 62
     3
100
AcDbText
 10
1893.731942710505
 20
1634.536723472036
 30
0.0
 40
20.0
  1
2-R80
 50
32.48981475829713
 41
0.75
 51
15.0
 72
     1
 11
1922.199627141049
 21
1652.665524953738
 31
0.0
100
AcDbText
  0
LINE
  5
1FC7
330
A
100
AcDbEntity
  8
1
  6
Continuous
 62
     3
100
AcDbLine
 10
1890.860695892026
 20
1626.780465301187
 30
0.0
 11
1909.936103553455
 21
1632.791190927122
 31
0.0
  0
LINE
  5
1FC8
330
A
100
AcDbEntity
  8
1
  6
Continuous
 62
     3
100
AcDbLine
 10
1890.860695892026
 20
1626.780465301187
 30
0.0
 11
1904.375120701401
 21
1641.523610219139
 31
0.0
  0
LINE
  5
1FC9
330
A
100
AcDbEntity
  8
1
  6
Continuous
 62
     3
100
AcDbLine
 10
1890.860695892026
 20
1626.780465301187
 30
0.0
 11
1956.516142965582
 21
1668.591194162291
 31
0.0
  0
LINE
  5
1FCA
330
A
100
AcDbEntity
  8
1
  6
DASHDOT
 62
     4
100
AcDbLine
 10
2149.009110817883
 20
1933.752440951989
 30
0.0
 11
2350.589650453184
 21
1933.752440951989
 31
0.0
  0
LINE
  5
1FCB
330
A
100
AcDbEntity
  8
1
  6
DASHDOT
 62
     4
100
AcDbLine
 10
2250.339650453184
 20
1083.655538315183
 30
0.0
 11
2250.339650453184
 21
1346.401785970679
 31
0.0
  0
TEXT
  5
1FCC
330
A
100
AcDbEntity
  8
1
 62
     3
100
AcDbText
 10
2344.339702824644
 20
2144.752439016238
 30
0.0
 40
20.0
  1
228
 41
0.75
 51
15.0
 72
     1
 11
2364.339702824644
 21
2154.752439016238
 31
0.0
100
AcDbText
 73
     2
  0
LINE
  5
1FCD
330
A
100
AcDbEntity
  8
1
  6
Continuous
 62
     3
100
AcDbLine
 10
2250.339650453184
 20
2139.752440951989
 30
0.0
 11
2269.658166978966
 21
2134.576060049939
 31
0.0
  0
LINE
  5
1FCE
330
A
100
AcDbEntity
  8
1
  6
Continuous
 62
     3
100
AcDbLine
 10
2250.339650453184
 20
2139.752440951989
 30
0.0
 11
2269.658166978966
 21
2144.92882185404
 31
0.0
  0
LINE
  5
1FCF
330
A
100
AcDbEntity
  8
1
  6
Continuous
 62
     3
100
AcDbLine
 10
2478.339650453184
 20
2139.752440951989
 30
0.0
 11
2459.021133927403
 21
2144.92882185404
 31
0.0
  0
LINE
  5
1FD0
330
A
100
AcDbEntity
  8
1
  6
Continuous
 62
     3
100
AcDbLine
 10
2478.339650453184
 20
2139.752440951989
 30
0.0
 11
2459.021133927403
 21
2134.576060049939
 31
0.0
  0
LINE
  5
1FD1
330
A
100
AcDbEntity
  8
1
  6
Continuous
 62
     3
100
AcDbLine
 10
2478.339650453184
 20
2139.752440951989
 30
0.0
 11
2250.339650453184
 21
2139.752440951989
 31
0.0
  0
LINE
  5
1FD2
330
A
100
AcDbEntity
  8
1
  6
Continuous
 62
     3
100
AcDbLine
 10
2250.339650453184
 20
2104.520299048902
 30
0.0
 11
2250.339650453184
 21
2144.75244095199
 31
0.0
  0
LINE
  5
1FD3
330
A
100
AcDbEntity
  8
1
  6
Continuous
 62
     3
100
AcDbLine
 10
2478.339650453184
 20
2065.752440951989
 30
0.0
 11
2478.339650453184
 21
2144.75244095199
 31
0.0
  0
TEXT
  5
1FD4
330
A
100
AcDbEntity
  8
1
 62
     3
100
AcDbText
 10
2086.839702824643
 20
2194.752439016238
 30
0.0
 40
20.0
  1
287
 41
0.75
 51
15.0
 72
     1
 11
2106.839702824643
 21
2194.752439016238
 31
0.0
100
AcDbText
  0
LINE
  5
1FD5
330
A
100
AcDbEntity
  8
1
  6
Continuous
 62
     3
100
AcDbLine
 10
2250.339650453184
 20
2189.752440951989
 30
0.0
 11
2231.021133927403
 21
2194.928821854039
 31
0.0
  0
LINE
  5
1FD6
330
A
100
AcDbEntity
  8
1
  6
Continuous
 62
     3
100
AcDbLine
 10
2250.339650453184
 20
2189.752440951989
 30
0.0
 11
2231.021133927403
 21
2184.576060049939
 31
0.0
  0
LINE
  5
1FD7
330
A
100
AcDbEntity
  8
1
  6
Continuous
 62
     3
100
AcDbLine
 10
1963.339650453184
 20
2189.752440951989
 30
0.0
 11
1982.658166978966
 21
2184.576060049939
 31
0.0
  0
LINE
  5
1FD8
330
A
100
AcDbEntity
  8
1
  6
Continuous
 62
     3
100
AcDbLine
 10
1963.339650453184
 20
2189.752440951989
 30
0.0
 11
1982.658166978966
 21
2194.928821854039
 31
0.0
  0
LINE
  5
1FD9
330
A
100
AcDbEntity
  8
1
  6
Continuous
 62
     3
100
AcDbLine
 10
1963.339650453184
 20
2189.752440951989
 30
0.0
 11
2250.339650453184
 21
2189.752440951989
 31
0.0
  0
LINE
  5
1FDA
330
A
100
AcDbEntity
  8
1
  6
Continuous
 62
     3
100
AcDbLine
 10
2250.339650453184
 20
2106.357537410775
 30
0.0
 11
2250.339650453184
 21
2194.752440951989
 31
0.0
  0
LINE
  5
1FDB
330
A
100
AcDbEntity
  8
1
  6
Continuous
 62
     3
100
AcDbLine
 10
1963.339650453184
 20
2052.252440951989
 30
0.0
 11
1963.339650453184
 21
2194.752440951989
 31
0.0
  0
TEXT
  5
1FDC
330
A
100
AcDbEntity
  8
1
 62
     3
100
AcDbText
 10
2116.339702824643
 20
2144.752439016238
 30
0.0
 40
20.0
  1
228
 41
0.75
 51
15.0
 72
     1
 11
2136.339702824643
 21
2144.752439016238
 31
0.0
100
AcDbText
  0
LINE
  5
1FDD
330
A
100
AcDbEntity
  8
1
  6
Continuous
 62
     3
100
AcDbLine
 10
2250.339650453184
 20
2139.752440951989
 30
0.0
 11
2231.021133927403
 21
2144.92882185404
 31
0.0
  0
LINE
  5
1FDE
330
A
100
AcDbEntity
  8
1
  6
Continuous
 62
     3
100
AcDbLine
 10
2250.339650453184
 20
2139.752440951989
 30
0.0
 11
2231.021133927403
 21
2134.576060049939
 31
0.0
  0
LINE
  5
1FDF
330
A
100
AcDbEntity
  8
1
  6
Continuous
 62
     3
100
AcDbLine
 10
2022.339650453184
 20
2139.752440951989
 30
0.0
 11
2041.658166978966
 21
2134.576060049939
 31
0.0
  0
LINE
  5
1FE0
330
A
100
AcDbEntity
  8
1
  6
Continuous
 62
     3
100
AcDbLine
 10
2022.339650453184
 20
2139.752440951989
 30
0.0
 11
2041.658166978966
 21
2144.92882185404
 31
0.0
  0
LINE
  5
1FE1
330
A
100
AcDbEntity
  8
1
  6
Continuous
 62
     3
100
AcDbLine
 10
2022.339650453184
 20
2139.752440951989
 30
0.0
 11
2250.339650453184
 21
2139.752440951989
 31
0.0
  0
LINE
  5
1FE2
330
A
100
AcDbEntity
  8
1
  6
Continuous
 62
     3
100
AcDbLine
 10
2250.339650453184
 20
2104.520299048902
 30
0.0
 11
2250.339650453184
 21
2144.75244095199
 31
0.0
  0
LINE
  5
1FE3
330
A
100
AcDbEntity
  8
1
  6
Continuous
 62
     3
100
AcDbLine
 10
2022.339650453184
 20
2065.752440951989
 30
0.0
 11
2022.339650453184
 21
2144.75244095199
 31
0.0
  0
TEXT
  5
1FE4
330
A
100
AcDbEntity
  8
1
 62
     3
100
AcDbText
 10
1743.339626530697
 20
1989.252439016238
 30
0.0
 40
20.0
  1
141
 50
90.0
 41
0.75
 51
15.0
 72
     1
 11
1743.339626530697
 21
2004.252439016238
 31
0.0
100
AcDbText
  0
LINE
  5
1FE5
330
A
100
AcDbEntity
  8
1
  6
Continuous
 62
     3
100
AcDbLine
 10
1748.339650453185
 20
2074.752440951989
 30
0.0
 11
1743.163269551134
 21
2055.433924426208
 31
0.0
  0
LINE
  5
1FE6
330
A
100
AcDbEntity
  8
1
  6
Continuous
 62
     3
100
AcDbLine
 10
1748.339650453185
 20
2074.752440951989
 30
0.0
 11
1753.516031355234
 21
2055.433924426208
 31
0.0
  0
LINE
  5
1FE7
330
A
100
AcDbEntity
  8
1
  6
Continuous
 62
     3
100
AcDbLine
 10
1748.339650453185
 20
1933.752440951989
 30
0.0
 11
1753.516031355235
 21
1953.07095747777
 31
0.0
  0
LINE
  5
1FE8
330
A
100
AcDbEntity
  8
1
  6
Continuous
 62
     3
100
AcDbLine
 10
1748.339650453185
 20
1933.752440951989
 30
0.0
 11
1743.163269551134
 21
1953.07095747777
 31
0.0
  0
LINE
  5
1FE9
330
A
100
AcDbEntity
  8
1
  6
Continuous
 62
     3
100
AcDbLine
 10
1748.339650453185
 20
1933.752440951989
 30
0.0
 11
1748.339650453185
 21
2074.752440951989
 31
0.0
  0
LINE
  5
1FEA
330
A
100
AcDbEntity
  8
1
  6
Continuous
 62
     3
100
AcDbLine
 10
1938.339650453184
 20
2074.752440951989
 30
0.0
 11
1743.339650453185
 21
2074.752440951989
 31
0.0
  0
LINE
  5
1FEB
330
A
100
AcDbEntity
  8
1
  6
Continuous
 62
     3
100
AcDbLine
 10
2149.009110817883
 20
1933.752440951989
 30
0.0
 11
1743.339650453185
 21
1933.752440951989
 31
0.0
  0
TEXT
  5
1FEC
330
A
100
AcDbEntity
  8
1
 62
     3
100
AcDbText
 10
1793.339626530697
 20
2038.502439016238
 30
0.0
 40
20.0
  1
50
 50
90.0
 41
0.75
 51
15.0
 72
     1
 11
1793.339626530697
 21
2049.752439016238
 31
0.0
100
AcDbText
  0
LINE
  5
1FED
330
A
100
AcDbEntity
  8
1
  6
Continuous
 62
     3
100
AcDbLine
 10
1798.339650453185
 20
2074.752440951989
 30
0.0
 11
1793.163269551134
 21
2055.433924426208
 31
0.0
  0
LINE
  5
1FEE
330
A
100
AcDbEntity
  8
1
  6
Continuous
 62
     3
100
AcDbLine
 10
1798.339650453185
 20
2074.752440951989
 30
0.0
 11
1803.516031355234
 21
2055.433924426208
 31
0.0
  0
LINE
  5
1FEF
330
A
100
AcDbEntity
  8
1
  6
Continuous
 62
     3
100
AcDbLine
 10
1798.339650453185
 20
2024.752440951989
 30
0.0
 11
1803.516031355235
 21
2044.07095747777
 31
0.0
  0
LINE
  5
1FF0
330
A
100
AcDbEntity
  8
1
  6
Continuous
 62
     3
100
AcDbLine
 10
1798.339650453185
 20
2024.752440951989
 30
0.0
 11
1793.163269551134
 21
2044.07095747777
 31
0.0
  0
LINE
  5
1FF1
330
A
100
AcDbEntity
  8
1
  6
Continuous
 62
     3
100
AcDbLine
 10
1798.339650453185
 20
2024.752440951989
 30
0.0
 11
1798.339650453185
 21
2074.752440951989
 31
0.0
  0
LINE
  5
1FF2
330
A
100
AcDbEntity
  8
1
  6
Continuous
 62
     3
100
AcDbLine
 10
1938.339650453184
 20
2074.752440951989
 30
0.0
 11
1793.339650453185
 21
2074.752440951989
 31
0.0
  0
LINE
  5
1FF3
330
A
100
AcDbEntity
  8
1
  6
Continuous
 62
     3
100
AcDbLine
 10
1940.839650453184
 20
2024.752440951989
 30
0.0
 11
1793.339650453185
 21
2024.752440951989
 31
0.0
  0
TEXT
  5
1FF4
330
A
100
AcDbEntity
  8
1
 62
     3
100
AcDbText
 10
2797.339641789486
 20
1806.002500051395
 30
0.0
 40
20.0
  1
530
 50
90.0
 41
0.75
 51
15.0
 72
     1
 11
2797.339641789486
 21
1824.752500051395
 31
0.0
100
AcDbText
  0
LINE
  5
1FF5
330
A
100
AcDbEntity
  8
1
  6
Continuous
 62
     3
100
AcDbLine
 10
2802.339650453185
 20
2089.752440951989
 30
0.0
 11
2797.163269551135
 21
2070.433924426208
 31
0.0
  0
LINE
  5
1FF6
330
A
100
AcDbEntity
  8
1
  6
Continuous
 62
     3
100
AcDbLine
 10
2802.339650453185
 20
2089.752440951989
 30
0.0
 11
2807.516031355235
 21
2070.433924426208
 31
0.0
  0
LINE
  5
1FF7
330
A
100
AcDbEntity
  8
1
  6
Continuous
 62
     3
100
AcDbLine
 10
2802.339650453185
 20
1559.752440951989
 30
0.0
 11
2807.516031355235
 21
1579.07095747777
 31
0.0
  0
LINE
  5
1FF8
330
A
100
AcDbEntity
  8
1
  6
Continuous
 62
     3
100
AcDbLine
 10
2802.339650453185
 20
1559.752440951989
 30
0.0
 11
2797.163269551135
 21
1579.07095747777
 31
0.0
  0
LINE
  5
1FF9
330
A
100
AcDbEntity
  8
1
  6
Continuous
 62
     3
100
AcDbLine
 10
2802.339650453185
 20
1559.752440951989
 30
0.0
 11
2802.339650453185
 21
2089.752440951989
 31
0.0
  0
LINE
  5
1FFA
330
A
100
AcDbEntity
  8
1
  6
Continuous
 62
     3
100
AcDbLine
 10
2562.339650453183
 20
2089.752440951989
 30
0.0
 11
2807.339650453185
 21
2089.752440951989
 31
0.0
  0
LINE
  5
1FFB
330
A
100
AcDbEntity
  8
1
  6
Continuous
 62
     3
100
AcDbLine
 10
2582.339650453184
 20
1559.752440951989
 30
0.0
 11
2807.339650453185
 21
1559.752440951989
 31
0.0
  0
TEXT
  5
1FFC
330
A
100
AcDbEntity
  8
1
 62
     3
100
AcDbText
 10
2747.339641789487
 20
1524.752439016238
 30
0.0
 40
20.0
  1
15
 50
90.0
 41
0.75
 51
15.0
 72
     1
 11
2747.339641789487
 21
1534.752439016238
 31
0.0
100
AcDbText
  0
LINE
  5
1FFD
330
A
100
AcDbEntity
  8
1
  6
Continuous
 62
     3
100
AcDbLine
 10
2752.339650453185
 20
1559.752440951989
 30
0.0
 11
2752.339650453185
 21
1574.752440951989
 31
0.0
  0
LINE
  5
1FFE
330
A
100
AcDbEntity
  8
1
  6
Continuous
 62
     3
100
AcDbLine
 10
2752.339650453185
 20
1574.752440951989
 30
0.0
 11
2757.516031355236
 21
1594.07095747777
 31
0.0
  0
LINE
  5
1FFF
330
A
100
AcDbEntity
  8
1
  6
Continuous
 62
     3
100
AcDbLine
 10
2752.339650453185
 20
1574.752440951989
 30
0.0
 11
2747.163269551135
 21
1594.07095747777
 31
0.0
  0
LINE
  5
2000
330
A
100
AcDbEntity
  8
1
  6
Continuous
 62
     3
100
AcDbLine
 10
2752.339650453185
 20
1574.752440951989
 30
0.0
 11
2752.339650453185
 21
1604.752440951989
 31
0.0
  0
LINE
  5
2001
330
A
100
AcDbEntity
  8
1
  6
Continuous
 62
     3
100
AcDbLine
 10
2752.339650453185
 20
1559.752440951989
 30
0.0
 11
2747.163269551135
 21
1540.433924426207
 31
0.0
  0
LINE
  5
2002
330
A
100
AcDbEntity
  8
1
  6
Continuous
 62
     3
100
AcDbLine
 10
2752.339650453185
 20
1559.752440951989
 30
0.0
 11
2757.516031355236
 21
1540.433924426207
 31
0.0
  0
LINE
  5
2003
330
A
100
AcDbEntity
  8
1
  6
Continuous
 62
     3
100
AcDbLine
 10
2752.339650453185
 20
1509.752440951989
 30
0.0
 11
2752.339650453185
 21
1559.752440951989
 31
0.0
  0
LINE
  5
2004
330
A
100
AcDbEntity
  8
1
  6
Continuous
 62
     3
100
AcDbLine
 10
2582.339650453184
 20
1574.752440951989
 30
0.0
 11
2757.339650453185
 21
1574.752440951989
 31
0.0
  0
LINE
  5
2005
330
A
100
AcDbEntity
  8
1
  6
Continuous
 62
     3
100
AcDbLine
 10
2582.339650453184
 20
1559.752440951989
 30
0.0
 11
2757.339650453185
 21
1559.752440951989
 31
0.0
  0
TEXT
  5
2006
330
A
100
AcDbEntity
  8
1
 62
     3
100
AcDbText
 10
2747.339641789487
 20
2102.252439016238
 30
0.0
 40
20.0
  1
15
 50
90.0
 41
0.75
 51
15.0
 72
     1
 11
2747.339641789487
 21
2112.252439016238
 31
0.0
100
AcDbText
  0
LINE
  5
2007
330
A
100
AcDbEntity
  8
1
  6
Continuous
 62
     3
100
AcDbLine
 10
2752.339650453185
 20
2074.752440951989
 30
0.0
 11
2752.339650453185
 21
2089.752440951989
 31
0.0
  0
LINE
  5
2008
330
A
100
AcDbEntity
  8
1
  6
Continuous
 62
     3
100
AcDbLine
 10
2752.339650453185
 20
2089.752440951989
 30
0.0
 11
2757.516031355236
 21
2109.07095747777
 31
0.0
  0
LINE
  5
2009
330
A
100
AcDbEntity
  8
1
  6
Continuous
 62
     3
100
AcDbLine
 10
2752.339650453185
 20
2089.752440951989
 30
0.0
 11
2747.163269551135
 21
2109.07095747777
 31
0.0
  0
LINE
  5
200A
330
A
100
AcDbEntity
  8
1
  6
Continuous
 62
     3
100
AcDbLine
 10
2752.339650453185
 20
2089.752440951989
 30
0.0
 11
2752.339650453185
 21
2134.752440951989
 31
0.0
  0
LINE
  5
200B
330
A
100
AcDbEntity
  8
1
  6
Continuous
 62
     3
100
AcDbLine
 10
2752.339650453185
 20
2074.752440951989
 30
0.0
 11
2747.163269551135
 21
2055.433924426208
 31
0.0
  0
LINE
  5
200C
330
A
100
AcDbEntity
  8
1
  6
Continuous
 62
     3
100
AcDbLine
 10
2752.339650453185
 20
2074.752440951989
 30
0.0
 11
2757.516031355236
 21
2055.433924426208
 31
0.0
  0
LINE
  5
200D
330
A
100
AcDbEntity
  8
1
  6
Continuous
 62
     3
100
AcDbLine
 10
2752.339650453185
 20
2044.752440951989
 30
0.0
 11
2752.339650453185
 21
2074.752440951989
 31
0.0
  0
LINE
  5
200E
330
A
100
AcDbEntity
  8
1
  6
Continuous
 62
     3
100
AcDbLine
 10
2562.339650453183
 20
2089.752440951989
 30
0.0
 11
2757.339650453185
 21
2089.752440951989
 31
0.0
  0
LINE
  5
200F
330
A
100
AcDbEntity
  8
1
  6
Continuous
 62
     3
100
AcDbLine
 10
2562.339650453183
 20
2074.752440951989
 30
0.0
 11
2757.339650453185
 21
2074.752440951989
 31
0.0
  0
TEXT
  5
2010
330
A
100
AcDbEntity
  8
1
 62
     3
100
AcDbText
 10
2747.339641789487
 20
1769.752500051395
 30
0.0
 40
20.0
  1
500+2_-3
 50
90.0
 41
0.75
 51
15.0
 72
     1
 11
2747.339641789487
 21
1824.752500051395
 31
0.0
100
AcDbText
  0
LINE
  5
2011
330
A
100
AcDbEntity
  8
1
  6
Continuous
 62
     3
100
AcDbLine
 10
2752.339650453185
 20
2074.752440951989
 30
0.0
 11
2747.163269551135
 21
2055.433924426208
 31
0.0
  0
LINE
  5
2012
330
A
100
AcDbEntity
  8
1
  6
Continuous
 62
     3
100
AcDbLine
 10
2752.339650453185
 20
2074.752440951989
 30
0.0
 11
2757.516031355236
 21
2055.433924426208
 31
0.0
  0
LINE
  5
2013
330
A
100
AcDbEntity
  8
1
  6
Continuous
 62
     3
100
AcDbLine
 10
2752.339650453185
 20
1574.752440951989
 30
0.0
 11
2757.516031355236
 21
1594.07095747777
 31
0.0
  0
LINE
  5
2014
330
A
100
AcDbEntity
  8
1
  6
Continuous
 62
     3
100
AcDbLine
 10
2752.339650453185
 20
1574.752440951989
 30
0.0
 11
2747.163269551135
 21
1594.07095747777
 31
0.0
  0
LINE
  5
2015
330
A
100
AcDbEntity
  8
1
  6
Continuous
 62
     3
100
AcDbLine
 10
2752.339650453185
 20
1574.752440951989
 30
0.0
 11
2752.339650453185
 21
2074.752440951989
 31
0.0
  0
LINE
  5
2016
330
A
100
AcDbEntity
  8
1
  6
Continuous
 62
     3
100
AcDbLine
 10
2562.339650453183
 20
2074.752440951989
 30
0.0
 11
2757.339650453185
 21
2074.752440951989
 31
0.0
  0
LINE
  5
2017
330
A
100
AcDbEntity
  8
1
  6
Continuous
 62
     3
100
AcDbLine
 10
2582.339650453184
 20
1574.752440951989
 30
0.0
 11
2757.339650453185
 21
1574.752440951989
 31
0.0
  0
TEXT
  5
2018
330
A
100
AcDbEntity
  8
1
 62
     3
100
AcDbText
 10
2697.339641789487
 20
1539.752439016238
 30
0.0
 40
20.0
  1
15
 50
90.0
 41
0.75
 51
15.0
 72
     1
 11
2697.339641789487
 21
1549.752439016238
 31
0.0
100
AcDbText
  0
LINE
  5
2019
330
A
100
AcDbEntity
  8
1
  6
Continuous
 62
     3
100
AcDbLine
 10
2702.339650453185
 20
1574.752440951989
 30
0.0
 11
2702.339650453185
 21
1589.752440951989
 31
0.0
  0
LINE
  5
201A
330
A
100
AcDbEntity
  8
1
  6
Continuous
 62
     3
100
AcDbLine
 10
2702.339650453185
 20
1589.752440951989
 30
0.0
 11
2707.516031355235
 21
1609.07095747777
 31
0.0
  0
LINE
  5
201B
330
A
100
AcDbEntity
  8
1
  6
Continuous
 62
     3
100
AcDbLine
 10
2702.339650453185
 20
1589.752440951989
 30
0.0
 11
2697.163269551135
 21
1609.07095747777
 31
0.0
  0
LINE
  5
201C
330
A
100
AcDbEntity
  8
1
  6
Continuous
 62
     3
100
AcDbLine
 10
2702.339650453185
 20
1589.752440951989
 30
0.0
 11
2702.339650453185
 21
1619.752440951989
 31
0.0
  0
LINE
  5
201D
330
A
100
AcDbEntity
  8
1
  6
Continuous
 62
     3
100
AcDbLine
 10
2702.339650453185
 20
1574.752440951989
 30
0.0
 11
2697.163269551135
 21
1555.433924426208
 31
0.0
  0
LINE
  5
201E
330
A
100
AcDbEntity
  8
1
  6
Continuous
 62
     3
100
AcDbLine
 10
2702.339650453185
 20
1574.752440951989
 30
0.0
 11
2707.516031355235
 21
1555.433924426208
 31
0.0
  0
LINE
  5
201F
330
A
100
AcDbEntity
  8
1
  6
Continuous
 62
     3
100
AcDbLine
 10
2702.339650453185
 20
1524.752440951989
 30
0.0
 11
2702.339650453185
 21
1574.752440951989
 31
0.0
  0
LINE
  5
2020
330
A
100
AcDbEntity
  8
1
  6
Continuous
 62
     3
100
AcDbLine
 10
2547.339650453184
 20
1589.752440951989
 30
0.0
 11
2707.339650453185
 21
1589.752440951989
 31
0.0
  0
LINE
  5
2021
330
A
100
AcDbEntity
  8
1
  6
Continuous
 62
     3
100
AcDbLine
 10
2582.339650453184
 20
1574.752440951989
 30
0.0
 11
2707.339650453185
 21
1574.752440951989
 31
0.0
  0
TEXT
  5
2022
330
A
100
AcDbEntity
  8
1
 62
     3
100
AcDbText
 10
2697.339641789487
 20
2086.002439016238
 30
0.0
 40
20.0
  1
20
 50
90.0
 41
0.75
 51
15.0
 72
     1
 11
2697.339641789487
 21
2097.252439016238
 31
0.0
100
AcDbText
  0
LINE
  5
2023
330
A
100
AcDbEntity
  8
1
  6
Continuous
 62
     3
100
AcDbLine
 10
2702.339650453185
 20
2054.752440951989
 30
0.0
 11
2702.339650453185
 21
2074.752440951989
 31
0.0
  0
LINE
  5
2024
330
A
100
AcDbEntity
  8
1
  6
Continuous
 62
     3
100
AcDbLine
 10
2702.339650453185
 20
2074.752440951989
 30
0.0
 11
2707.516031355235
 21
2094.07095747777
 31
0.0
  0
LINE
  5
2025
330
A
100
AcDbEntity
  8
1
  6
Continuous
 62
     3
100
AcDbLine
 10
2702.339650453185
 20
2074.752440951989
 30
0.0
 11
2697.163269551135
 21
2094.07095747777
 31
0.0
  0
LINE
  5
2026
330
A
100
AcDbEntity
  8
1
  6
Continuous
 62
     3
100
AcDbLine
 10
2702.339650453185
 20
2074.752440951989
 30
0.0
 11
2702.339650453185
 21
2119.752440951989
 31
0.0
  0
LINE
  5
2027
330
A
100
AcDbEntity
  8
1
  6
Continuous
 62
     3
100
AcDbLine
 10
2702.339650453185
 20
2054.752440951989
 30
0.0
 11
2697.163269551135
 21
2035.433924426208
 31
0.0
  0
LINE
  5
2028
330
A
100
AcDbEntity
  8
1
  6
Continuous
 62
     3
100
AcDbLine
 10
2702.339650453185
 20
2054.752440951989
 30
0.0
 11
2707.516031355235
 21
2035.433924426208
 31
0.0
  0
LINE
  5
2029
330
A
100
AcDbEntity
  8
1
  6
Continuous
 62
     3
100
AcDbLine
 10
2702.339650453185
 20
2024.752440951989
 30
0.0
 11
2702.339650453185
 21
2054.752440951989
 31
0.0
  0
LINE
  5
202A
330
A
100
AcDbEntity
  8
1
  6
Continuous
 62
     3
100
AcDbLine
 10
2562.339650453183
 20
2074.752440951989
 30
0.0
 11
2707.339650453185
 21
2074.752440951989
 31
0.0
  0
LINE
  5
202B
330
A
100
AcDbEntity
  8
1
  6
Continuous
 62
     3
100
AcDbLine
 10
2427.339650453184
 20
2054.752440951989
 30
0.0
 11
2707.339650453185
 21
2054.752440951989
 31
0.0
  0
TEXT
  5
202C
330
A
100
AcDbEntity
  8
1
 62
     3
100
AcDbText
 10
2697.339641789487
 20
1802.252500051395
 30
0.0
 40
20.0
  1
465
 50
90.0
 41
0.75
 51
15.0
 72
     1
 11
2697.339641789487
 21
1822.252500051395
 31
0.0
100
AcDbText
  0
LINE
  5
202D
330
A
100
AcDbEntity
  8
1
  6
Continuous
 62
     3
100
AcDbLine
 10
2702.339650453185
 20
2054.752440951989
 30
0.0
 11
2697.163269551135
 21
2035.433924426208
 31
0.0
  0
LINE
  5
202E
330
A
100
AcDbEntity
  8
1
  6
Continuous
 62
     3
100
AcDbLine
 10
2702.339650453185
 20
2054.752440951989
 30
0.0
 11
2707.516031355235
 21
2035.433924426208
 31
0.0
  0
LINE
  5
202F
330
A
100
AcDbEntity
  8
1
  6
Continuous
 62
     3
100
AcDbLine
 10
2702.339650453185
 20
1589.752440951989
 30
0.0
 11
2707.516031355235
 21
1609.07095747777
 31
0.0
  0
LINE
  5
2030
330
A
100
AcDbEntity
  8
1
  6
Continuous
 62
     3
100
AcDbLine
 10
2702.339650453185
 20
1589.752440951989
 30
0.0
 11
2697.163269551135
 21
1609.07095747777
 31
0.0
  0
LINE
  5
2031
330
A
100
AcDbEntity
  8
1
  6
Continuous
 62
     3
100
AcDbLine
 10
2702.339650453185
 20
1589.752440951989
 30
0.0
 11
2702.339650453185
 21
2054.752440951989
 31
0.0
  0
LINE
  5
2032
330
A
100
AcDbEntity
  8
1
  6
Continuous
 62
     3
100
AcDbLine
 10
2427.339650453184
 20
2054.752440951989
 30
0.0
 11
2707.339650453185
 21
2054.752440951989
 31
0.0
  0
LINE
  5
2033
330
A
100
AcDbEntity
  8
1
  6
Continuous
 62
     3
100
AcDbLine
 10
2547.339650453184
 20
1589.752440951989
 30
0.0
 11
2707.339650453185
 21
1589.752440951989
 31
0.0
  0
TEXT
  5
2034
330
A
100
AcDbEntity
  8
1
 62
     3
100
AcDbText
 10
2231.589702824643
 20
1414.752439016238
 30
0.0
 40
20.0
  1
804
 41
0.75
 51
15.0
 72
     1
 11
2250.339702824643
 21
1414.752439016238
 31
0.0
100
AcDbText
  0
LINE
  5
2035
330
A
100
AcDbEntity
  8
1
  6
Continuous
 62
     3
100
AcDbLine
 10
2652.339650453185
 20
1409.752440951989
 30
0.0
 11
2633.021133927403
 21
1414.928821854039
 31
0.0
  0
LINE
  5
2036
330
A
100
AcDbEntity
  8
1
  6
Continuous
 62
     3
100
AcDbLine
 10
2652.339650453185
 20
1409.752440951989
 30
0.0
 11
2633.021133927403
 21
1404.576060049939
 31
0.0
  0
LINE
  5
2037
330
A
100
AcDbEntity
  8
1
  6
Continuous
 62
     3
100
AcDbLine
 10
1848.339650453185
 20
1409.752440951989
 30
0.0
 11
1867.658166978966
 21
1404.576060049939
 31
0.0
  0
LINE
  5
2038
330
A
100
AcDbEntity
  8
1
  6
Continuous
 62
     3
100
AcDbLine
 10
1848.339650453185
 20
1409.752440951989
 30
0.0
 11
1867.658166978966
 21
1414.928821854039
 31
0.0
  0
LINE
  5
2039
330
A
100
AcDbEntity
  8
1
  6
Continuous
 62
     3
100
AcDbLine
 10
1848.339650453185
 20
1409.752440951989
 30
0.0
 11
2652.339650453185
 21
1409.752440951989
 31
0.0
  0
LINE
  5
203A
330
A
100
AcDbEntity
  8
1
  6
Continuous
 62
     3
100
AcDbLine
 10
2652.339650453185
 20
1629.752440951989
 30
0.0
 11
2652.339650453185
 21
1404.752440951989
 31
0.0
  0
LINE
  5
203B
330
A
100
AcDbEntity
  8
1
  6
Continuous
 62
     3
100
AcDbLine
 10
1848.339650453185
 20
1629.752440951989
 30
0.0
 11
1848.339650453185
 21
1404.752440951989
 31
0.0
  0
TEXT
  5
203C
330
A
100
AcDbEntity
  8
1
 62
     3
100
AcDbText
 10
1813.339626530697
 20
1464.752439016238
 30
0.0
 40
20.0
  1
15
 41
0.75
 51
15.0
 72
     1
 11
1823.339626530697
 21
1464.752439016238
 31
0.0
100
AcDbText
  0
LINE
  5
203D
330
A
100
AcDbEntity
  8
1
  6
Continuous
 62
     3
100
AcDbLine
 10
1848.339650453185
 20
1459.752440951989
 30
0.0
 11
1863.339650453185
 21
1459.752440951989
 31
0.0
  0
LINE
  5
203E
330
A
100
AcDbEntity
  8
1
  6
Continuous
 62
     3
100
AcDbLine
 10
1863.339650453185
 20
1459.752440951989
 30
0.0
 11
1882.658166978966
 21
1454.576060049939
 31
0.0
  0
LINE
  5
203F
330
A
100
AcDbEntity
  8
1
  6
Continuous
 62
     3
100
AcDbLine
 10
1863.339650453185
 20
1459.752440951989
 30
0.0
 11
1882.658166978966
 21
1464.928821854039
 31
0.0
  0
LINE
  5
2040
330
A
100
AcDbEntity
  8
1
  6
Continuous
 62
     3
100
AcDbLine
 10
1863.339650453185
 20
1459.752440951989
 30
0.0
 11
1893.339650453185
 21
1459.752440951989
 31
0.0
  0
LINE
  5
2041
330
A
100
AcDbEntity
  8
1
  6
Continuous
 62
     3
100
AcDbLine
 10
1848.339650453185
 20
1459.752440951989
 30
0.0
 11
1829.021133927403
 21
1464.928821854039
 31
0.0
  0
LINE
  5
2042
330
A
100
AcDbEntity
  8
1
  6
Continuous
 62
     3
100
AcDbLine
 10
1848.339650453185
 20
1459.752440951989
 30
0.0
 11
1829.021133927403
 21
1454.576060049939
 31
0.0
  0
LINE
  5
2043
330
A
100
AcDbEntity
  8
1
  6
Continuous
 62
     3
100
AcDbLine
 10
1798.339650453185
 20
1459.752440951989
 30
0.0
 11
1848.339650453185
 21
1459.752440951989
 31
0.0
  0
LINE
  5
2044
330
A
100
AcDbEntity
  8
1
  6
Continuous
 62
     3
100
AcDbLine
 10
1863.339650453185
 20
1629.752440951989
 30
0.0
 11
1863.339650453185
 21
1454.752440951989
 31
0.0
  0
LINE
  5
2045
330
A
100
AcDbEntity
  8
1
  6
Continuous
 62
     3
100
AcDbLine
 10
1848.339650453185
 20
1629.752440951989
 30
0.0
 11
1848.339650453185
 21
1454.752440951989
 31
0.0
  0
TEXT
  5
2046
330
A
100
AcDbEntity
  8
1
 62
     3
100
AcDbText
 10
2664.839641789487
 20
1464.752439016238
 30
0.0
 40
20.0
  1
15
 41
0.75
 51
15.0
 72
     1
 11
2674.839641789487
 21
1464.752439016238
 31
0.0
100
AcDbText
  0
LINE
  5
2047
330
A
100
AcDbEntity
  8
1
  6
Continuous
 62
     3
100
AcDbLine
 10
2637.339650453185
 20
1459.752440951989
 30
0.0
 11
2652.339650453185
 21
1459.752440951989
 31
0.0
  0
LINE
  5
2048
330
A
100
AcDbEntity
  8
1
  6
Continuous
 62
     3
100
AcDbLine
 10
2652.339650453185
 20
1459.752440951989
 30
0.0
 11
2671.658166978965
 21
1454.576060049939
 31
0.0
  0
LINE
  5
2049
330
A
100
AcDbEntity
  8
1
  6
Continuous
 62
     3
100
AcDbLine
 10
2652.339650453185
 20
1459.752440951989
 30
0.0
 11
2671.658166978965
 21
1464.928821854039
 31
0.0
  0
LINE
  5
204A
330
A
100
AcDbEntity
  8
1
  6
Continuous
 62
     3
100
AcDbLine
 10
2652.339650453185
 20
1459.752440951989
 30
0.0
 11
2697.339650453185
 21
1459.752440951989
 31
0.0
  0
LINE
  5
204B
330
A
100
AcDbEntity
  8
1
  6
Continuous
 62
     3
100
AcDbLine
 10
2637.339650453185
 20
1459.752440951989
 30
0.0
 11
2618.021133927403
 21
1464.928821854039
 31
0.0
  0
LINE
  5
204C
330
A
100
AcDbEntity
  8
1
  6
Continuous
 62
     3
100
AcDbLine
 10
2637.339650453185
 20
1459.752440951989
 30
0.0
 11
2618.021133927403
 21
1454.576060049939
 31
0.0
  0
LINE
  5
204D
330
A
100
AcDbEntity
  8
1
  6
Continuous
 62
     3
100
AcDbLine
 10
2607.339650453185
 20
1459.752440951989
 30
0.0
 11
2637.339650453185
 21
1459.752440951989
 31
0.0
  0
LINE
  5
204E
330
A
100
AcDbEntity
  8
1
  6
Continuous
 62
     3
100
AcDbLine
 10
2652.339650453185
 20
1629.752440951989
 30
0.0
 11
2652.339650453185
 21
1454.752440951989
 31
0.0
  0
LINE
  5
204F
330
A
100
AcDbEntity
  8
1
  6
Continuous
 62
     3
100
AcDbLine
 10
2637.339650453185
 20
1629.752440951989
 30
0.0
 11
2637.339650453185
 21
1454.752440951989
 31
0.0
  0
TEXT
  5
2050
330
A
100
AcDbEntity
  8
1
 62
     3
100
AcDbText
 10
2192.839702824643
 20
1464.752439016238
 30
0.0
 40
20.0
  1
774+4_-2
 41
0.75
 51
15.0
 72
     1
 11
2250.339702824643
 21
1464.752439016238
 31
0.0
100
AcDbText
  0
LINE
  5
2051
330
A
100
AcDbEntity
  8
1
  6
Continuous
 62
     3
100
AcDbLine
 10
2637.339650453185
 20
1459.752440951989
 30
0.0
 11
2618.021133927403
 21
1464.928821854039
 31
0.0
  0
LINE
  5
2052
330
A
100
AcDbEntity
  8
1
  6
Continuous
 62
     3
100
AcDbLine
 10
2637.339650453185
 20
1459.752440951989
 30
0.0
 11
2618.021133927403
 21
1454.576060049939
 31
0.0
  0
LINE
  5
2053
330
A
100
AcDbEntity
  8
1
  6
Continuous
 62
     3
100
AcDbLine
 10
1863.339650453185
 20
1459.752440951989
 30
0.0
 11
1882.658166978966
 21
1454.576060049939
 31
0.0
  0
LINE
  5
2054
330
A
100
AcDbEntity
  8
1
  6
Continuous
 62
     3
100
AcDbLine
 10
1863.339650453185
 20
1459.752440951989
 30
0.0
 11
1882.658166978966
 21
1464.928821854039
 31
0.0
  0
LINE
  5
2055
330
A
100
AcDbEntity
  8
1
  6
Continuous
 62
     3
100
AcDbLine
 10
1863.339650453185
 20
1459.752440951989
 30
0.0
 11
2637.339650453185
 21
1459.752440951989
 31
0.0
  0
LINE
  5
2056
330
A
100
AcDbEntity
  8
1
  6
Continuous
 62
     3
100
AcDbLine
 10
2637.339650453185
 20
1629.752440951989
 30
0.0
 11
2637.339650453185
 21
1454.752440951989
 31
0.0
  0
LINE
  5
2057
330
A
100
AcDbEntity
  8
1
  6
Continuous
 62
     3
100
AcDbLine
 10
1863.339650453185
 20
1629.752440951989
 30
0.0
 11
1863.339650453185
 21
1454.752440951989
 31
0.0
  0
TEXT
  5
2058
330
A
100
AcDbEntity
  8
1
 62
     3
100
AcDbText
 10
1828.339641789486
 20
1514.752439016238
 30
0.0
 40
20.0
  1
15
 41
0.75
 51
15.0
 72
     1
 11
1838.339641789486
 21
1514.752439016238
 31
0.0
100
AcDbText
  0
LINE
  5
2059
330
A
100
AcDbEntity
  8
1
  6
Continuous
 62
     3
100
AcDbLine
 10
1863.339650453185
 20
1509.752440951989
 30
0.0
 11
1878.339650453185
 21
1509.752440951989
 31
0.0
  0
LINE
  5
205A
330
A
100
AcDbEntity
  8
1
  6
Continuous
 62
     3
100
AcDbLine
 10
1878.339650453185
 20
1509.752440951989
 30
0.0
 11
1897.658166978965
 21
1504.576060049939
 31
0.0
  0
LINE
  5
205B
330
A
100
AcDbEntity
  8
1
  6
Continuous
 62
     3
100
AcDbLine
 10
1878.339650453185
 20
1509.752440951989
 30
0.0
 11
1897.658166978965
 21
1514.92882185404
 31
0.0
  0
LINE
  5
205C
330
A
100
AcDbEntity
  8
1
  6
Continuous
 62
     3
100
AcDbLine
 10
1878.339650453185
 20
1509.752440951989
 30
0.0
 11
1908.339650453185
 21
1509.752440951989
 31
0.0
  0
LINE
  5
205D
330
A
100
AcDbEntity
  8
1
  6
Continuous
 62
     3
100
AcDbLine
 10
1863.339650453185
 20
1509.752440951989
 30
0.0
 11
1844.021133927403
 21
1514.92882185404
 31
0.0
  0
LINE
  5
205E
330
A
100
AcDbEntity
  8
1
  6
Continuous
 62
     3
100
AcDbLine
 10
1863.339650453185
 20
1509.752440951989
 30
0.0
 11
1844.021133927403
 21
1504.576060049939
 31
0.0
  0
LINE
  5
205F
330
A
100
AcDbEntity
  8
1
  6
Continuous
 62
     3
100
AcDbLine
 10
1813.339650453185
 20
1509.752440951989
 30
0.0
 11
1863.339650453185
 21
1509.752440951989
 31
0.0
  0
LINE
  5
2060
330
A
100
AcDbEntity
  8
1
  6
Continuous
 62
     3
100
AcDbLine
 10
1878.339650453185
 20
1664.752440951989
 30
0.0
 11
1878.339650453185
 21
1504.752440951989
 31
0.0
  0
LINE
  5
2061
330
A
100
AcDbEntity
  8
1
  6
Continuous
 62
     3
100
AcDbLine
 10
1863.339650453185
 20
1629.752440951989
 30
0.0
 11
1863.339650453185
 21
1504.752440951989
 31
0.0
  0
TEXT
  5
2062
330
A
100
AcDbEntity
  8
1
 62
     3
100
AcDbText
 10
2649.839641789487
 20
1514.752439016238
 30
0.0
 40
20.0
  1
15
 41
0.75
 51
15.0
 72
     1
 11
2659.839641789487
 21
1514.752439016238
 31
0.0
100
AcDbText
  0
LINE
  5
2063
330
A
100
AcDbEntity
  8
1
  6
Continuous
 62
     3
100
AcDbLine
 10
2622.339650453185
 20
1509.752440951989
 30
0.0
 11
2637.339650453185
 21
1509.752440951989
 31
0.0
  0
LINE
  5
2064
330
A
100
AcDbEntity
  8
1
  6
Continuous
 62
     3
100
AcDbLine
 10
2637.339650453185
 20
1509.752440951989
 30
0.0
 11
2656.658166978965
 21
1504.576060049939
 31
0.0
  0
LINE
  5
2065
330
A
100
AcDbEntity
  8
1
  6
Continuous
 62
     3
100
AcDbLine
 10
2637.339650453185
 20
1509.752440951989
 30
0.0
 11
2656.658166978965
 21
1514.92882185404
 31
0.0
  0
LINE
  5
2066
330
A
100
AcDbEntity
  8
1
  6
Continuous
 62
     3
100
AcDbLine
 10
2637.339650453185
 20
1509.752440951989
 30
0.0
 11
2682.339650453185
 21
1509.752440951989
 31
0.0
  0
LINE
  5
2067
330
A
100
AcDbEntity
  8
1
  6
Continuous
 62
     3
100
AcDbLine
 10
2622.339650453185
 20
1509.752440951989
 30
0.0
 11
2603.021133927403
 21
1514.92882185404
 31
0.0
  0
LINE
  5
2068
330
A
100
AcDbEntity
  8
1
  6
Continuous
 62
     3
100
AcDbLine
 10
2622.339650453185
 20
1509.752440951989
 30
0.0
 11
2603.021133927403
 21
1504.576060049939
 31
0.0
  0
LINE
  5
2069
330
A
100
AcDbEntity
  8
1
  6
Continuous
 62
     3
100
AcDbLine
 10
2592.339650453184
 20
1509.752440951989
 30
0.0
 11
2622.339650453185
 21
1509.752440951989
 31
0.0
  0
LINE
  5
206A
330
A
100
AcDbEntity
  8
1
  6
Continuous
 62
     3
100
AcDbLine
 10
2637.339650453185
 20
1629.752440951989
 30
0.0
 11
2637.339650453185
 21
1504.752440951989
 31
0.0
  0
LINE
  5
206B
330
A
100
AcDbEntity
  8
1
  6
Continuous
 62
     3
100
AcDbLine
 10
2622.339650453185
 20
1664.752440951989
 30
0.0
 11
2622.339650453185
 21
1504.752440951989
 31
0.0
  0
TEXT
  5
206C
330
A
100
AcDbEntity
  8
1
 62
     3
100
AcDbText
 10
2192.839702824643
 20
1514.752439016238
 30
0.0
 40
20.0
  1
744+4_-2
 41
0.75
 51
15.0
 72
     1
 11
2250.339702824643
 21
1514.752439016238
 31
0.0
100
AcDbText
  0
LINE
  5
206D
330
A
100
AcDbEntity
  8
1
  6
Continuous
 62
     3
100
AcDbLine
 10
2622.339650453185
 20
1509.752440951989
 30
0.0
 11
2603.021133927403
 21
1514.92882185404
 31
0.0
  0
LINE
  5
206E
330
A
100
AcDbEntity
  8
1
  6
Continuous
 62
     3
100
AcDbLine
 10
2622.339650453185
 20
1509.752440951989
 30
0.0
 11
2603.021133927403
 21
1504.576060049939
 31
0.0
  0
LINE
  5
206F
330
A
100
AcDbEntity
  8
1
  6
Continuous
 62
     3
100
AcDbLine
 10
1878.339650453185
 20
1509.752440951989
 30
0.0
 11
1897.658166978965
 21
1504.576060049939
 31
0.0
  0
LINE
  5
2070
330
A
100
AcDbEntity
  8
1
  6
Continuous
 62
     3
100
AcDbLine
 10
1878.339650453185
 20
1509.752440951989
 30
0.0
 11
1897.658166978965
 21
1514.92882185404
 31
0.0
  0
LINE
  5
2071
330
A
100
AcDbEntity
  8
1
  6
Continuous
 62
     3
100
AcDbLine
 10
1878.339650453185
 20
1509.752440951989
 30
0.0
 11
2622.339650453185
 21
1509.752440951989
 31
0.0
  0
LINE
  5
2072
330
A
100
AcDbEntity
  8
1
  6
Continuous
 62
     3
100
AcDbLine
 10
2622.339650453185
 20
1664.752440951989
 30
0.0
 11
2622.339650453185
 21
1504.752440951989
 31
0.0
  0
LINE
  5
2073
330
A
100
AcDbEntity
  8
1
  6
Continuous
 62
     3
100
AcDbLine
 10
1878.339650453185
 20
1664.752440951989
 30
0.0
 11
1878.339650453185
 21
1504.752440951989
 31
0.0
  0
ARC
  5
2074
330
A
100
AcDbEntity
  8
1
  6
Continuous
 62
     2
100
AcDbCircle
 10
2577.339650453184
 20
1634.752440951989
 30
0.0
 40
75.0
100
AcDbArc
 50
270.0
 51
0.0
  0
LINE
  5
2075
330
A
100
AcDbEntity
  8
1
  6
Continuous
 62
     2
100
AcDbLine
 10
1923.339650453184
 20
1559.752440951989
 30
0.0
 11
2577.339650453184
 21
1559.752440951989
 31
0.0
  0
ARC
  5
2076
330
A
100
AcDbEntity
  8
1
  6
Continuous
 62
     2
100
AcDbCircle
 10
1923.339650453184
 20
1634.752440951989
 30
0.0
 40
75.0
100
AcDbArc
 50
180.0
 51
270.0
  0
LINE
  5
2077
330
A
100
AcDbEntity
  8
1
  6
Continuous
 62
     2
100
AcDbLine
 10
1848.339650453185
 20
1994.752440951989
 30
0.0
 11
1848.339650453185
 21
1634.752440951989
 31
0.0
  0
ARC
  5
2078
330
A
100
AcDbEntity
  8
1
  6
Continuous
 62
     2
100
AcDbCircle
 10
1943.339650453184
 20
1994.752440951989
 30
0.0
 40
95.0
100
AcDbArc
 50
90.0
 51
180.0
  0
LINE
  5
2079
330
A
100
AcDbEntity
  8
1
  6
Continuous
 62
     2
100
AcDbLine
 10
2557.339650453183
 20
2089.752440951989
 30
0.0
 11
1943.339650453184
 21
2089.752440951989
 31
0.0
  0
ARC
  5
207A
330
A
100
AcDbEntity
  8
1
  6
Continuous
 62
     2
100
AcDbCircle
 10
2557.339650453183
 20
1994.752440951989
 30
0.0
 40
95.0
100
AcDbArc
 50
0.0
 51
90.0
  0
LINE
  5
207B
330
A
100
AcDbEntity
  8
1
  6
Continuous
 62
     2
100
AcDbLine
 10
2652.339650453185
 20
1634.752440951989
 30
0.0
 11
2652.339650453185
 21
1994.752440951989
 31
0.0
  0
CIRCLE
  5
207C
330
A
100
AcDbEntity
  8
1
  6
Continuous
 62
     4
100
AcDbCircle
 10
2478.339650453184
 20
2054.752440951989
 30
0.0
 40
6.0
  0
CIRCLE
  5
207D
330
A
100
AcDbEntity
  8
1
  6
Continuous
 62
     4
100
AcDbCircle
 10
2022.339650453184
 20
2054.752440951989
 30
0.0
 40
6.0
  0
LINE
  5
207E
330
A
100
AcDbEntity
  8
1
  6
DOT
 62
     5
100
AcDbLine
 10
1980.565766270845
 20
2027.836421145918
 30
0.0
 11
1998.339650453184
 21
2045.610305328259
 31
0.0
  0
LINE
  5
207F
330
A
100
AcDbEntity
  8
1
  6
DOT
 62
     5
100
AcDbLine
 10
1975.714019123948
 20
2037.126809622754
 30
0.0
 11
1998.339650453184
 21
2059.752440951989
 31
0.0
  0
LINE
  5
2080
330
A
100
AcDbEntity
  8
1
  6
DOT
 62
     5
100
AcDbLine
 10
1966.423630647113
 20
2041.97855676965
 30
0.0
 11
1984.197514829453
 21
2059.752440951989
 31
0.0
  0
LINE
  5
2081
330
A
100
AcDbEntity
  8
1
  6
DOT
 62
     5
100
AcDbLine
 10
1970.766057324377
 20
1989.752440951989
 30
0.0
 11
1998.339650453184
 21
2017.326034080797
 31
0.0
  0
LINE
  5
2082
330
A
100
AcDbEntity
  8
1
  6
DOT
 62
     5
100
AcDbLine
 10
1956.623921700646
 20
1989.752440951989
 30
0.0
 11
1998.339650453184
 21
2031.468169704527
 31
0.0
  0
LINE
  5
2083
330
A
100
AcDbEntity
  8
1
  6
DOT
 62
     5
100
AcDbLine
 10
1942.481786076915
 20
1989.752440951989
 30
0.0
 11
1960.255670259255
 21
2007.526325134329
 31
0.0
  0
LINE
  5
2084
330
A
100
AcDbEntity
  8
1
  6
DOT
 62
     5
100
AcDbLine
 10
1928.339650453184
 20
2046.320983446914
 30
0.0
 11
1941.77110795826
 21
2059.752440951989
 31
0.0
  0
LINE
  5
2085
330
A
100
AcDbEntity
  8
1
  6
DOT
 62
     5
100
AcDbLine
 10
1928.339650453184
 20
2032.178847823182
 30
0.0
 11
1955.913243581991
 21
2059.752440951989
 31
0.0
  0
LINE
  5
2086
330
A
100
AcDbEntity
  8
1
  6
DOT
 62
     5
100
AcDbLine
 10
1928.339650453184
 20
2018.036712199451
 30
0.0
 11
1970.055379205722
 21
2059.752440951989
 31
0.0
  0
LINE
  5
2087
330
A
100
AcDbEntity
  8
1
  6
DOT
 62
     5
100
AcDbLine
 10
1928.339650453184
 20
2003.89457657572
 30
0.0
 11
1946.113534635523
 21
2021.66846075806
 31
0.0
  0
LINE
  5
2088
330
A
100
AcDbEntity
  8
1
  6
DOT
 62
     5
100
AcDbLine
 10
1928.339650453184
 20
1989.752440951989
 30
0.0
 11
1950.965281782419
 21
2012.378072281225
 31
0.0
  0
LINE
  5
2089
330
A
100
AcDbEntity
  8
1
  6
DOT
 62
     4
100
AcDbLine
 10
1973.339650453184
 20
1989.752440951989
 30
0.0
 11
1998.339650453184
 21
2014.752440951989
 31
0.0
  0
LINE
  5
208A
330
A
100
AcDbEntity
  8
1
  6
DOT
 62
     4
100
AcDbLine
 10
1973.339650453184
 20
1989.752440951989
 30
0.0
 11
1928.339650453184
 21
1989.752440951989
 31
0.0
  0
LINE
  5
208B
330
A
100
AcDbEntity
  8
1
  6
DOT
 62
     4
100
AcDbLine
 10
1928.339650453184
 20
1989.752440951989
 30
0.0
 11
1928.339650453184
 21
2059.752440951989
 31
0.0
  0
LINE
  5
208C
330
A
100
AcDbEntity
  8
1
  6
DOT
 62
     4
100
AcDbLine
 10
1928.339650453184
 20
2059.752440951989
 30
0.0
 11
1998.339650453184
 21
2059.752440951989
 31
0.0
  0
LINE
  5
208D
330
A
100
AcDbEntity
  8
1
  6
DOT
 62
     4
100
AcDbLine
 10
1998.339650453184
 20
2059.752440951989
 30
0.0
 11
1998.339650453184
 21
2014.752440951989
 31
0.0
  0
CIRCLE
  5
208E
330
A
100
AcDbEntity
  8
1
  6
Continuous
 62
     2
100
AcDbCircle
 10
2250.339650453184
 20
1933.752440951989
 30
0.0
 40
79.75
  0
CIRCLE
  5
208F
330
A
100
AcDbEntity
  8
1
  6
Continuous
 62
     2
100
AcDbCircle
 10
2250.339650453184
 20
1933.752440951989
 30
0.0
 40
90.5
  0
ARC
  5
2090
330
A
100
AcDbEntity
  8
1
  6
Continuous
 62
     2
100
AcDbCircle
 10
2422.339650453184
 20
1989.752440951989
 30
0.0
 40
65.0
100
AcDbArc
 50
22.6198649480284
 51
90.0
  0
ARC
  5
2091
330
A
100
AcDbEntity
  8
1
  6
Continuous
 62
     2
100
AcDbCircle
 10
2542.339650453184
 20
2039.752440951989
 30
0.0
 40
65.0
100
AcDbArc
 50
202.6198649480285
 51
270.0
  0
ARC
  5
2092
330
A
100
AcDbEntity
  8
1
  6
Continuous
 62
     2
100
AcDbCircle
 10
2542.339650453184
 20
1894.752440951989
 30
0.0
 40
80.0
100
AcDbArc
 50
0.0
 51
90.0
  0
CIRCLE
  5
2093
330
A
100
AcDbEntity
  8
1
  6
DASHED
 62
     2
100
AcDbCircle
 10
1963.339650453184
 20
2024.752440951989
 30
0.0
 40
17.5
  0
ARC
  5
2094
330
A
100
AcDbEntity
  8
1
  6
Continuous
 62
     2
100
AcDbCircle
 10
2078.339650453183
 20
1989.752440951989
 30
0.0
 40
65.0
100
AcDbArc
 50
90.0
 51
157.3801350519716
  0
ARC
  5
2095
330
A
100
AcDbEntity
  8
1
  6
Continuous
 62
     2
100
AcDbCircle
 10
1958.339650453183
 20
2039.752440951989
 30
0.0
 40
65.0
100
AcDbArc
 50
270.0
 51
337.3801350519716
  0
ARC
  5
2096
330
A
100
AcDbEntity
  8
1
  6
Continuous
 62
     2
100
AcDbCircle
 10
1958.339650453184
 20
1894.752440951989
 30
0.0
 40
80.0
100
AcDbArc
 50
90.0
 51
180.0
  0
ARC
  5
2097
330
A
100
AcDbEntity
  8
1
  6
Continuous
 62
     2
100
AcDbCircle
 10
1958.339650453184
 20
1669.752440951989
 30
0.0
 40
80.0
100
AcDbArc
 50
180.0
 51
270.0
  0
ARC
  5
2098
330
A
100
AcDbEntity
  8
1
  6
Continuous
 62
     2
100
AcDbCircle
 10
2542.339650453184
 20
1669.752440951989
 30
0.0
 40
80.0
100
AcDbArc
 50
270.0
 51
0.0
  0
ARC
  5
2099
330
A
100
AcDbEntity
  8
1
  6
Continuous
 62
     2
100
AcDbCircle
 10
1923.339650453184
 20
1634.752440951989
 30
0.0
 40
60.0
100
AcDbArc
 50
180.0
 51
270.0
  0
ARC
  5
209A
330
A
100
AcDbEntity
  8
1
  6
Continuous
 62
     2
100
AcDbCircle
 10
2577.339650453184
 20
1634.752440951989
 30
0.0
 40
60.0
100
AcDbArc
 50
270.0
 51
0.0
  0
ARC
  5
209B
330
A
100
AcDbEntity
  8
1
  6
Continuous
 62
     2
100
AcDbCircle
 10
2557.339650453183
 20
1994.752440951989
 30
0.0
 40
80.0
100
AcDbArc
 50
0.0
 51
90.0
  0
ARC
  5
209C
330
A
100
AcDbEntity
  8
1
  6
Continuous
 62
     2
100
AcDbCircle
 10
1943.339650453184
 20
1994.752440951989
 30
0.0
 40
80.0
100
AcDbArc
 50
90.0
 51
180.0
  0
LINE
  5
209D
330
A
100
AcDbEntity
  8
1
  6
Continuous
 62
     2
100
AcDbLine
 10
2078.339650453184
 20
2054.752440951989
 30
0.0
 11
2422.339650453184
 21
2054.752440951989
 31
0.0
  0
LINE
  5
209E
330
A
100
AcDbEntity
  8
1
  6
Continuous
 62
     2
100
AcDbLine
 10
1958.339650453184
 20
1589.752440951989
 30
0.0
 11
2542.339650453184
 21
1589.752440951989
 31
0.0
  0
LINE
  5
209F
330
A
100
AcDbEntity
  8
1
  6
Continuous
 62
     2
100
AcDbLine
 10
1878.339650453185
 20
1894.752440951989
 30
0.0
 11
1878.339650453185
 21
1669.752440951989
 31
0.0
  0
LINE
  5
20A0
330
A
100
AcDbEntity
  8
1
  6
Continuous
 62
     2
100
AcDbLine
 10
2622.339650453185
 20
1669.752440951989
 30
0.0
 11
2622.339650453185
 21
1894.752440951989
 31
0.0
  0
LINE
  5
20A1
330
A
100
AcDbEntity
  8
1
  6
Continuous
 62
     2
100
AcDbLine
 10
2637.339650453185
 20
1634.752440951989
 30
0.0
 11
2637.339650453185
 21
1994.752440951989
 31
0.0
  0
LINE
  5
20A2
330
A
100
AcDbEntity
  8
1
  6
Continuous
 62
     2
100
AcDbLine
 10
1943.339650453184
 20
2074.752440951989
 30
0.0
 11
2557.339650453183
 21
2074.752440951989
 31
0.0
  0
LINE
  5
20A3
330
A
100
AcDbEntity
  8
1
  6
Continuous
 62
     2
100
AcDbLine
 10
1863.339650453185
 20
1634.752440951989
 30
0.0
 11
1863.339650453185
 21
1994.752440951989
 31
0.0
  0
LINE
  5
20A4
330
A
100
AcDbEntity
  8
1
  6
Continuous
 62
     2
100
AcDbLine
 10
2577.339650453184
 20
1574.752440951989
 30
0.0
 11
1923.339650453184
 21
1574.752440951989
 31
0.0
  0
ENDSEC
  0
SECTION
  2
OBJECTS
  0
DICTIONARY
  5
19
330
0
100
AcDbDictionary
281
     1
  3
ACAD_COLOR
350
337
  3
ACAD_GROUP
350
1A
  3
ACAD_LAYOUT
350
1E
  3
ACAD_MATERIAL
350
336
  3
ACAD_MLINESTYLE
350
1B
  3
ACAD_PLOTSETTINGS
350
22
  3
ACAD_PLOTSTYLENAME
350
1F
  3
ACAD_WIPEOUT_VARS
350
23
  3
ACDBHEADERROUNDTRIPXREC
350
20A8
  3
AcDbVariableDictionary
350
33D
  3
DWGPROPS
350
20A7
  0
DICTIONARY
  5
20AF
330
477
100
AcDbDictionary
280
     1
281
     1
  3
ACAD_MTEXT_RT
360
20B0
  0
DICTIONARY
  5
337
102
{ACAD_REACTORS
330
19
102
}
330
19
100
AcDbDictionary
281
     1
  0
DICTIONARY
  5
1A
102
{ACAD_REACTORS
330
19
102
}
330
19
100
AcDbDictionary
281
     1
  0
DICTIONARY
  5
1E
102
{ACAD_REACTORS
330
19
102
}
330
19
100
AcDbDictionary
281
     1
  3
Layout1
350
21
  3
Model
350
20
  0
DICTIONARY
  5
336
102
{ACAD_REACTORS
330
19
102
}
330
19
100
AcDbDictionary
281
     1
  0
DICTIONARY
  5
1B
102
{ACAD_REACTORS
330
19
102
}
330
19
100
AcDbDictionary
281
     1
  3
Standard
350
1C
  0
DICTIONARY
  5
22
102
{ACAD_REACTORS
330
19
102
}
330
19
100
AcDbDictionary
281
     1
  0
ACDBDICTIONARYWDFLT
  5
1F
102
{ACAD_REACTORS
330
19
102
}
330
19
100
AcDbDictionary
281
     1
  3
Normal
350
1D
100
AcDbDictionaryWithDefault
340
1D
  0
WIPEOUTVARIABLES
  5
23
330
19
100
AcDbWipeoutVariables
 70
     1
  0
DICTIONARY
  5
20A8
102
{ACAD_REACTORS
330
19
102
}
330
19
100
AcDbDictionary
281
     1
  3
COLORDICT
350
20AA
  3
MATERIALDICT
350
20A9
  0
DICTIONARY
  5
33D
102
{ACAD_REACTORS
330
19
102
}
330
19
100
AcDbDictionary
281
     1
  3
DIMASSOC
350
33E
  3
PROJECTNAME
350
33F
  0
XRECORD
  5
20A7
102
{ACAD_REACTORS
330
19
102
}
330
19
100
AcDbXrecord
280
     1
  1
DWGPROPS COOKIE
  2

  3

  4

  6

  7

  8
山崎　広絵
  9

300
=
301
=
302
=
303
=
304
=
305
=
306
=
307
=
308
=
309
=
 40
0.1072900347222222
 41
2453837.489419664
 42
2454456.622004294
  1

 90
        0
  0
XRECORD
  5
20B0
102
{ACAD_REACTORS
330
20AF
102
}
330
20AF
100
AcDbXrecord
280
     1
 40
239804.0
  1
\pl25;{\fArial|b0|i0|c0|p32;\H1.8x;e\H0.7778x;-KITCHEN \H0.3428x;U-ARCHITECTURE WORKS}
  0
LAYOUT
  5
21
102
{ACAD_XDICTIONARY
360
20AD
102
}
102
{ACAD_REACTORS
330
1E
102
}
330
1E
100
AcDbPlotSettings
  1

  2

  4

  6

 40
0.0
 41
0.0
 42
0.0
 43
0.0
 44
0.0
 45
0.0
 46
0.0
 47
0.0
 48
0.0
 49
0.0
140
0.0
141
0.0
142
1.0
143
1.0
 70
     0
 72
     0
 73
     0
 74
     0
  7

 75
     0
147
1.0
148
0.0
149
0.0
100
AcDbLayout
  1
Layout1
 70
     0
 71
     1
 10
0.0
 20
0.0
 11
12.0
 21
9.0
 12
0.0
 22
0.0
 32
0.0
 14
1.000000000000000E+20
 24
1.000000000000000E+20
 34
1.000000000000000E+20
 15
-1.000000000000000E+20
 25
-1.000000000000000E+20
 35
-1.000000000000000E+20
146
0.0
 13
0.0
 23
0.0
 33
0.0
 16
1.0
 26
0.0
 36
0.0
 17
0.0
 27
1.0
 37
0.0
 76
     0
330
B
  0
LAYOUT
  5
20
102
{ACAD_XDICTIONARY
360
20AB
102
}
102
{ACAD_REACTORS
330
1E
102
}
330
1E
100
AcDbPlotSettings
  1

  2
RICOH IPSiO CX3000 RPCS
  4
A4
  6

 40
5.873749732971191
 41
5.873747825622557
 42
5.873748779296875
 43
5.873748779296875
 44
209.9733276367186
 45
296.9259948730469
 46
3.1
 47
3.569999999999998
 48
0.0
 49
0.0
140
0.0
141
0.0
142
1.0
143
10.0
 70
 11284
 72
     1
 73
     1
 74
     1
  7

 75
    20
147
0.1
148
-1278.888712694861
149
-521.5521891253018
100
AcDbLayout
  1
Model
 70
     0
 71
     0
 10
0.0
 20
0.0
 11
0.0
 21
0.0
 12
0.0
 22
0.0
 32
0.0
 14
0.0
 24
0.0
 34
0.0
 15
0.0
 25
0.0
 35
0.0
146
0.0
 13
0.0
 23
0.0
 33
0.0
 16
0.0
 26
0.0
 36
0.0
 17
0.0
 27
0.0
 37
0.0
 76
     0
330
A
  0
MLINESTYLE
  5
1C
102
{ACAD_REACTORS
330
1B
102
}
330
1B
100
AcDbMlineStyle
  2
STANDARD
 70
     0
  3

 62
     0
 51
90.0
 52
90.0
 71
     2
 49
0.5
 62
   256
  6
BYLAYER
 49
-0.5
 62
   256
  6
BYLAYER
  0
ACDBPLACEHOLDER
  5
1D
102
{ACAD_REACTORS
330
1F
102
}
330
1F
  0
XRECORD
  5
20AA
102
{ACAD_REACTORS
330
20A8
102
}
330
20A8
100
AcDbXrecord
280
     1
340
337
  0
XRECORD
  5
20A9
102
{ACAD_REACTORS
330
20A8
102
}
330
20A8
100
AcDbXrecord
280
     1
340
336
  0
DICTIONARYVAR
  5
33E
102
{ACAD_REACTORS
330
33D
102
}
330
33D
100
DictionaryVariables
280
     0
  1
1
  0
DICTIONARYVAR
  5
33F
102
{ACAD_REACTORS
330
33D
102
}
330
33D
100
DictionaryVariables
280
     0
  1

  0
DICTIONARY
  5
20AD
330
21
100
AcDbDictionary
280
     1
281
     1
  3
ACAD_XREC_ROUNDTRIP
360
20AE
  0
DICTIONARY
  5
20AB
330
20
100
AcDbDictionary
280
     1
281
     1
  3
ACAD_XREC_ROUNDTRIP
360
20AC
  0
XRECORD
  5
20AE
102
{ACAD_REACTORS
330
20AD
102
}
330
20AD
100
AcDbXrecord
280
     1
102
SHADEPLOT
 70
     0
102
SHADEPLOTRESLEVEL
 70
     2
102
SHADEPLOTCUSTOMDPI
 70
   300
  0
XRECORD
  5
20AC
102
{ACAD_REACTORS
330
20AB
102
}
330
20AB
100
AcDbXrecord
280
     1
102
SHADEPLOT
 70
     0
102
SHADEPLOTRESLEVEL
 70
     2
102
SHADEPLOTCUSTOMDPI
 70
   300
  0
ENDSEC
  0
EOF
