  0
SECTION
  2
HEADER
  9
$ACADVER
  1
AC1015
  9
$ACADMAINTVER
 70
    20
  9
$DWGCODEPAGE
  3
ANSI_932
  9
$INSBASE
 10
0.0
 20
0.0
 30
0.0
  9
$EXTMIN
 10
607.7354295817558
 20
544.5438272766441
 30
-0.0015258207003583
  9
$EXTMAX
 10
3898.832921846759
 20
2339.756968241233
 30
0.0000000349246037
  9
$LIMMIN
 10
0.0
 20
0.0
  9
$LIMMAX
 10
0.0
 20
0.0
  9
$ORTHOMODE
 70
     0
  9
$REGENMODE
 70
     1
  9
$FILLMODE
 70
     1
  9
$QTEXTMODE
 70
     0
  9
$MIRRTEXT
 70
     1
  9
$LTSCALE
 40
254.0
  9
$ATTMODE
 70
     1
  9
$TEXTSIZE
 40
0.0
  9
$TRACEWID
 40
1.0
  9
$TEXTSTYLE
  7
Standard
  9
$CLAYER
  8
0
  9
$CELTYPE
  6
Continuous
  9
$CECOLOR
 62
   256
  9
$CELTSCALE
 40
1.0
  9
$DISPSILH
 70
     0
  9
$DIMSCALE
 40
1.0
  9
$DIMASZ
 40
0.18
  9
$DIMEXO
 40
0.0625
  9
$DIMDLI
 40
0.38
  9
$DIMRND
 40
0.0
  9
$DIMDLE
 40
0.0
  9
$DIMEXE
 40
0.18
  9
$DIMTP
 40
0.0
  9
$DIMTM
 40
0.0
  9
$DIMTXT
 40
0.18
  9
$DIMCEN
 40
0.09
  9
$DIMTSZ
 40
0.0
  9
$DIMTOL
 70
     0
  9
$DIMLIM
 70
     0
  9
$DIMTIH
 70
     1
  9
$DIMTOH
 70
     1
  9
$DIMSE1
 70
     0
  9
$DIMSE2
 70
     0
  9
$DIMTAD
 70
     0
  9
$DIMZIN
 70
     0
  9
$DIMBLK
  1

  9
$DIMASO
 70
     1
  9
$DIMSHO
 70
     1
  9
$DIMPOST
  1

  9
$DIMAPOST
  1

  9
$DIMALT
 70
     0
  9
$DIMALTD
 70
     2
  9
$DIMALTF
 40
25.4
  9
$DIMLFAC
 40
1.0
  9
$DIMTOFL
 70
     0
  9
$DIMTVP
 40
0.0
  9
$DIMTIX
 70
     0
  9
$DIMSOXD
 70
     0
  9
$DIMSAH
 70
     0
  9
$DIMBLK1
  1

  9
$DIMBLK2
  1

  9
$DIMSTYLE
  2
Standard
  9
$DIMCLRD
 70
     0
  9
$DIMCLRE
 70
     0
  9
$DIMCLRT
 70
     0
  9
$DIMTFAC
 40
1.0
  9
$DIMGAP
 40
0.09
  9
$DIMJUST
 70
     0
  9
$DIMSD1
 70
     0
  9
$DIMSD2
 70
     0
  9
$DIMTOLJ
 70
     1
  9
$DIMTZIN
 70
     0
  9
$DIMALTZ
 70
     0
  9
$DIMALTTZ
 70
     0
  9
$DIMUPT
 70
     0
  9
$DIMDEC
 70
     4
  9
$DIMTDEC
 70
     4
  9
$DIMALTU
 70
     2
  9
$DIMALTTD
 70
     2
  9
$DIMTXSTY
  7
Standard
  9
$DIMAUNIT
 70
     0
  9
$DIMADEC
 70
     0
  9
$DIMALTRND
 40
0.0
  9
$DIMAZIN
 70
     0
  9
$DIMDSEP
 70
     0
  9
$DIMATFIT
 70
     3
  9
$DIMFRAC
 70
     0
  9
$DIMLDRBLK
  1

  9
$DIMLUNIT
 70
     2
  9
$DIMLWD
 70
     0
  9
$DIMLWE
 70
     0
  9
$DIMTMOVE
 70
     0
  9
$LUNITS
 70
     2
  9
$LUPREC
 70
     4
  9
$SKETCHINC
 40
0.1
  9
$FILLETRAD
 40
0.0
  9
$AUNITS
 70
     0
  9
$AUPREC
 70
     0
  9
$MENU
  1
acad
  9
$ELEVATION
 40
0.0
  9
$PELEVATION
 40
0.0
  9
$THICKNESS
 40
0.0
  9
$LIMCHECK
 70
     0
  9
$CHAMFERA
 40
0.0
  9
$CHAMFERB
 40
0.0
  9
$CHAMFERC
 40
0.0
  9
$CHAMFERD
 40
0.0
  9
$SKPOLY
 70
     0
  9
$TDCREATE
 40
2453801.912376111
  9
$TDUCREATE
 40
2453801.537376111
  9
$TDUPDATE
 40
2453839.599457269
  9
$TDUUPDATE
 40
2453839.224457269
  9
$TDINDWG
 40
0.0106794213
  9
$TDUSRTIMER
 40
0.0106757870
  9
$USRTIMER
 70
     1
  9
$ANGBASE
 50
0.0
  9
$ANGDIR
 70
     0
  9
$PDMODE
 70
     1
  9
$PDSIZE
 40
-2.0
  9
$PLINEWID
 40
0.0
  9
$SPLFRAME
 70
     0
  9
$SPLINETYPE
 70
     6
  9
$SPLINESEGS
 70
     8
  9
$HANDSEED
  5
511
  9
$SURFTAB1
 70
     6
  9
$SURFTAB2
 70
     6
  9
$SURFTYPE
 70
     6
  9
$SURFU
 70
     6
  9
$SURFV
 70
     6
  9
$UCSBASE
  2

  9
$UCSNAME
  2

  9
$UCSORG
 10
0.0
 20
0.0
 30
0.0
  9
$UCSXDIR
 10
1.0
 20
0.0
 30
0.0
  9
$UCSYDIR
 10
0.0
 20
1.0
 30
0.0
  9
$UCSORTHOREF
  2

  9
$UCSORTHOVIEW
 70
     0
  9
$UCSORGTOP
 10
0.0
 20
0.0
 30
0.0
  9
$UCSORGBOTTOM
 10
0.0
 20
0.0
 30
0.0
  9
$UCSORGLEFT
 10
0.0
 20
0.0
 30
0.0
  9
$UCSORGRIGHT
 10
0.0
 20
0.0
 30
0.0
  9
$UCSORGFRONT
 10
0.0
 20
0.0
 30
0.0
  9
$UCSORGBACK
 10
0.0
 20
0.0
 30
0.0
  9
$PUCSBASE
  2

  9
$PUCSNAME
  2

  9
$PUCSORG
 10
0.0
 20
0.0
 30
0.0
  9
$PUCSXDIR
 10
1.0
 20
0.0
 30
0.0
  9
$PUCSYDIR
 10
0.0
 20
1.0
 30
0.0
  9
$PUCSORTHOREF
  2

  9
$PUCSORTHOVIEW
 70
     0
  9
$PUCSORGTOP
 10
0.0
 20
0.0
 30
0.0
  9
$PUCSORGBOTTOM
 10
0.0
 20
0.0
 30
0.0
  9
$PUCSORGLEFT
 10
0.0
 20
0.0
 30
0.0
  9
$PUCSORGRIGHT
 10
0.0
 20
0.0
 30
0.0
  9
$PUCSORGFRONT
 10
0.0
 20
0.0
 30
0.0
  9
$PUCSORGBACK
 10
0.0
 20
0.0
 30
0.0
  9
$USERI1
 70
     0
  9
$USERI2
 70
     0
  9
$USERI3
 70
     0
  9
$USERI4
 70
     0
  9
$USERI5
 70
     0
  9
$USERR1
 40
0.0
  9
$USERR2
 40
0.0
  9
$USERR3
 40
0.0
  9
$USERR4
 40
0.0
  9
$USERR5
 40
0.0
  9
$WORLDVIEW
 70
     1
  9
$SHADEDGE
 70
     3
  9
$SHADEDIF
 70
    70
  9
$TILEMODE
 70
     1
  9
$MAXACTVP
 70
    16
  9
$PINSBASE
 10
0.0
 20
0.0
 30
0.0
  9
$PLIMCHECK
 70
     0
  9
$PEXTMIN
 10
1.000000000000000E+20
 20
1.000000000000000E+20
 30
1.000000000000000E+20
  9
$PEXTMAX
 10
-1.000000000000000E+20
 20
-1.000000000000000E+20
 30
-1.000000000000000E+20
  9
$PLIMMIN
 10
0.0
 20
0.0
  9
$PLIMMAX
 10
12.0
 20
9.0
  9
$UNITMODE
 70
     0
  9
$VISRETAIN
 70
     0
  9
$PLINEGEN
 70
     1
  9
$PSLTSCALE
 70
     0
  9
$TREEDEPTH
 70
  3020
  9
$CMLSTYLE
  2
Standard
  9
$CMLJUST
 70
     0
  9
$CMLSCALE
 40
1.0
  9
$PROXYGRAPHICS
 70
     0
  9
$MEASUREMENT
 70
     1
  9
$CELWEIGHT
370
     0
  9
$ENDCAPS
280
     0
  9
$JOINSTYLE
280
     0
  9
$LWDISPLAY
290
     1
  9
$INSUNITS
 70
     4
  9
$HYPERLINKBASE
  1

  9
$STYLESHEET
  1

  9
$XEDIT
290
     1
  9
$CEPSNTYPE
380
     0
  9
$PSTYLEMODE
290
     1
  9
$FINGERPRINTGUID
  2

  9
$VERSIONGUID
  2
{37A70663-AC53-42DF-86F6-0C710CE2D3A5}
  9
$EXTNAMES
290
     1
  9
$PSVPSCALE
 40
0.0
  9
$OLESTARTUP
290
     0
  0
ENDSEC
  0
SECTION
  2
CLASSES
  0
CLASS
  1
IMAGE
  2
AcDbRasterImage
  3
ISM
 90
    32895
280
     0
281
     1
  0
CLASS
  1
DICTIONARYVAR
  2
AcDbDictionaryVar
  3
ObjectDBX Classes
 90
        0
280
     0
281
     0
  0
CLASS
  1
RASTERVARIABLES
  2
AcDbRasterVariables
  3
ISM
 90
    32768
280
     0
281
     0
  0
CLASS
  1
IMAGEDEF
  2
AcDbRasterImageDef
  3
ISM
 90
    32768
280
     0
281
     0
  0
CLASS
  1
IMAGEDEF_REACTOR
  2
AcDbRasterImageDefReactor
  3
ISM
 90
    32769
280
     0
281
     0
  0
CLASS
  1
IDBUFFER
  2
AcDbIdBuffer
  3
ObjectDBX Classes
 90
    32768
280
     0
281
     0
  0
CLASS
  1
SPATIAL_FILTER
  2
AcDbSpatialFilter
  3
ObjectDBX Classes
 90
    32768
280
     0
281
     0
  0
CLASS
  1
SORTENTSTABLE
  2
AcDbSortentsTable
  3
ObjectDBX Classes
 90
    32768
280
     0
281
     0
  0
CLASS
  1
LAYER_INDEX
  2
AcDbLayerIndex
  3
ObjectDBX Classes
 90
    32768
280
     0
281
     0
  0
CLASS
  1
SPATIAL_INDEX
  2
AcDbSpatialIndex
  3
ObjectDBX Classes
 90
    32768
280
     0
281
     0
  0
CLASS
  1
OBJECT_PTR
  2
CAseDLPNTableRecord
  3
"ASE-LPNTableRecord"
 90
    32769
280
     0
281
     0
  0
CLASS
  1
LAYOUT
  2
AcDbLayout
  3
ObjectDBX Classes
 90
        0
280
     0
281
     0
  0
CLASS
  1
PLOTSETTINGS
  2
AcDbPlotSettings
  3
ObjectDBX Classes
 90
    32768
280
     0
281
     0
  0
CLASS
  1
ACDBDICTIONARYWDFLT
  2
AcDbDictionaryWithDefault
  3
ObjectDBX Classes
 90
        0
280
     0
281
     0
  0
CLASS
  1
ACDBPLACEHOLDER
  2
AcDbPlaceHolder
  3
ObjectDBX Classes
 90
        0
280
     0
281
     0
  0
CLASS
  1
VBA_PROJECT
  2
AcDbVbaProject
  3
acad
 90
    32768
280
     0
281
     0
  0
CLASS
  1
WIPEOUT
  2
AcDbWipeout
  3
"WipeOut|Product Desc: Object Enabler for WipeOut entity^I^I^I^I^I^I|Company: Autodesk, Inc.^I^I^I^I^I^I|WEB Address: www.autodesk.com"
 90
    32895
280
     0
281
     1
  0
CLASS
  1
WIPEOUTVARIABLES
  2
AcDbWipeoutVariables
  3
"WipeOut|Product Desc:     WipeOut Dbx Application|Company:          Autodesk, Inc.|WEB Address:      www.autodesk.com"
 90
        0
280
     0
281
     0
  0
CLASS
  1
RTEXT
  2
RText
  3
RText|AutoCAD Express Tool|expresstools@autodesk.com
 90
    32768
280
     0
281
     1
  0
CLASS
  1
ARCALIGNEDTEXT
  2
AcDbArcAlignedText
  3
ATEXT|AutoCAD Express Tool|expresstools@autodesk.com
 90
    32768
280
     0
281
     1
  0
ENDSEC
  0
SECTION
  2
TABLES
  0
TABLE
  2
VPORT
  5
7
330
0
100
AcDbSymbolTable
 70
     3
  0
VPORT
  5
504
330
7
100
AcDbSymbolTableRecord
100
AcDbViewportTableRecord
  2
*Active
 70
     0
 10
0.0
 20
0.0
 11
1.0
 21
1.0
 12
2253.284175714258
 22
1442.150397758938
 13
0.0
 23
0.0
 14
1.0
 24
1.0
 15
0.0
 25
0.0
 16
0.0
 26
0.0
 36
1.0
 17
0.0
 27
0.0
 37
0.0
 40
1976.787305512516
 41
1.99357601713062
 42
50.0
 43
0.0
 44
0.0
 50
0.0
 51
0.0
 71
     0
 72
   100
 73
     1
 74
     1
 75
     0
 76
     0
 77
     0
 78
     0
281
     0
 65
     0
110
0.0
120
0.0
130
0.0
111
1.0
121
0.0
131
0.0
112
0.0
122
1.0
132
0.0
 79
     0
146
0.0
  0
ENDTAB
  0
TABLE
  2
LTYPE
  5
4
330
0
100
AcDbSymbolTable
 70
    12
  0
LTYPE
  5
11
330
4
100
AcDbSymbolTableRecord
100
AcDbLinetypeTableRecord
  2
ByBlock
 70
     0
  3

 72
    65
 73
     0
 40
0.0
  0
LTYPE
  5
12
330
4
100
AcDbSymbolTableRecord
100
AcDbLinetypeTableRecord
  2
ByLayer
 70
     0
  3

 72
    65
 73
     0
 40
0.0
  0
LTYPE
  5
13
330
4
100
AcDbSymbolTableRecord
100
AcDbLinetypeTableRecord
  2
Continuous
 70
     0
  3
Solid line
 72
    65
 73
     0
 40
0.0
  0
LTYPE
  5
26
330
4
100
AcDbSymbolTableRecord
100
AcDbLinetypeTableRecord
  2
STYLE_01
 70
     0
  3

 72
    65
 73
     2
 40
0.4429133858267717
 49
0.2952755905511811
 74
     0
 49
-0.1476377952755906
 74
     0
  0
LTYPE
  5
27
330
4
100
AcDbSymbolTableRecord
100
AcDbLinetypeTableRecord
  2
STYLE_02
 70
     0
  3

 72
    65
 73
     2
 40
0.2214566929133859
 49
0.1476377952755906
 74
     0
 49
-0.0738188976377953
 74
     0
  0
LTYPE
  5
28
330
4
100
AcDbSymbolTableRecord
100
AcDbLinetypeTableRecord
  2
STYLE_03
 70
     0
  3

 72
    65
 73
     2
 40
0.1476377952755906
 49
0.0002
 74
     0
 49
-0.1474377952755906
 74
     0
  0
LTYPE
  5
29
330
4
100
AcDbSymbolTableRecord
100
AcDbLinetypeTableRecord
  2
STYLE_04
 70
     0
  3

 72
    65
 73
     4
 40
0.5905511811023623
 49
0.2952755905511811
 74
     0
 49
-0.1476377952755906
 74
     0
 49
0.0002
 74
     0
 49
-0.1474377952755906
 74
     0
  0
LTYPE
  5
2A
330
4
100
AcDbSymbolTableRecord
100
AcDbLinetypeTableRecord
  2
STYLE_05
 70
     0
  3

 72
    65
 73
     6
 40
0.7381889763779528
 49
0.2952755905511811
 74
     0
 49
-0.1476377952755906
 74
     0
 49
0.0002
 74
     0
 49
-0.1474377952755906
 74
     0
 49
0.0002
 74
     0
 49
-0.1474377952755905
 74
     0
  0
LTYPE
  5
2B
330
4
100
AcDbSymbolTableRecord
100
AcDbLinetypeTableRecord
  2
STYLE_06
 70
     0
  3

 72
    65
 73
     4
 40
0.416656494140625
 49
0.25
 74
     0
 49
-0.08331298828125
 74
     0
 49
0.02777099609375
 74
     0
 49
-0.055572509765625
 74
     0
  0
LTYPE
  5
2C
330
4
100
AcDbSymbolTableRecord
100
AcDbLinetypeTableRecord
  2
STYLE_07
 70
     0
  3

 72
    65
 73
     6
 40
0.75
 49
0.25
 74
     0
 49
-0.08331298828125
 74
     0
 49
0.25
 74
     0
 49
-0.083343505859375
 74
     0
 49
0.02777099609375
 74
     0
 49
-0.055572509765625
 74
     0
  0
LTYPE
  5
2D
330
4
100
AcDbSymbolTableRecord
100
AcDbLinetypeTableRecord
  2
STYLE_08
 70
     0
  3

 72
    65
 73
     6
 40
0.5
 49
0.25
 74
     0
 49
-0.08331298828125
 74
     0
 49
0.02777099609375
 74
     0
 49
-0.055572509765625
 74
     0
 49
0.02777099609375
 74
     0
 49
-0.055572509765625
 74
     0
  0
LTYPE
  5
2E
330
4
100
AcDbSymbolTableRecord
100
AcDbLinetypeTableRecord
  2
STYLE_09
 70
     0
  3

 72
    65
 73
     4
 40
2.0
 49
1.5
 74
     0
 49
-0.111114501953125
 74
     0
 49
0.27777099609375
 74
     0
 49
-0.111114501953125
 74
     0
  0
LTYPE
  5
2F
330
4
100
AcDbSymbolTableRecord
100
AcDbLinetypeTableRecord
  2
STYLE_10
 70
     0
  3

 72
    65
 73
     6
 40
2.375
 49
1.5
 74
     0
 49
-0.111114501953125
 74
     0
 49
0.27777099609375
 74
     0
 49
-0.111114501953125
 74
     0
 49
0.25
 74
     0
 49
-0.125
 74
     0
  0
LTYPE
  5
4D1
330
4
100
AcDbSymbolTableRecord
100
AcDbLinetypeTableRecord
  2
CENTER2
 70
     0
  3
Center (.5x) ___ _ ___ _ ___ _ ___ _ ___ _ ___
 72
    65
 73
     4
 40
28.575
 49
19.05
 74
     0
 49
-3.174999999999999
 74
     0
 49
3.174999999999999
 74
     0
 49
-3.174999999999999
 74
     0
  0
ENDTAB
  0
TABLE
  2
LAYER
  5
2
330
0
100
AcDbSymbolTable
 70
    10
  0
LAYER
  5
14
330
2
100
AcDbSymbolTableRecord
100
AcDbLayerTableRecord
  2
0
 70
     0
 62
     7
  6
Continuous
370
    15
390
1D
  0
LAYER
  5
30
330
2
100
AcDbSymbolTableRecord
100
AcDbLayerTableRecord
  2
Defpoints
 70
     0
 62
     7
  6
Continuous
290
     0
370
    -3
390
1D
  0
LAYER
  5
31
330
2
100
AcDbSymbolTableRecord
100
AcDbLayerTableRecord
  2
一般
 70
     0
 62
     7
  6
Continuous
370
     5
390
1D
  0
LAYER
  5
32
330
2
100
AcDbSymbolTableRecord
100
AcDbLayerTableRecord
  2
寸法
 70
     0
 62
     7
  6
Continuous
370
     5
390
1D
  0
LAYER
  5
33
330
2
100
AcDbSymbolTableRecord
100
AcDbLayerTableRecord
  2
1
 70
     0
 62
     7
  6
Continuous
370
    15
390
1D
  0
LAYER
  5
34
330
2
100
AcDbSymbolTableRecord
100
AcDbLayerTableRecord
  2
17
 70
     0
 62
     7
  6
Continuous
370
    15
390
1D
  0
LAYER
  5
35
330
2
100
AcDbSymbolTableRecord
100
AcDbLayerTableRecord
  2
33
 70
     0
 62
     7
  6
Continuous
370
    15
390
1D
  0
LAYER
  5
36
330
2
100
AcDbSymbolTableRecord
100
AcDbLayerTableRecord
  2
49
 70
     0
 62
     7
  6
Continuous
370
    15
390
1D
  0
LAYER
  5
37
330
2
100
AcDbSymbolTableRecord
100
AcDbLayerTableRecord
  2
実形
 70
     0
 62
     7
  6
Continuous
370
    18
390
1D
  0
LAYER
  5
38
330
2
100
AcDbSymbolTableRecord
100
AcDbLayerTableRecord
  2
Cen
 70
     0
 62
     7
  6
Continuous
370
    15
390
1D
  0
ENDTAB
  0
TABLE
  2
STYLE
  5
3
330
0
100
AcDbSymbolTable
 70
     3
  0
STYLE
  5
17
330
3
100
AcDbSymbolTableRecord
100
AcDbTextStyleTableRecord
  2
Standard
 70
     0
 40
0.0
 41
1.0
 50
0.0
 71
     0
 42
0.0
  3
txt
  4
BIGFONT.SHX
  0
STYLE
  5
24
330
3
100
AcDbSymbolTableRecord
100
AcDbTextStyleTableRecord
  2
Arial
 70
     0
 40
0.0
 41
1.0
 50
0.0
 71
     0
 42
0.0
  3
ARIAL.TTF
  4

1001
ACAD
1000
Arial
1071
        0
  0
STYLE
  5
25
330
3
100
AcDbSymbolTableRecord
100
AcDbTextStyleTableRecord
  2
ＭＳ ゴシック
 70
     0
 40
0.0
 41
1.0
 50
0.0
 71
     0
 42
0.0
  3
MS Gothic.ttf
  4

1001
ACAD
1000
ＭＳ ゴシック
1071
        0
  0
ENDTAB
  0
TABLE
  2
VIEW
  5
5
330
0
100
AcDbSymbolTable
 70
     0
  0
ENDTAB
  0
TABLE
  2
UCS
  5
6
330
0
100
AcDbSymbolTable
 70
     0
  0
ENDTAB
  0
TABLE
  2
APPID
  5
8
330
0
100
AcDbSymbolTable
 70
     1
  0
APPID
  5
16
330
8
100
AcDbSymbolTableRecord
100
AcDbRegAppTableRecord
  2
ACAD
 70
     0
  0
ENDTAB
  0
TABLE
  2
DIMSTYLE
  5
9
330
0
100
AcDbSymbolTable
 70
     1
100
AcDbDimStyleTable
 71
     0
  0
DIMSTYLE
105
18
330
9
100
AcDbSymbolTableRecord
100
AcDbDimStyleTableRecord
  2
Standard
 70
     0
340
17
  0
ENDTAB
  0
TABLE
  2
BLOCK_RECORD
  5
1
330
0
100
AcDbSymbolTable
 70
     1
  0
BLOCK_RECORD
  5
A
330
1
100
AcDbSymbolTableRecord
100
AcDbBlockTableRecord
  2
*MODEL_SPACE
340
20
  0
BLOCK_RECORD
  5
B
330
1
100
AcDbSymbolTableRecord
100
AcDbBlockTableRecord
  2
*PAPER_SPACE
340
21
  0
ENDTAB
  0
ENDSEC
  0
SECTION
  2
BLOCKS
  0
BLOCK
  5
D
330
A
100
AcDbEntity
  8
0
100
AcDbBlockBegin
  2
*MODEL_SPACE
 70
     0
 10
0.0
 20
0.0
 30
0.0
  3
*MODEL_SPACE
  1

  0
ENDBLK
  5
E
330
A
100
AcDbEntity
  8
0
100
AcDbBlockEnd
  0
BLOCK
  5
F
330
B
100
AcDbEntity
 67
     1
  8
0
100
AcDbBlockBegin
  2
*PAPER_SPACE
 70
     0
 10
0.0
 20
0.0
 30
0.0
  3
*PAPER_SPACE
  1

  0
ENDBLK
  5
10
330
B
100
AcDbEntity
 67
     1
  8
0
100
AcDbBlockEnd
  0
ENDSEC
  0
SECTION
  2
ENTITIES
  0
LINE
  5
39
330
A
100
AcDbEntity
  8
33
  6
Continuous
 62
     7
370
    15
100
AcDbLine
 10
1016.549030144008
 20
1887.663108796907
 30
0.0
 11
1016.549030144008
 21
1937.663108796907
 31
0.0
  0
LINE
  5
3A
330
A
100
AcDbEntity
  8
33
  6
Continuous
 62
     7
370
    15
100
AcDbLine
 10
1116.549030144008
 20
2037.663108796907
 30
0.0
 11
1266.549030144008
 21
2037.663108796907
 31
0.0
  0
LINE
  5
3B
330
A
100
AcDbEntity
  8
33
  6
Continuous
 62
     7
370
    15
100
AcDbLine
 10
866.2811730011544
 20
1887.663108796907
 30
0.0
 11
1026.549030144008
 21
1887.663108796907
 31
0.0
  0
LINE
  5
3C
330
A
100
AcDbEntity
  8
33
  6
Continuous
 62
     7
370
    15
100
AcDbLine
 10
1036.549030144008
 20
1945.881380480581
 30
0.0
 11
1036.549030144008
 21
1829.057333924458
 31
0.0
  0
LINE
  5
3D
330
A
100
AcDbEntity
  8
33
  6
Continuous
 62
     7
370
    15
100
AcDbLine
 10
1026.549030144008
 20
1887.663108796907
 30
0.0
 11
1026.549030144008
 21
1915.663108796907
 31
0.0
  0
LINE
  5
3E
330
A
100
AcDbEntity
  8
33
  6
Continuous
 62
     7
370
    15
100
AcDbLine
 10
1026.549030144008
 20
1858.663108796907
 30
0.0
 11
1026.549030144008
 21
1887.663108796907
 31
0.0
  0
LINE
  5
3F
330
A
100
AcDbEntity
  8
33
  6
Continuous
 62
     7
370
    15
100
AcDbLine
 10
1026.549030144008
 20
1854.663108796907
 30
0.0
 11
1026.549030144008
 21
1858.663108796907
 31
0.0
  0
ARC
  5
40
330
A
100
AcDbEntity
  8
33
  6
Continuous
 62
     7
370
    15
100
AcDbCircle
 10
1036.549030144008
 20
1857.725608796907
 30
0.0
 40
18.06250000000003
100
AcDbArc
 50
231.672542890856
 51
308.327457109144
  0
LINE
  5
41
330
A
100
AcDbEntity
  8
33
  6
Continuous
 62
     7
370
    15
100
AcDbLine
 10
1046.549030144008
 20
1915.663108796907
 30
0.0
 11
1046.549030144008
 21
1858.663108796907
 31
0.0
  0
LINE
  5
42
330
A
100
AcDbEntity
  8
33
  6
Continuous
 62
     7
370
    15
100
AcDbLine
 10
1046.549030144008
 20
1858.663108796907
 30
0.0
 11
1046.506364327682
 21
1854.663108796907
 31
0.0
  0
LINE
  5
43
330
A
100
AcDbEntity
  8
33
  6
Continuous
 62
     7
370
    15
100
AcDbLine
 10
1028.549030144008
 20
1915.663108796907
 30
0.0
 11
1028.549030144008
 21
1854.663108796907
 31
0.0
  0
LINE
  5
44
330
A
100
AcDbEntity
  8
33
  6
Continuous
 62
     7
370
    15
100
AcDbLine
 10
1044.549030144008
 20
1915.663108796907
 30
0.0
 11
1044.549030144008
 21
1854.663108796907
 31
0.0
  0
ARC
  5
45
330
A
100
AcDbEntity
  8
33
  6
Continuous
 62
     7
370
    15
100
AcDbCircle
 10
1116.549030144008
 20
1937.663108796907
 30
0.0
 40
100.0
100
AcDbArc
 50
90.0
 51
180.0
  0
LINE
  5
46
330
A
100
AcDbEntity
  8
33
  6
Continuous
 62
     7
370
    15
100
AcDbLine
 10
1056.549030144008
 20
1887.663108796907
 30
0.0
 11
1056.549030144008
 21
1937.663108796907
 31
0.0
  0
ARC
  5
47
330
A
100
AcDbEntity
  8
33
  6
Continuous
 62
     7
370
    15
100
AcDbCircle
 10
1116.549030144008
 20
1937.663108796907
 30
0.0
 40
60.0
100
AcDbArc
 50
90.0
 51
180.0
  0
LINE
  5
48
330
A
100
AcDbEntity
  8
33
  6
Continuous
 62
     7
370
    15
100
AcDbLine
 10
1116.549030144008
 20
1997.663108796907
 30
0.0
 11
1266.549030144008
 21
1997.663108796907
 31
0.0
  0
LINE
  5
49
330
A
100
AcDbEntity
  8
33
  6
Continuous
 62
     7
370
    15
100
AcDbLine
 10
1272.888315858294
 20
2037.663108796907
 30
0.0
 11
1255.060107950131
 21
2037.663108796907
 31
0.0
  0
LINE
  5
4A
330
A
100
AcDbEntity
  8
33
  6
Continuous
 62
     7
370
    15
100
AcDbLine
 10
1272.888315858294
 20
1997.663108796907
 30
0.0
 11
1252.241638562375
 21
1997.663108796907
 31
0.0
  0
LINE
  5
4B
330
A
100
AcDbEntity
  8
33
  6
Continuous
 62
     7
370
    15
100
AcDbLine
 10
1003.049030144008
 20
1858.663108796907
 30
0.0
 11
1008.549030144008
 21
1858.663108796907
 31
0.0
  0
LINE
  5
4C
330
A
100
AcDbEntity
  8
33
  6
Continuous
 62
     7
370
    15
100
AcDbLine
 10
1003.049030144008
 20
1883.663108796907
 30
0.0
 11
1026.549030144008
 21
1883.663108796907
 31
0.0
  0
LINE
  5
4D
330
A
100
AcDbEntity
  8
33
  6
Continuous
 62
     7
370
    15
100
AcDbLine
 10
1036.549030144008
 20
1887.663108796907
 30
0.0
 11
1272.888315858294
 21
1887.663108796907
 31
0.0
  0
LINE
  5
4E
330
A
100
AcDbEntity
  8
33
  6
Continuous
 62
     7
370
    15
100
AcDbLine
 10
1036.549030144008
 20
1883.663108796907
 30
0.0
 11
1070.049030144008
 21
1883.663108796907
 31
0.0
  0
LINE
  5
4F
330
A
100
AcDbEntity
  8
33
  6
Continuous
 62
     7
370
    15
100
AcDbLine
 10
1064.549030144008
 20
1858.663108796907
 30
0.0
 11
1070.049030144008
 21
1858.663108796907
 31
0.0
  0
LINE
  5
50
330
A
100
AcDbEntity
  8
33
  6
Continuous
 62
     7
370
    15
100
AcDbLine
 10
1026.128531052297
 20
1858.663108796907
 30
0.0
 11
1026.549030144008
 21
1859.083607888618
 31
0.0
  0
LINE
  5
51
330
A
100
AcDbEntity
  8
33
  6
Continuous
 62
     7
370
    15
100
AcDbLine
 10
945.4056441484269
 20
1887.663108796907
 30
0.0
 11
945.4056441484269
 21
2037.663108796907
 31
0.0
  0
LINE
  5
52
330
A
100
AcDbEntity
  8
33
  6
Continuous
 62
     7
370
    15
100
AcDbLine
 10
945.4056441484269
 20
1887.663108796907
 30
0.0
 11
940.2292632463767
 21
1906.981625322689
 31
0.0
  0
LINE
  5
53
330
A
100
AcDbEntity
  8
33
  6
Continuous
 62
     7
370
    15
100
AcDbLine
 10
945.4056441484269
 20
1887.663108796907
 30
0.0
 11
950.5820250504774
 21
1906.981625322689
 31
0.0
  0
LINE
  5
54
330
A
100
AcDbEntity
  8
33
  6
Continuous
 62
     7
370
    15
100
AcDbLine
 10
945.4056441484269
 20
2037.663108796907
 30
0.0
 11
950.5820250504774
 21
2018.344592271125
 31
0.0
  0
LINE
  5
55
330
A
100
AcDbEntity
  8
33
  6
Continuous
 62
     7
370
    15
100
AcDbLine
 10
945.4056441484269
 20
2037.663108796907
 30
0.0
 11
940.2292632463767
 21
2018.344592271125
 31
0.0
  0
LINE
  5
56
330
A
100
AcDbEntity
  8
33
  6
Continuous
 62
     7
370
    15
100
AcDbLine
 10
1111.549030144008
 20
2037.663108796907
 30
0.0
 11
940.4056441484268
 21
2037.663108796907
 31
0.0
  0
MTEXT
  5
57
330
A
100
AcDbEntity
  8
33
 62
     7
100
AcDbMText
 10
920.4056446715853
 20
1962.663094148469
 30
0.0
 40
20.0
 41
0.0
 71
     2
 72
     1
  1
30
  7
ＭＳ ゴシック
 11
0.0
 21
1.0
 31
0.0
 73
     1
 44
0.7828267384257846
1001
ACAD
1000
MTEXTBEGIN
1070
    73
1070
     1
1070
    44
1040
0.7828267384257846
1070
    74
1070
     0
1000
MTEXTEND
  0
LINE
  5
58
330
A
100
AcDbEntity
  8
33
  6
Continuous
 62
     7
370
    15
100
AcDbLine
 10
945.4056441484269
 20
1883.663108796907
 30
0.0
 11
945.4056441484269
 21
1887.663108796907
 31
0.0
  0
MTEXT
  5
59
330
A
100
AcDbEntity
  8
33
 62
     7
100
AcDbMText
 10
918.7322437926793
 20
1883.663094148469
 30
0.0
 40
20.0
 41
0.0
 71
     2
 72
     1
  1
0.8
  7
ＭＳ ゴシック
 11
0.0
 21
1.0
 31
0.0
 73
     1
 44
0.7828267384257846
1001
ACAD
1000
MTEXTBEGIN
1070
    73
1070
     1
1070
    44
1040
0.7828267384257846
1070
    74
1070
     0
1000
MTEXTEND
  0
LINE
  5
5A
330
A
100
AcDbEntity
  8
33
  6
Continuous
 62
     7
370
    15
100
AcDbLine
 10
945.4056441484269
 20
1858.663108796907
 30
0.0
 11
945.4056441484269
 21
1883.663108796907
 31
0.0
  0
CIRCLE
  5
5B
330
A
100
AcDbEntity
  8
33
  6
Continuous
 62
     7
370
    15
100
AcDbCircle
 10
945.4056441484269
 20
1883.663108796907
 30
0.0
 40
2.5
  0
MTEXT
  5
5C
330
A
100
AcDbEntity
  8
33
 62
     7
100
AcDbMText
 10
918.7322437926793
 20
1840.718086824251
 30
0.0
 40
20.0
 41
0.0
 71
     2
 72
     1
  1
5
  7
ＭＳ ゴシック
 11
0.0
 21
1.0
 31
0.0
 73
     1
 44
0.7828267384257846
1001
ACAD
1000
MTEXTBEGIN
1070
    73
1070
     1
1070
    44
1040
0.7828267384257846
1070
    74
1070
     0
1000
MTEXTEND
  0
LINE
  5
5D
330
A
100
AcDbEntity
  8
33
  6
Continuous
 62
     7
370
    15
100
AcDbLine
 10
1224.943083077682
 20
1997.663108796907
 30
0.0
 11
1224.943083077682
 21
2037.663108796907
 31
0.0
  0
LINE
  5
5E
330
A
100
AcDbEntity
  8
33
  6
Continuous
 62
     7
370
    15
100
AcDbLine
 10
1224.943083077682
 20
1967.663108796907
 30
0.0
 11
1224.943083077682
 21
1997.663108796907
 31
0.0
  0
LINE
  5
5F
330
A
100
AcDbEntity
  8
33
  6
Continuous
 62
     7
370
    15
100
AcDbLine
 10
1224.943083077682
 20
1997.663108796907
 30
0.0
 11
1230.119463979732
 21
1978.344592271126
 31
0.0
  0
LINE
  5
60
330
A
100
AcDbEntity
  8
33
  6
Continuous
 62
     7
370
    15
100
AcDbLine
 10
1224.943083077682
 20
1997.663108796907
 30
0.0
 11
1219.766702175631
 21
1978.344592271126
 31
0.0
  0
LINE
  5
61
330
A
100
AcDbEntity
  8
33
  6
Continuous
 62
     7
370
    15
100
AcDbLine
 10
1224.943083077682
 20
2037.663108796907
 30
0.0
 11
1224.943083077682
 21
2052.752661552774
 31
0.0
  0
LINE
  5
62
330
A
100
AcDbEntity
  8
33
  6
Continuous
 62
     7
370
    15
100
AcDbLine
 10
1224.943083077682
 20
2037.663108796907
 30
0.0
 11
1219.766702175631
 21
2056.981625322689
 31
0.0
  0
LINE
  5
63
330
A
100
AcDbEntity
  8
33
  6
Continuous
 62
     7
370
    15
100
AcDbLine
 10
1224.943083077682
 20
2037.663108796907
 30
0.0
 11
1230.119463979732
 21
2056.981625322689
 31
0.0
  0
MTEXT
  5
64
330
A
100
AcDbEntity
  8
33
 62
     7
100
AcDbMText
 10
1200.681309954789
 20
2016.858650789094
 30
0.0
 40
20.0
 41
0.0
 71
     2
 72
     1
  1
\U+03c68
  7
ＭＳ ゴシック
 11
0.0
 21
1.0
 31
0.0
 73
     1
 44
0.7828267384257846
1001
ACAD
1000
MTEXTBEGIN
1070
    73
1070
     1
1070
    44
1040
0.7828267384257846
1070
    74
1070
     0
1000
MTEXTEND
  0
LINE
  5
65
330
A
100
AcDbEntity
  8
33
  6
Continuous
 62
     7
370
    15
100
AcDbLine
 10
1224.943083077682
 20
2068.000321807111
 30
0.0
 11
1224.943083077682
 21
2047.164862623438
 31
0.0
  0
MTEXT
  5
66
330
A
100
AcDbEntity
  8
33
 62
     7
100
AcDbMText
 10
1092.872034906521
 20
1940.108072124408
 30
0.0
 40
20.0
 41
0.0
 71
     2
 72
     1
  1
R12
  7
ＭＳ ゴシック
 11
0.8926285374688092
 21
-0.4507929614538082
 31
0.0
 73
     1
 44
0.7828267384257846
1001
ACAD
1000
MTEXTBEGIN
1070
    73
1070
     1
1070
    44
1040
0.7828267384257846
1070
    74
1070
     0
1000
MTEXTEND
  0
LINE
  5
67
330
A
100
AcDbEntity
  8
33
  6
Continuous
 62
     7
370
    15
100
AcDbLine
 10
1051.58229260851
 20
2013.68496758761
 30
0.0
 11
1126.302199111187
 21
1926.250283370977
 31
0.0
  0
LINE
  5
68
330
A
100
AcDbEntity
  8
33
  6
Continuous
 62
     7
370
    15
100
AcDbLine
 10
1051.58229260851
 20
2013.68496758761
 30
0.0
 11
1068.068083515392
 21
2002.361598028395
 31
0.0
  0
LINE
  5
69
330
A
100
AcDbEntity
  8
33
  6
Continuous
 62
     7
370
    15
100
AcDbLine
 10
1051.58229260851
 20
2013.68496758761
 30
0.0
 11
1060.19772155574
 21
1995.635746439449
 31
0.0
  0
MTEXT
  5
6A
330
A
100
AcDbEntity
  8
33
 62
     7
100
AcDbMText
 10
1118.952576019836
 20
1973.827218285275
 30
0.0
 40
20.0
 41
0.0
 71
     2
 72
     1
  1
R20
  7
ＭＳ ゴシック
 11
0.649667388480911
 21
-0.760218576689884
 31
0.0
 73
     1
 44
0.7828267384257846
1001
ACAD
1000
MTEXTBEGIN
1070
    73
1070
     1
1070
    44
1040
0.7828267384257846
1070
    74
1070
     0
1000
MTEXTEND
  0
LINE
  5
6B
330
A
100
AcDbEntity
  8
33
  6
Continuous
 62
     7
370
    15
100
AcDbLine
 10
1126.302199111187
 20
1926.250283370977
 30
0.0
 11
1062.991317527822
 21
1964.710685755333
 31
0.0
  0
LINE
  5
6C
330
A
100
AcDbEntity
  8
33
  6
Continuous
 62
     7
370
    15
100
AcDbLine
 10
1081.445064956697
 20
1959.176234463184
 30
0.0
 11
1062.991317527822
 21
1964.710685755333
 31
0.0
  0
LINE
  5
6D
330
A
100
AcDbEntity
  8
33
  6
Continuous
 62
     7
370
    15
100
AcDbLine
 10
1062.991317527821
 20
1964.710685755333
 30
0.0
 11
1076.019980781057
 21
1951.942788895663
 31
0.0
  0
LINE
  5
6E
330
A
100
AcDbEntity
  8
33
  6
Continuous
 62
     7
370
    15
100
AcDbLine
 10
1160.187423001151
 20
2037.663108796907
 30
0.0
 11
1094.132111413231
 21
2140.638224167974
 31
0.0
  0
LINE
  5
6F
330
A
100
AcDbEntity
  8
33
  6
Continuous
 62
     7
370
    15
100
AcDbLine
 10
1160.187423001151
 20
2037.663108796907
 30
0.0
 11
1145.399758903743
 21
2051.128805605548
 31
0.0
  0
LINE
  5
70
330
A
100
AcDbEntity
  8
33
  6
Continuous
 62
     7
370
    15
100
AcDbLine
 10
1160.187423001151
 20
2037.663108796907
 30
0.0
 11
1154.113778634485
 21
2056.718576361553
 31
0.0
  0
CIRCLE
  5
71
330
A
100
AcDbEntity
  8
33
  6
Continuous
 62
     7
370
    15
100
AcDbCircle
 10
1080.63385157258
 20
2161.680965939764
 30
0.0
 40
25.0
  0
MTEXT
  5
72
330
A
100
AcDbEntity
  8
33
 62
     7
100
AcDbMText
 10
1080.633824603226
 20
2161.681038484406
 30
0.0
 40
20.0
 41
0.0
 71
     5
 72
     1
  1
3
  7
ＭＳ ゴシック
 73
     1
 44
0.7828267384257846
1001
ACAD
1000
MTEXTBEGIN
1070
    73
1070
     1
1070
    44
1040
0.7828267384257846
1070
    74
1070
     0
1000
MTEXTEND
  0
LINE
  5
73
330
A
100
AcDbEntity
  8
33
  6
Continuous
 62
     7
370
    15
100
AcDbLine
 10
1036.549030144008
 20
1835.663108796907
 30
0.0
 11
889.3881124344838
 21
1715.605560749955
 31
0.0
  0
LINE
  5
74
330
A
100
AcDbEntity
  8
33
  6
Continuous
 62
     7
370
    15
100
AcDbLine
 10
1036.549030144008
 20
1835.663108796907
 30
0.0
 11
1024.852261685781
 21
1819.440112537441
 31
0.0
  0
LINE
  5
75
330
A
100
AcDbEntity
  8
33
  6
Continuous
 62
     7
370
    15
100
AcDbLine
 10
1036.549030144008
 20
1835.663108796907
 30
0.0
 11
1018.307833387266
 21
1827.461966139824
 31
0.0
  0
CIRCLE
  5
76
330
A
100
AcDbEntity
  8
33
  6
Continuous
 62
     7
370
    15
100
AcDbCircle
 10
870.0168235113581
 20
1699.801979970374
 30
0.0
 40
24.99999999999818
  0
MTEXT
  5
77
330
A
100
AcDbEntity
  8
33
 62
     7
100
AcDbMText
 10
870.0168202086977
 20
1699.801949128936
 30
0.0
 40
20.0
 41
0.0
 71
     5
 72
     1
  1
7
  7
ＭＳ ゴシック
 73
     1
 44
0.7828267384257846
1001
ACAD
1000
MTEXTBEGIN
1070
    73
1070
     1
1070
    44
1040
0.7828267384257846
1070
    74
1070
     0
1000
MTEXTEND
  0
MTEXT
  5
78
330
A
100
AcDbEntity
  8
33
 62
     7
100
AcDbMText
 10
1211.347739977768
 20
1713.983162507843
 30
0.0
 40
23.2719745635985
 41
0.0
 71
     5
 72
     1
  1
\U+5e73\U+30ef\U+30c3\U+30b7\U+30e3\U+3000\U+03c610
  7
ＭＳ ゴシック
 73
     1
 44
0.7828267384257846
1001
ACAD
1000
MTEXTBEGIN
1070
    73
1070
     1
1070
    44
1040
0.7828267384257846
1070
    74
1070
     0
1000
MTEXTEND
  0
MTEXT
  5
79
330
A
100
AcDbEntity
  8
33
 62
     7
100
AcDbMText
 10
1160.282078997757
 20
1671.457745257272
 30
0.0
 40
23.2719745635985
 41
0.0
 71
     5
 72
     1
  1
SUS t=0.7
  7
ＭＳ ゴシック
 73
     1
 44
0.7828267384257846
1001
ACAD
1000
MTEXTBEGIN
1070
    73
1070
     1
1070
    44
1040
0.7828267384257846
1070
    74
1070
     0
1000
MTEXTEND
  0
MTEXT
  5
7A
330
A
100
AcDbEntity
  8
33
 62
     7
100
AcDbMText
 10
1334.444204982583
 20
1672.61884983096
 30
0.0
 40
23.2719745635985
 41
0.0
 71
     5
 72
     1
  1
\U+30af\U+30ed\U+30e1\U+30fc\U+30c8
  7
ＭＳ ゴシック
 73
     1
 44
0.7828267384257846
1001
ACAD
1000
MTEXTBEGIN
1070
    73
1070
     1
1070
    44
1040
0.7828267384257846
1070
    74
1070
     0
1000
MTEXTEND
  0
MTEXT
  5
7B
330
A
100
AcDbEntity
  8
33
 62
     7
100
AcDbMText
 10
1259.250838442052
 20
1825.430806873461
 30
0.0
 40
23.2719745635985
 41
0.0
 71
     5
 72
     1
  1
\U+30b9\U+30da\U+30fc\U+30b5\U+30fc
  7
ＭＳ ゴシック
 73
     1
 44
0.7828267384257846
1001
ACAD
1000
MTEXTBEGIN
1070
    73
1070
     1
1070
    44
1040
0.7828267384257846
1070
    74
1070
     0
1000
MTEXTEND
  0
MTEXT
  5
7C
330
A
100
AcDbEntity
  8
33
 62
     7
100
AcDbMText
 10
1320.249644364497
 20
1790.679578339286
 30
0.0
 40
23.2719745635985
 41
0.0
 71
     5
 72
     1
  1
ABS t=5.0
  7
ＭＳ ゴシック
 73
     1
 44
0.7828267384257846
1001
ACAD
1000
MTEXTBEGIN
1070
    73
1070
     1
1070
    44
1040
0.7828267384257846
1070
    74
1070
     0
1000
MTEXTEND
  0
MTEXT
  5
7D
330
A
100
AcDbEntity
  8
33
 62
     7
100
AcDbMText
 10
956.8425966237914
 20
1512.034733354786
 30
0.0
 40
23.2719745635985
 41
0.0
 71
     5
 72
     1
  1
\U+30bb\U+30e0\U+30b9\U+30cd\U+30b8\U+ff08\U+ff2d\U+ff14\U+ff38\U+ff11\U+ff15\U+ff09\U+ff33\U+ff35\U+ff33
  7
ＭＳ ゴシック
 73
     1
 44
0.7828267384257846
1001
ACAD
1000
MTEXTBEGIN
1070
    73
1070
     1
1070
    44
1040
0.7828267384257846
1070
    74
1070
     0
1000
MTEXTEND
  0
MTEXT
  5
7E
330
A
100
AcDbEntity
  8
33
 62
     7
100
AcDbMText
 10
928.8583955104083
 20
1467.128829220671
 30
0.0
 40
22.66742134094251
 41
0.0
 71
     5
 72
     1
  1
(\U+30b9\U+30d7\U+30ea\U+30f3\U+30b0\U+30ef\U+30c3\U+30b7\U+30e3\U+4ed8\U+30cd\U+30b8\U+ff09
  7
ＭＳ ゴシック
 73
     1
 44
0.7828267384257846
1001
ACAD
1000
MTEXTBEGIN
1070
    73
1070
     1
1070
    44
1040
0.7828267384257846
1070
    74
1070
     0
1000
MTEXTEND
  0
MTEXT
  5
7F
330
A
100
AcDbEntity
  8
33
 62
     7
100
AcDbMText
 10
1192.134953753617
 20
2142.445116821804
 30
0.0
 40
23.2719745635985
 41
0.0
 71
     5
 72
     1
  1
\U+30e9\U+30c4\U+30af\U+30d0\U+30fc
  7
ＭＳ ゴシック
 73
     1
 44
0.7828267384257846
1001
ACAD
1000
MTEXTBEGIN
1070
    73
1070
     1
1070
    44
1040
0.7828267384257846
1070
    74
1070
     0
1000
MTEXTEND
  0
LINE
  5
80
330
A
100
AcDbEntity
  8
33
  6
Continuous
 62
     7
370
    15
100
AcDbLine
 10
899.9809497868659
 20
1887.663108796907
 30
0.0
 11
867.1127169988913
 21
2092.432199066003
 31
0.0
  0
LINE
  5
81
330
A
100
AcDbEntity
  8
33
  6
Continuous
 62
     7
370
    15
100
AcDbLine
 10
899.9809497868659
 20
1887.663108796907
 30
0.0
 11
891.8082965551247
 21
1905.917087518098
 31
0.0
  0
LINE
  5
82
330
A
100
AcDbEntity
  8
33
  6
Continuous
 62
     7
370
    15
100
AcDbLine
 10
899.9809497868659
 20
1887.663108796907
 30
0.0
 11
902.030213832452
 21
1907.55784470547
 31
0.0
  0
CIRCLE
  5
83
330
A
100
AcDbEntity
  8
33
  6
Continuous
 62
     7
370
    15
100
AcDbCircle
 10
863.1505926440116
 20
2117.116233796907
 30
0.0
 40
24.99999999999818
  0
MTEXT
  5
84
330
A
100
AcDbEntity
  8
33
 62
     7
100
AcDbMText
 10
863.1505787536202
 20
2117.116219148469
 30
0.0
 40
20.0
 41
0.0
 71
     5
 72
     1
  1
1
  7
ＭＳ ゴシック
 73
     1
 44
0.7828267384257846
1001
ACAD
1000
MTEXTBEGIN
1070
    73
1070
     1
1070
    44
1040
0.7828267384257846
1070
    74
1070
     0
1000
MTEXTEND
  0
MTEXT
  5
85
330
A
100
AcDbEntity
  8
33
 62
     7
100
AcDbMText
 10
873.30379360563
 20
2168.970063257924
 30
0.0
 40
23.2719745635985
 41
0.0
 71
     5
 72
     1
  1
\U+30b7\U+30f3\U+30af t=0.8
  7
ＭＳ ゴシック
 73
     1
 44
0.7828267384257846
1001
ACAD
1000
MTEXTBEGIN
1070
    73
1070
     1
1070
    44
1040
0.7828267384257846
1070
    74
1070
     0
1000
MTEXTEND
  0
MTEXT
  5
86
330
A
100
AcDbEntity
  8
33
 62
     7
100
AcDbMText
 10
1154.667349513833
 20
2271.228774147366
 30
0.0
 40
46.7506980895995
 41
0.0
 71
     5
 72
     1
  1
\U+30e9\U+30c4\U+30af\U+30d0\U+30fc\U+53d6\U+4ed8\U+8a73\U+7d30\U+56f3\U+3000\U+ff33\U+ff1d\U+ff11\U+ff0f\U+ff12
  7
ＭＳ ゴシック
 73
     1
 44
0.7828267384257847
1001
ACAD
1000
MTEXTBEGIN
1070
    73
1070
     1
1070
    44
1040
0.7828267384257847
1070
    74
1070
     0
1000
MTEXTEND
  0
MTEXT
  5
87
330
A
100
AcDbEntity
  8
33
 62
     7
100
AcDbMText
 10
1039.318936175929
 20
1422.222925086557
 30
0.0
 40
22.66742134094251
 41
0.0
 71
     5
 72
     1
  1
* \U+30b7\U+30f3\U+30af\U+88cf\U+9762\U+3088\U+308a\U+3000\U+30b9\U+30da\U+30fc\U+30b5\U+30fc\U+63a5\U+7740\U+53d6\U+4ed8\U+7a74\U+90e8\U+306b
  7
ＭＳ ゴシック
 73
     1
 44
0.7828267384257846
1001
ACAD
1000
MTEXTBEGIN
1070
    73
1070
     1
1070
    44
1040
0.7828267384257846
1070
    74
1070
     0
1000
MTEXTEND
  0
MTEXT
  5
88
330
A
100
AcDbEntity
  8
33
 62
     7
100
AcDbMText
 10
1071.467867467297
 20
1377.317020952442
 30
0.0
 40
22.8476123809815
 41
0.0
 71
     5
 72
     1
  1
\U+3000\U+3000\U+30b7\U+30ea\U+30b3\U+30f3\U+6ce8\U+5165\U+5f8c\U+3000\U+5e73\U+30ef\U+30c3\U+30b7\U+30e3\U+ff06\U+30bb\U+30e0\U+30b9\U+30cd\U+30b8\U+306b\U+3066\U+56fa\U+5b9a
  7
ＭＳ ゴシック
 73
     1
 44
0.7828267384257846
1001
ACAD
1000
MTEXTBEGIN
1070
    73
1070
     1
1070
    44
1040
0.7828267384257846
1070
    74
1070
     0
1000
MTEXTEND
  0
LINE
  5
89
330
A
100
AcDbEntity
  8
49
  6
Continuous
 62
     7
370
    15
100
AcDbLine
 10
1757.769166665095
 20
1947.765918399598
 30
0.0
 11
2422.606277689022
 21
1947.765918399598
 31
0.0
  0
LINE
  5
8A
330
A
100
AcDbEntity
  8
49
  6
Continuous
 62
     7
370
    15
100
AcDbLine
 10
1783.181278129245
 20
1853.765918399598
 30
0.0
 11
1929.439471797777
 21
1853.765918399598
 31
0.0
  0
LINE
  5
8B
330
A
100
AcDbEntity
  8
49
  6
Continuous
 62
     7
370
    15
100
AcDbLine
 10
2090.187722177058
 20
1376.99556125674
 30
0.0
 11
2090.187722177058
 21
1970.453418399598
 31
0.0
  0
LINE
  5
8C
330
A
100
AcDbEntity
  8
49
  6
Continuous
 62
     7
370
    15
100
AcDbLine
 10
1667.187722177058
 20
1627.765918399597
 30
0.0
 11
2501.692614954482
 21
1627.765918399597
 31
0.0
  0
LINE
  5
8D
330
A
100
AcDbEntity
  8
49
  6
Continuous
 62
     7
370
    15
100
AcDbLine
 10
1926.187722177058
 20
1940.765918399598
 30
0.0
 11
1926.187722177058
 21
1860.765918399598
 31
0.0
  0
LINE
  5
8E
330
A
100
AcDbEntity
  8
49
  6
Continuous
 62
     7
370
    15
100
AcDbLine
 10
1966.187722177058
 20
1900.765918399597
 30
0.0
 11
1886.187722177058
 21
1900.765918399597
 31
0.0
  0
LINE
  5
8F
330
A
100
AcDbEntity
  8
49
  6
Continuous
 62
     7
370
    15
100
AcDbLine
 10
1970.187722177058
 20
1797.765918399598
 30
0.0
 11
2190.187722177058
 21
1797.765918399598
 31
0.0
  0
ARC
  5
90
330
A
100
AcDbEntity
  8
49
  6
Continuous
 62
     7
370
    15
100
AcDbCircle
 10
5197.187722177059
 20
1627.765918399597
 30
0.0
 40
3500.0
100
AcDbArc
 50
175.511392553156
 51
177.856691628946
  0
ARC
  5
91
330
A
100
AcDbEntity
  8
49
  6
Continuous
 62
     7
370
    15
100
AcDbCircle
 10
-1016.812277822942
 20
1627.765918399597
 30
0.0
 40
3500.000000000002
100
AcDbArc
 50
357.654565584343
 51
2.398504525221994
  0
ARC
  5
92
330
A
100
AcDbEntity
  8
49
  6
Continuous
 62
     7
370
    15
100
AcDbCircle
 10
2090.187722177058
 20
16401.7659183996
 30
0.0
 40
15000.0
100
AcDbArc
 50
268.820210346085
 51
271.179789653915
  0
ARC
  5
93
330
A
100
AcDbEntity
  8
49
  6
Continuous
 62
     7
370
    15
100
AcDbCircle
 10
1783.050289162041
 20
1487.928196430079
 30
0.0
 40
82.99999999999997
100
AcDbArc
 50
182.345434415656
 51
268.8202103460819
  0
ARC
  5
94
330
A
100
AcDbEntity
  8
49
  6
Continuous
 62
     7
370
    15
100
AcDbCircle
 10
2397.325155192077
 20
1487.928196430079
 30
0.0
 40
83.0
100
AcDbArc
 50
271.1797896539159
 51
357.654565584343
  0
ARC
  5
95
330
A
100
AcDbEntity
  8
49
  6
Continuous
 62
     7
370
    15
100
AcDbCircle
 10
5197.187722177059
 20
1627.765918399597
 30
0.0
 40
3500.0
100
AcDbArc
 50
177.601495474778
 51
182.3454344156569
  0
ARC
  5
96
330
A
100
AcDbEntity
  8
49
  6
Continuous
 62
     7
370
    15
100
AcDbCircle
 10
-1016.812277822942
 20
1627.765918399597
 30
0.0
 40
3500.0
100
AcDbArc
 50
1.907322104638999
 51
4.488607446844
  0
ARC
  5
97
330
A
100
AcDbEntity
  8
49
  6
Continuous
 62
     7
370
    15
100
AcDbCircle
 10
1783.181278129245
 20
1770.765918399598
 30
0.0
 40
83.0
100
AcDbArc
 50
90.0
 51
177.601495474779
  0
ARC
  5
98
330
A
100
AcDbEntity
  8
49
  6
Continuous
 62
     7
370
    15
100
AcDbCircle
 10
2397.194166224872
 20
1770.765918399598
 30
0.0
 40
83.00000000000002
100
AcDbArc
 50
2.398504525222048
 51
90.0
  0
ARC
  5
99
330
A
100
AcDbEntity
  8
49
  6
Continuous
 62
     7
370
    15
100
AcDbCircle
 10
1757.769166665095
 20
1897.765918399598
 30
0.0
 40
50.0
100
AcDbArc
 50
90.0
 51
175.511392553156
  0
ARC
  5
9A
330
A
100
AcDbEntity
  8
49
  6
Continuous
 62
     7
370
    15
100
AcDbCircle
 10
2422.606277689022
 20
1897.765918399598
 30
0.0
 40
49.99999999999996
100
AcDbArc
 50
4.48860744684404
 51
90.0
  0
ARC
  5
9B
330
A
100
AcDbEntity
  8
49
  6
Continuous
 62
     7
370
    15
100
AcDbCircle
 10
2090.187722177058
 20
1791.765918399597
 30
0.0
 40
138.0
100
AcDbArc
 50
37.56413658194104
 51
79.07740281303
  0
ARC
  5
9C
330
A
100
AcDbEntity
  8
49
  6
Continuous
 62
     7
370
    15
100
AcDbCircle
 10
1929.439471797777
 20
1923.765918399597
 30
0.0
 40
70.0
100
AcDbArc
 50
270.0
 51
320.6085359026639
  0
LINE
  5
9D
330
A
100
AcDbEntity
  8
49
  6
Continuous
 62
     7
370
    15
100
AcDbLine
 10
2250.935972556339
 20
1853.765918399598
 30
0.0
 11
2397.194166224872
 21
1853.765918399598
 31
0.0
  0
ARC
  5
9E
330
A
100
AcDbEntity
  8
49
  6
Continuous
 62
     7
370
    15
100
AcDbCircle
 10
2250.935972556339
 20
1923.765918399597
 30
0.0
 40
70.0
100
AcDbArc
 50
219.391464097336
 51
270.0
  0
LINE
  5
9F
330
A
100
AcDbEntity
  8
49
  6
Continuous
 62
     7
370
    15
100
AcDbLine
 10
1757.769166665095
 20
1957.765918399597
 30
0.0
 11
2422.606277689022
 21
1957.765918399597
 31
0.0
  0
ARC
  5
A0
330
A
100
AcDbEntity
  8
49
  6
Continuous
 62
     7
370
    15
100
AcDbCircle
 10
2422.606277689022
 20
1897.765918399598
 30
0.0
 40
60.00000000000007
100
AcDbArc
 50
4.488607446844031
 51
90.0
  0
ARC
  5
A1
330
A
100
AcDbEntity
  8
49
  6
Continuous
 62
     7
370
    15
100
AcDbCircle
 10
-1016.812277822942
 20
1627.765918399597
 30
0.0
 40
3510.0
100
AcDbArc
 50
1.907322104638999
 51
4.488607446844
  0
ARC
  5
A2
330
A
100
AcDbEntity
  8
49
  6
Continuous
 62
     7
370
    15
100
AcDbCircle
 10
-1016.812277822942
 20
1627.765918399597
 30
0.0
 40
3510.0
100
AcDbArc
 50
357.654565584343
 51
1.907322104638979
  0
ARC
  5
A3
330
A
100
AcDbEntity
  8
49
  6
Continuous
 62
     7
370
    15
100
AcDbCircle
 10
2397.325155192077
 20
1487.928196430079
 30
0.0
 40
92.99999999999995
100
AcDbArc
 50
271.179789653915
 51
357.654565584343
  0
ARC
  5
A4
330
A
100
AcDbEntity
  8
49
  6
Continuous
 62
     7
370
    15
100
AcDbCircle
 10
2090.187722177058
 20
16401.7659183996
 30
0.0
 40
15010.0
100
AcDbArc
 50
268.820210346085
 51
271.179789653915
  0
ARC
  5
A5
330
A
100
AcDbEntity
  8
49
  6
Continuous
 62
     7
370
    15
100
AcDbCircle
 10
1783.050289162041
 20
1487.928196430079
 30
0.0
 40
93.0
100
AcDbArc
 50
182.345434415657
 51
268.820210346085
  0
ARC
  5
A6
330
A
100
AcDbEntity
  8
49
  6
Continuous
 62
     7
370
    15
100
AcDbCircle
 10
5197.187722177059
 20
1627.765918399597
 30
0.0
 40
3510.0
100
AcDbArc
 50
177.601495474778
 51
182.3454344156569
  0
ARC
  5
A7
330
A
100
AcDbEntity
  8
49
  6
Continuous
 62
     7
370
    15
100
AcDbCircle
 10
5197.187722177059
 20
1627.765918399597
 30
0.0
 40
3510.0
100
AcDbArc
 50
175.511392553156
 51
177.601495474778
  0
ARC
  5
A8
330
A
100
AcDbEntity
  8
49
  6
Continuous
 62
     7
370
    15
100
AcDbCircle
 10
1757.769166665095
 20
1897.765918399598
 30
0.0
 40
60.0
100
AcDbArc
 50
90.0
 51
175.511392553156
  0
LINE
  5
A9
330
A
100
AcDbEntity
  8
49
  6
Continuous
 62
     7
370
    15
100
AcDbLine
 10
1909.458643166513
 20
1840.765918399598
 30
0.0
 11
1783.181278129245
 21
1840.765918399598
 31
0.0
  0
ARC
  5
AA
330
A
100
AcDbEntity
  8
49
  6
Continuous
 62
     7
370
    15
100
AcDbCircle
 10
1783.181278129245
 20
1770.765918399598
 30
0.0
 40
70.0
100
AcDbArc
 50
90.0
 51
177.601495474778
  0
ARC
  5
AB
330
A
100
AcDbEntity
  8
49
  6
Continuous
 62
     7
370
    15
100
AcDbCircle
 10
5197.187722177059
 20
1627.765918399597
 30
0.0
 40
3487.0
100
AcDbArc
 50
177.601495474778
 51
182.3454344156569
  0
ARC
  5
AC
330
A
100
AcDbEntity
  8
49
  6
Continuous
 62
     7
370
    15
100
AcDbCircle
 10
1783.050289162041
 20
1487.928196430079
 30
0.0
 40
70.0
100
AcDbArc
 50
182.345434415657
 51
268.820210346085
  0
ARC
  5
AD
330
A
100
AcDbEntity
  8
49
  6
Continuous
 62
     7
370
    15
100
AcDbCircle
 10
2090.187722177058
 20
16401.7659183996
 30
0.0
 40
14987.0
100
AcDbArc
 50
268.820210346085
 51
271.179789653915
  0
ARC
  5
AE
330
A
100
AcDbEntity
  8
49
  6
Continuous
 62
     7
370
    15
100
AcDbCircle
 10
2397.325155192077
 20
1487.928196430079
 30
0.0
 40
69.99999999999997
100
AcDbArc
 50
271.1797896539149
 51
357.654565584343
  0
ARC
  5
AF
330
A
100
AcDbEntity
  8
49
  6
Continuous
 62
     7
370
    15
100
AcDbCircle
 10
-1016.812277822942
 20
1627.765918399597
 30
0.0
 40
3487.0
100
AcDbArc
 50
357.654565584343
 51
2.398504525221994
  0
ARC
  5
B0
330
A
100
AcDbEntity
  8
49
  6
Continuous
 62
     7
370
    15
100
AcDbCircle
 10
2397.194166224872
 20
1770.765918399598
 30
0.0
 40
69.99999999999992
100
AcDbArc
 50
2.398504525222029
 51
89.99999999999998
  0
LINE
  5
B1
330
A
100
AcDbEntity
  8
49
  6
Continuous
 62
     7
370
    15
100
AcDbLine
 10
2397.194166224872
 20
1840.765918399598
 30
0.0
 11
2270.916801187604
 21
1840.765918399598
 31
0.0
  0
ARC
  5
B2
330
A
100
AcDbEntity
  8
49
  6
Continuous
 62
     7
370
    15
100
AcDbCircle
 10
1909.458643166513
 20
1930.765918399598
 30
0.0
 40
90.0
100
AcDbArc
 50
270.0
 51
322.4358634180591
  0
ARC
  5
B3
330
A
100
AcDbEntity
  8
49
  6
Continuous
 62
     7
370
    15
100
AcDbCircle
 10
2270.916801187604
 20
1930.765918399598
 30
0.0
 40
90.00000000000012
100
AcDbArc
 50
217.564136581941
 51
270.0
  0
CIRCLE
  5
B4
330
A
100
AcDbEntity
  8
49
  6
Continuous
 62
     7
370
    15
100
AcDbCircle
 10
2090.187722177058
 20
1797.765918399598
 30
0.0
 40
79.75
  0
CIRCLE
  5
B5
330
A
100
AcDbEntity
  8
49
  6
Continuous
 62
     7
370
    15
100
AcDbCircle
 10
2090.187722177058
 20
1797.765918399598
 30
0.0
 40
90.5
  0
CIRCLE
  5
B6
330
A
100
AcDbEntity
  8
49
  6
Continuous
 62
     7
370
    15
100
AcDbCircle
 10
1926.187722177058
 20
1900.765918399597
 30
0.0
 40
20.0
  0
LINE
  5
B7
330
A
100
AcDbEntity
  8
49
  6
Continuous
 62
     7
370
    15
100
AcDbLine
 10
2012.187722177058
 20
1900.724626174608
 30
0.0
 11
2012.187722177058
 21
1920.620157999597
 31
0.0
  0
LINE
  5
B8
330
A
100
AcDbEntity
  8
49
  6
Continuous
 62
     7
370
    15
100
AcDbLine
 10
2012.187722177058
 20
1920.620157999597
 30
0.0
 11
2012.187722177058
 21
1930.765918399598
 31
0.0
  0
ARC
  5
B9
330
A
100
AcDbEntity
  8
49
  6
Continuous
 62
     7
370
    15
100
AcDbCircle
 10
2019.687722177058
 20
1930.765918399598
 30
0.0
 40
7.5
100
AcDbArc
 50
90.0
 51
180.0
  0
LINE
  5
BA
330
A
100
AcDbEntity
  8
49
  6
Continuous
 62
     7
370
    15
100
AcDbLine
 10
2019.687722177058
 20
1938.265918399597
 30
0.0
 11
2160.687722177058
 21
1938.265918399597
 31
0.0
  0
ARC
  5
BB
330
A
100
AcDbEntity
  8
49
  6
Continuous
 62
     7
370
    15
100
AcDbCircle
 10
2160.687722177058
 20
1930.765918399598
 30
0.0
 40
7.5
100
AcDbArc
 50
0.0
 51
90.0
  0
LINE
  5
BC
330
A
100
AcDbEntity
  8
49
  6
Continuous
 62
     7
370
    15
100
AcDbLine
 10
2168.187722177059
 20
1930.765918399598
 30
0.0
 11
2168.187722177059
 21
1900.724626174608
 31
0.0
  0
LINE
  5
BD
330
A
100
AcDbEntity
  8
49
  6
Continuous
 62
     7
370
    15
100
AcDbLine
 10
2015.187722177058
 20
1900.724626174608
 30
0.0
 11
2015.187722177058
 21
1920.620157999597
 31
0.0
  0
LINE
  5
BE
330
A
100
AcDbEntity
  8
49
  6
Continuous
 62
     7
370
    15
100
AcDbLine
 10
2015.187722177058
 20
1920.620157999597
 30
0.0
 11
2015.187722177058
 21
1923.088919868169
 31
0.0
  0
ARC
  5
BF
330
A
100
AcDbEntity
  8
49
  6
Continuous
 62
     7
370
    15
100
AcDbCircle
 10
2019.687722177058
 20
1930.765918399598
 30
0.0
 40
4.5
100
AcDbArc
 50
90.0
 51
180.0
  0
LINE
  5
C0
330
A
100
AcDbEntity
  8
49
  6
Continuous
 62
     7
370
    15
100
AcDbLine
 10
2019.687722177058
 20
1935.265918399598
 30
0.0
 11
2160.687722177058
 21
1935.265918399598
 31
0.0
  0
ARC
  5
C1
330
A
100
AcDbEntity
  8
49
  6
Continuous
 62
     7
370
    15
100
AcDbCircle
 10
2160.687722177058
 20
1930.765918399598
 30
0.0
 40
4.5
100
AcDbArc
 50
0.0
 51
90.0
  0
LINE
  5
C2
330
A
100
AcDbEntity
  8
49
  6
Continuous
 62
     7
370
    15
100
AcDbLine
 10
2165.187722177059
 20
1930.765918399598
 30
0.0
 11
2165.187722177059
 21
1930.265918399598
 31
0.0
  0
ARC
  5
C3
330
A
100
AcDbEntity
  8
49
  6
Continuous
 62
     7
370
    15
100
AcDbCircle
 10
2090.187722177058
 20
1791.765918399597
 30
0.0
 40
134.0000000000001
100
AcDbArc
 50
105.790284210092
 51
124.035156476903
  0
ARC
  5
C4
330
A
100
AcDbEntity
  8
49
  6
Continuous
 62
     7
370
    15
100
AcDbCircle
 10
2061.343311973347
 20
1893.765918399597
 30
0.0
 40
28.0
100
AcDbArc
 50
90.0
 51
105.7902842100908
  0
LINE
  5
C5
330
A
100
AcDbEntity
  8
49
  6
Continuous
 62
     7
370
    15
100
AcDbLine
 10
2061.343311973347
 20
1921.765918399598
 30
0.0
 11
2119.03213238077
 21
1921.765918399598
 31
0.0
  0
ARC
  5
C6
330
A
100
AcDbEntity
  8
49
  6
Continuous
 62
     7
370
    15
100
AcDbCircle
 10
2119.03213238077
 20
1893.765918399597
 30
0.0
 40
28.00000000000001
100
AcDbArc
 50
74.20971578990914
 51
90.0
  0
ARC
  5
C7
330
A
100
AcDbEntity
  8
49
  6
Continuous
 62
     7
370
    15
100
AcDbCircle
 10
2090.187722177058
 20
1791.765918399597
 30
0.0
 40
133.9999999999998
100
AcDbArc
 50
37.564136581941
 51
54.40235478505499
  0
ARC
  5
C8
330
A
100
AcDbEntity
  8
49
  6
Continuous
 62
     7
370
    15
100
AcDbCircle
 10
2270.916801187604
 20
1930.765918399598
 30
0.0
 40
94.0
100
AcDbArc
 50
217.564136581941
 51
218.862309872968
  0
ARC
  5
C9
330
A
100
AcDbEntity
  8
49
  6
Continuous
 62
     7
370
    15
100
AcDbCircle
 10
2191.493882580946
 20
1866.765918399597
 30
0.0
 40
8.0
100
AcDbArc
 50
270.0
 51
38.86230987296767
  0
LINE
  5
CA
330
A
100
AcDbEntity
  8
49
  6
Continuous
 62
     7
370
    15
100
AcDbLine
 10
2191.493882580946
 20
1858.765918399598
 30
0.0
 11
1988.881561773172
 21
1858.765918399598
 31
0.0
  0
ARC
  5
CB
330
A
100
AcDbEntity
  8
49
  6
Continuous
 62
     7
370
    15
100
AcDbCircle
 10
1988.881561773172
 20
1866.765918399597
 30
0.0
 40
7.99999999999991
100
AcDbArc
 50
141.1376901270323
 51
270.0
  0
ARC
  5
CC
330
A
100
AcDbEntity
  8
49
  6
Continuous
 62
     7
370
    15
100
AcDbCircle
 10
1909.458643166513
 20
1930.765918399598
 30
0.0
 40
94.00000000000003
100
AcDbArc
 50
321.137690127033
 51
322.435863418059
  0
ARC
  5
CD
330
A
100
AcDbEntity
  8
49
  6
Continuous
 62
     7
370
    15
100
AcDbCircle
 10
2090.187722177058
 20
1791.765918399597
 30
0.0
 40
138.0
100
AcDbArc
 50
105.790284210092
 51
122.92073452809
  0
ARC
  5
CE
330
A
100
AcDbEntity
  8
49
  6
Continuous
 62
     7
370
    15
100
AcDbCircle
 10
2061.343311973347
 20
1893.765918399597
 30
0.0
 40
32.0
100
AcDbArc
 50
90.0
 51
105.790284210092
  0
LINE
  5
CF
330
A
100
AcDbEntity
  8
49
  6
Continuous
 62
     7
370
    15
100
AcDbLine
 10
2061.343311973347
 20
1925.765918399597
 30
0.0
 11
2119.03213238077
 21
1925.765918399597
 31
0.0
  0
ARC
  5
D0
330
A
100
AcDbEntity
  8
49
  6
Continuous
 62
     7
370
    15
100
AcDbCircle
 10
2119.03213238077
 20
1893.765918399597
 30
0.0
 40
32.00000000000012
100
AcDbArc
 50
74.20971578990798
 51
90.0
  0
ARC
  5
D1
330
A
100
AcDbEntity
  8
49
  6
Continuous
 62
     7
370
    15
100
AcDbCircle
 10
2090.187722177058
 20
1791.765918399597
 30
0.0
 40
138.0
100
AcDbArc
 50
37.56413658194104
 51
55.58261128955797
  0
ARC
  5
D2
330
A
100
AcDbEntity
  8
49
  6
Continuous
 62
     7
370
    15
100
AcDbCircle
 10
2270.916801187604
 20
1930.765918399598
 30
0.0
 40
90.00000000000012
100
AcDbArc
 50
217.564136581941
 51
218.862309872968
  0
ARC
  5
D3
330
A
100
AcDbEntity
  8
49
  6
Continuous
 62
     7
370
    15
100
AcDbCircle
 10
2191.493882580946
 20
1866.765918399597
 30
0.0
 40
12.0
100
AcDbArc
 50
270.0
 51
38.86230987296855
  0
LINE
  5
D4
330
A
100
AcDbEntity
  8
49
  6
Continuous
 62
     7
370
    15
100
AcDbLine
 10
2191.493882580946
 20
1854.765918399598
 30
0.0
 11
1988.881561773172
 21
1854.765918399598
 31
0.0
  0
ARC
  5
D5
330
A
100
AcDbEntity
  8
49
  6
Continuous
 62
     7
370
    15
100
AcDbCircle
 10
1988.881561773172
 20
1866.765918399597
 30
0.0
 40
12.00000000000001
100
AcDbArc
 50
141.1376901270314
 51
270.0
  0
ARC
  5
D6
330
A
100
AcDbEntity
  8
49
  6
Continuous
 62
     7
370
    15
100
AcDbCircle
 10
1909.458643166513
 20
1930.765918399598
 30
0.0
 40
89.99999999999992
100
AcDbArc
 50
321.137690127033
 51
322.4358634180591
  0
ARC
  5
D7
330
A
100
AcDbEntity
  8
49
  6
Continuous
 62
     7
370
    15
100
AcDbCircle
 10
2013.687722177058
 20
1900.724626174608
 30
0.0
 40
1.5
100
AcDbArc
 50
180.0
 51
270.0
  0
ARC
  5
D8
330
A
100
AcDbEntity
  8
49
  6
Continuous
 62
     7
370
    15
100
AcDbCircle
 10
2013.687722177058
 20
1900.724626174608
 30
0.0
 40
1.5
100
AcDbArc
 50
270.0
 51
0.0
  0
ARC
  5
D9
330
A
100
AcDbEntity
  8
49
  6
Continuous
 62
     7
370
    15
100
AcDbCircle
 10
2090.187722177058
 20
1791.765918399597
 30
0.0
 40
138.0
100
AcDbArc
 50
124.417388710442
 51
142.4358634180589
  0
ARC
  5
DA
330
A
100
AcDbEntity
  8
49
  6
Continuous
 62
     7
370
    15
100
AcDbCircle
 10
2090.187722177058
 20
1791.765918399597
 30
0.0
 40
134.0
100
AcDbArc
 50
125.597645214944
 51
142.4358634180589
  0
LINE
  5
DB
330
A
100
AcDbEntity
  8
49
  6
Continuous
 62
     7
370
    15
100
AcDbLine
 10
2012.187722177058
 20
1905.607914165659
 30
0.0
 11
2015.187722177058
 21
1907.606325857445
 31
0.0
  0
LINE
  5
DC
330
A
100
AcDbEntity
  8
49
  6
Continuous
 62
     7
370
    15
100
AcDbLine
 10
2012.187722177058
 20
1900.724626174608
 30
0.0
 11
2015.187722177058
 21
1902.810954308458
 31
0.0
  0
ARC
  5
DD
330
A
100
AcDbEntity
  8
49
  6
Continuous
 62
     7
370
    15
100
AcDbCircle
 10
2166.687722177059
 20
1900.724626174608
 30
0.0
 40
1.5
100
AcDbArc
 50
270.0
 51
0.0
  0
ARC
  5
DE
330
A
100
AcDbEntity
  8
49
  6
Continuous
 62
     7
370
    15
100
AcDbCircle
 10
2166.687722177059
 20
1900.724626174608
 30
0.0
 40
1.5
100
AcDbArc
 50
180.0
 51
270.0
  0
ARC
  5
DF
330
A
100
AcDbEntity
  8
49
  6
Continuous
 62
     7
370
    15
100
AcDbCircle
 10
2090.187722177058
 20
1791.765918399597
 30
0.0
 40
134.0
100
AcDbArc
 50
55.96484352309704
 51
74.20971578990801
  0
ARC
  5
E0
330
A
100
AcDbEntity
  8
49
  6
Continuous
 62
     7
370
    15
100
AcDbCircle
 10
2090.187722177058
 20
1791.765918399597
 30
0.0
 40
138.0
100
AcDbArc
 50
57.07926547190997
 51
74.209715789908
  0
LINE
  5
E1
330
A
100
AcDbEntity
  8
49
  6
Continuous
 62
     7
370
    15
100
AcDbLine
 10
2165.187722177059
 20
1902.810954308458
 30
0.0
 11
2168.187722177059
 21
1900.724626174608
 31
0.0
  0
LINE
  5
E2
330
A
100
AcDbEntity
  8
49
  6
Continuous
 62
     7
370
    15
100
AcDbLine
 10
2165.187722177059
 20
1907.606325857445
 30
0.0
 11
2168.187722177059
 21
1905.607914165659
 31
0.0
  0
LINE
  5
E3
330
A
100
AcDbEntity
  8
49
  6
Continuous
 62
     7
370
    15
100
AcDbLine
 10
2001.687722177059
 20
1858.765918399598
 30
0.0
 11
2001.687722177059
 21
1892.382765895433
 31
0.0
  0
LINE
  5
E4
330
A
100
AcDbEntity
  8
49
  6
Continuous
 62
     7
370
    15
100
AcDbLine
 10
1998.687722177058
 20
1858.765918399598
 30
0.0
 11
1998.687722177058
 21
1889.662547555049
 31
0.0
  0
LINE
  5
E5
330
A
100
AcDbEntity
  8
49
  6
Continuous
 62
     7
370
    15
100
AcDbLine
 10
1998.687722177058
 20
1854.765918399598
 30
0.0
 11
1998.687722177058
 21
1858.765918399598
 31
0.0
  0
LINE
  5
E6
330
A
100
AcDbEntity
  8
49
  6
Continuous
 62
     7
370
    15
100
AcDbLine
 10
2001.687722177059
 20
1854.765918399598
 30
0.0
 11
2001.687722177059
 21
1858.765918399598
 31
0.0
  0
LINE
  5
E7
330
A
100
AcDbEntity
  8
49
  6
Continuous
 62
     7
370
    15
100
AcDbLine
 10
1998.687722177058
 20
1894.736292723493
 30
0.0
 11
1998.687722177058
 21
1890.089319967043
 31
0.0
  0
LINE
  5
E8
330
A
100
AcDbEntity
  8
49
  6
Continuous
 62
     7
370
    15
100
AcDbLine
 10
2001.687722177059
 20
1897.580659659777
 30
0.0
 11
2001.687722177059
 21
1892.382765895433
 31
0.0
  0
LINE
  5
E9
330
A
100
AcDbEntity
  8
49
  6
Continuous
 62
     7
370
    15
100
AcDbLine
 10
2031.687722177059
 20
1912.321921982994
 30
0.0
 11
2031.687722177059
 21
1858.765918399598
 31
0.0
  0
LINE
  5
EA
330
A
100
AcDbEntity
  8
49
  6
Continuous
 62
     7
370
    15
100
AcDbLine
 10
2061.687722177058
 20
1921.765918399598
 30
0.0
 11
2061.687722177058
 21
1858.765918399598
 31
0.0
  0
LINE
  5
EB
330
A
100
AcDbEntity
  8
49
  6
Continuous
 62
     7
370
    15
100
AcDbLine
 10
2121.687722177059
 20
1921.765918399598
 30
0.0
 11
2121.687722177059
 21
1858.765918399598
 31
0.0
  0
LINE
  5
EC
330
A
100
AcDbEntity
  8
49
  6
Continuous
 62
     7
370
    15
100
AcDbLine
 10
2118.687722177059
 20
1921.765918399598
 30
0.0
 11
2118.687722177059
 21
1858.765918399598
 31
0.0
  0
LINE
  5
ED
330
A
100
AcDbEntity
  8
49
  6
Continuous
 62
     7
370
    15
100
AcDbLine
 10
2058.687722177058
 20
1921.639702549473
 30
0.0
 11
2058.687722177058
 21
1858.765918399598
 31
0.0
  0
LINE
  5
EE
330
A
100
AcDbEntity
  8
49
  6
Continuous
 62
     7
370
    15
100
AcDbLine
 10
2028.687722177059
 20
1858.765918399598
 30
0.0
 11
2028.687722177059
 21
1910.8194777752
 31
0.0
  0
LINE
  5
EF
330
A
100
AcDbEntity
  8
49
  6
Continuous
 62
     7
370
    15
100
AcDbLine
 10
2148.687722177058
 20
1858.765918399598
 30
0.0
 11
2148.687722177058
 21
1912.321921982994
 31
0.0
  0
LINE
  5
F0
330
A
100
AcDbEntity
  8
49
  6
Continuous
 62
     7
370
    15
100
AcDbLine
 10
2151.687722177058
 20
1858.765918399598
 30
0.0
 11
2151.687722177058
 21
1910.8194777752
 31
0.0
  0
LINE
  5
F1
330
A
100
AcDbEntity
  8
49
  6
Continuous
 62
     7
370
    15
100
AcDbLine
 10
2178.687722177059
 20
1858.765918399598
 30
0.0
 11
2178.687722177059
 21
1892.382765895432
 31
0.0
  0
LINE
  5
F2
330
A
100
AcDbEntity
  8
49
  6
Continuous
 62
     7
370
    15
100
AcDbLine
 10
2181.687722177058
 20
1858.765918399598
 30
0.0
 11
2181.687722177058
 21
1889.662547555049
 31
0.0
  0
LINE
  5
F3
330
A
100
AcDbEntity
  8
49
  6
Continuous
 62
     7
370
    15
100
AcDbLine
 10
2028.687722177059
 20
1854.765918399598
 30
0.0
 11
2028.687722177059
 21
1858.765918399598
 31
0.0
  0
LINE
  5
F4
330
A
100
AcDbEntity
  8
49
  6
Continuous
 62
     7
370
    15
100
AcDbLine
 10
2031.687722177059
 20
1854.765918399598
 30
0.0
 11
2031.687722177059
 21
1858.765918399598
 31
0.0
  0
LINE
  5
F5
330
A
100
AcDbEntity
  8
49
  6
Continuous
 62
     7
370
    15
100
AcDbLine
 10
2058.687722177058
 20
1854.765918399598
 30
0.0
 11
2058.687722177058
 21
1858.765918399598
 31
0.0
  0
LINE
  5
F6
330
A
100
AcDbEntity
  8
49
  6
Continuous
 62
     7
370
    15
100
AcDbLine
 10
2061.687722177058
 20
1854.765918399598
 30
0.0
 11
2061.687722177058
 21
1858.765918399598
 31
0.0
  0
LINE
  5
F7
330
A
100
AcDbEntity
  8
49
  6
Continuous
 62
     7
370
    15
100
AcDbLine
 10
2088.687722177058
 20
1854.765918399598
 30
0.0
 11
2088.687722177058
 21
1858.765918399598
 31
0.0
  0
LINE
  5
F8
330
A
100
AcDbEntity
  8
49
  6
Continuous
 62
     7
370
    15
100
AcDbLine
 10
2091.687722177058
 20
1854.765918399598
 30
0.0
 11
2091.687722177058
 21
1858.765918399598
 31
0.0
  0
LINE
  5
F9
330
A
100
AcDbEntity
  8
49
  6
Continuous
 62
     7
370
    15
100
AcDbLine
 10
2118.687722177059
 20
1854.765918399598
 30
0.0
 11
2118.687722177059
 21
1858.765918399598
 31
0.0
  0
LINE
  5
FA
330
A
100
AcDbEntity
  8
49
  6
Continuous
 62
     7
370
    15
100
AcDbLine
 10
2121.687722177059
 20
1854.765918399598
 30
0.0
 11
2121.687722177059
 21
1858.765918399598
 31
0.0
  0
LINE
  5
FB
330
A
100
AcDbEntity
  8
49
  6
Continuous
 62
     7
370
    15
100
AcDbLine
 10
2148.687722177058
 20
1854.765918399598
 30
0.0
 11
2148.687722177058
 21
1858.765918399598
 31
0.0
  0
LINE
  5
FC
330
A
100
AcDbEntity
  8
49
  6
Continuous
 62
     7
370
    15
100
AcDbLine
 10
2151.687722177058
 20
1854.765918399598
 30
0.0
 11
2151.687722177058
 21
1858.765918399598
 31
0.0
  0
LINE
  5
FD
330
A
100
AcDbEntity
  8
49
  6
Continuous
 62
     7
370
    15
100
AcDbLine
 10
2178.687722177059
 20
1854.765918399598
 30
0.0
 11
2178.687722177059
 21
1858.765918399598
 31
0.0
  0
LINE
  5
FE
330
A
100
AcDbEntity
  8
49
  6
Continuous
 62
     7
370
    15
100
AcDbLine
 10
2181.687722177058
 20
1854.765918399598
 30
0.0
 11
2181.687722177058
 21
1858.765918399598
 31
0.0
  0
LINE
  5
FF
330
A
100
AcDbEntity
  8
49
  6
Continuous
 62
     7
370
    15
100
AcDbLine
 10
2088.687722177058
 20
1921.765918399598
 30
0.0
 11
2088.687722177058
 21
1858.765918399598
 31
0.0
  0
LINE
  5
100
330
A
100
AcDbEntity
  8
49
  6
Continuous
 62
     7
370
    15
100
AcDbLine
 10
2091.687722177058
 20
1921.765918399598
 30
0.0
 11
2091.687722177058
 21
1858.765918399598
 31
0.0
  0
LINE
  5
101
330
A
100
AcDbEntity
  8
49
  6
Continuous
 62
     7
370
    15
100
AcDbLine
 10
2181.687722177058
 20
1894.930052254562
 30
0.0
 11
2181.687722177058
 21
1889.662547555049
 31
0.0
  0
LINE
  5
102
330
A
100
AcDbEntity
  8
49
  6
Continuous
 62
     7
370
    15
100
AcDbLine
 10
2178.687722177059
 20
1897.473351941501
 30
0.0
 11
2178.687722177059
 21
1892.382765895432
 31
0.0
  0
LINE
  5
103
330
A
100
AcDbEntity
  8
49
  6
Continuous
 62
     7
370
    15
100
AcDbLine
 10
2148.687722177058
 20
1916.671902461557
 30
0.0
 11
2148.687722177058
 21
1912.321921982994
 31
0.0
  0
LINE
  5
104
330
A
100
AcDbEntity
  8
49
  6
Continuous
 62
     7
370
    15
100
AcDbLine
 10
2151.687722177058
 20
1915.181309449824
 30
0.0
 11
2151.687722177058
 21
1910.8194777752
 31
0.0
  0
LINE
  5
105
330
A
100
AcDbEntity
  8
49
  6
Continuous
 62
     7
370
    15
100
AcDbLine
 10
2118.687722177059
 20
1925.765918399597
 30
0.0
 11
2118.687722177059
 21
1921.765918399598
 31
0.0
  0
LINE
  5
106
330
A
100
AcDbEntity
  8
49
  6
Continuous
 62
     7
370
    15
100
AcDbLine
 10
2121.687722177059
 20
1925.664298808063
 30
0.0
 11
2121.687722177059
 21
1921.639702549473
 31
0.0
  0
LINE
  5
107
330
A
100
AcDbEntity
  8
49
  6
Continuous
 62
     7
370
    15
100
AcDbLine
 10
2088.687722177058
 20
1925.765918399597
 30
0.0
 11
2088.687722177058
 21
1921.765918399598
 31
0.0
  0
LINE
  5
108
330
A
100
AcDbEntity
  8
49
  6
Continuous
 62
     7
370
    15
100
AcDbLine
 10
2091.687722177058
 20
1925.765918399597
 30
0.0
 11
2091.687722177058
 21
1921.765918399598
 31
0.0
  0
LINE
  5
109
330
A
100
AcDbEntity
  8
49
  6
Continuous
 62
     7
370
    15
100
AcDbLine
 10
2058.687722177058
 20
1925.645819855954
 30
0.0
 11
2058.687722177058
 21
1921.639702549473
 31
0.0
  0
LINE
  5
10A
330
A
100
AcDbEntity
  8
49
  6
Continuous
 62
     7
370
    15
100
AcDbLine
 10
2061.687722177058
 20
1925.765918399597
 30
0.0
 11
2061.687722177058
 21
1921.765918399598
 31
0.0
  0
LINE
  5
10B
330
A
100
AcDbEntity
  8
49
  6
Continuous
 62
     7
370
    15
100
AcDbLine
 10
2028.687722177059
 20
1915.156669492542
 30
0.0
 11
2028.687722177059
 21
1910.8194777752
 31
0.0
  0
LINE
  5
10C
330
A
100
AcDbEntity
  8
49
  6
Continuous
 62
     7
370
    15
100
AcDbLine
 10
2031.687722177059
 20
1916.815111889654
 30
0.0
 11
2031.687722177059
 21
1912.05550476986
 31
0.0
  0
LINE
  5
10D
330
A
100
AcDbEntity
  8
49
  6
Continuous
 62
     7
370
    15
100
AcDbLine
 10
2018.187722177058
 20
1927.265918399598
 30
0.0
 11
2162.187722177058
 21
1927.265918399598
 31
0.0
  0
LINE
  5
10E
330
A
100
AcDbEntity
  8
49
  6
Continuous
 62
     7
370
    15
100
AcDbLine
 10
2015.187722177058
 20
1930.265918399598
 30
0.0
 11
2015.187722177058
 21
1930.765918399598
 31
0.0
  0
ARC
  5
10F
330
A
100
AcDbEntity
  8
49
  6
Continuous
 62
     7
370
    15
100
AcDbCircle
 10
2018.187722177058
 20
1930.265918399598
 30
0.0
 40
3.0
100
AcDbArc
 50
180.0
 51
270.0
  0
LINE
  5
110
330
A
100
AcDbEntity
  8
49
  6
Continuous
 62
     7
370
    15
100
AcDbLine
 10
2015.187722177058
 20
1930.765918399598
 30
0.0
 11
2015.187722177058
 21
1922.327055468169
 31
0.0
  0
LINE
  5
111
330
A
100
AcDbEntity
  8
49
  6
Continuous
 62
     7
370
    15
100
AcDbLine
 10
2165.187722177059
 20
1921.955204113883
 30
0.0
 11
2165.187722177059
 21
1900.724626174608
 31
0.0
  0
ARC
  5
112
330
A
100
AcDbEntity
  8
49
  6
Continuous
 62
     7
370
    15
100
AcDbCircle
 10
2162.187722177058
 20
1930.265918399598
 30
0.0
 40
3.0
100
AcDbArc
 50
270.0
 51
0.0
  0
LINE
  5
113
330
A
100
AcDbEntity
  8
49
  6
Continuous
 62
     7
370
    15
100
AcDbLine
 10
2165.187722177059
 20
1930.765918399598
 30
0.0
 11
2165.187722177059
 21
1920.371204113883
 31
0.0
  0
CIRCLE
  5
114
330
A
100
AcDbEntity
  8
49
  6
Continuous
 62
     7
370
    15
100
AcDbCircle
 10
2020.187722177058
 20
1931.265918399597
 30
0.0
 40
10.0
  0
CIRCLE
  5
115
330
A
100
AcDbEntity
  8
49
  6
Continuous
 62
     7
370
    15
100
AcDbCircle
 10
2160.187722177058
 20
1931.265918399597
 30
0.0
 40
10.0
  0
LINE
  5
116
330
A
100
AcDbEntity
  8
49
  6
Continuous
 62
     7
370
    15
100
AcDbLine
 10
2160.187722177058
 20
1941.265918399597
 30
0.0
 11
2019.687722177058
 21
1941.265918399597
 31
0.0
  0
ARC
  5
117
330
A
100
AcDbEntity
  8
49
  6
Continuous
 62
     7
370
    15
100
AcDbCircle
 10
2090.187722177058
 20
1791.765918399597
 30
0.0
 40
138.0
100
AcDbArc
 50
100.92259718697
 51
142.4358634180589
  0
ARC
  5
118
330
A
100
AcDbEntity
  8
49
  6
Continuous
 62
     7
370
    15
100
AcDbCircle
 10
2090.187722177058
 20
1791.765918399597
 30
0.0
 40
138.0
100
AcDbArc
 50
79.07740281303003
 51
100.92259718697
  0
LINE
  5
119
330
A
100
AcDbEntity
  8
49
  6
Continuous
 62
     7
370
    15
100
AcDbLine
 10
1962.187722177058
 20
1401.765918399597
 30
0.0
 11
1970.187722177058
 21
1414.765918399598
 31
0.0
  0
LINE
  5
11A
330
A
100
AcDbEntity
  8
49
  6
Continuous
 62
     7
370
    15
100
AcDbLine
 10
2218.187722177058
 20
1401.765918399597
 30
0.0
 11
2210.187722177058
 21
1414.765918399598
 31
0.0
  0
LINE
  5
11B
330
A
100
AcDbEntity
  8
33
  6
Continuous
 62
     7
370
    15
100
AcDbLine
 10
866.2811730011544
 20
1887.663108796907
 30
0.0
 11
1026.549030144008
 21
1887.663108796907
 31
0.0
  0
LINE
  5
11C
330
A
100
AcDbEntity
  8
33
  6
Continuous
 62
     7
370
    15
100
AcDbLine
 10
866.2811730011544
 20
1887.663108796907
 30
0.0
 11
1026.549030144008
 21
1887.663108796907
 31
0.0
  0
LINE
  5
11D
330
A
100
AcDbEntity
  8
33
  6
Continuous
 62
     7
370
    15
100
AcDbLine
 10
866.2811730011544
 20
1887.663108796907
 30
0.0
 11
1026.549030144008
 21
1887.663108796907
 31
0.0
  0
LINE
  5
11E
330
A
100
AcDbEntity
  8
33
  6
Continuous
 62
     7
370
    15
100
AcDbLine
 10
866.2811730011544
 20
1887.663108796907
 30
0.0
 11
1026.549030144008
 21
1887.663108796907
 31
0.0
  0
LINE
  5
11F
330
A
100
AcDbEntity
  8
49
  6
Continuous
 62
     7
370
    15
100
AcDbLine
 10
1966.187722177058
 20
1865.765918399598
 30
0.0
 11
1966.187722177058
 21
1935.765918399598
 31
0.0
  0
LINE
  5
120
330
A
100
AcDbEntity
  8
49
  6
Continuous
 62
     7
370
    15
100
AcDbLine
 10
1966.187722177058
 20
1935.765918399598
 30
0.0
 11
1726.187722177058
 21
1935.765918399598
 31
0.0
  0
LINE
  5
121
330
A
100
AcDbEntity
  8
49
  6
Continuous
 62
     7
370
    15
100
AcDbLine
 10
1726.187722177058
 20
1935.765918399598
 30
0.0
 11
1726.187722177058
 21
1865.765918399598
 31
0.0
  0
LINE
  5
122
330
A
100
AcDbEntity
  8
49
  6
Continuous
 62
     7
370
    15
100
AcDbLine
 10
1726.187722177058
 20
1865.765918399598
 30
0.0
 11
1966.187722177058
 21
1865.765918399598
 31
0.0
  0
LINE
  5
123
330
A
100
AcDbEntity
  8
49
  6
Continuous
 62
     7
370
    15
100
AcDbLine
 10
2604.727900748487
 20
1391.765918399596
 30
0.0
 11
2604.727900748487
 21
1957.765918399597
 31
0.0
  0
LINE
  5
124
330
A
100
AcDbEntity
  8
49
  6
Continuous
 62
     7
370
    15
100
AcDbLine
 10
2604.727900748487
 20
1391.765918399596
 30
0.0
 11
2599.551519846438
 21
1411.084434925378
 31
0.0
  0
LINE
  5
125
330
A
100
AcDbEntity
  8
49
  6
Continuous
 62
     7
370
    15
100
AcDbLine
 10
2604.727900748487
 20
1391.765918399596
 30
0.0
 11
2609.904281650537
 21
1411.084434925378
 31
0.0
  0
LINE
  5
126
330
A
100
AcDbEntity
  8
49
  6
Continuous
 62
     7
370
    15
100
AcDbLine
 10
2604.727900748487
 20
1957.765918399597
 30
0.0
 11
2609.904281650537
 21
1938.447401873816
 31
0.0
  0
LINE
  5
127
330
A
100
AcDbEntity
  8
49
  6
Continuous
 62
     7
370
    15
100
AcDbLine
 10
2604.727900748487
 20
1957.765918399597
 30
0.0
 11
2599.551519846438
 21
1938.447401873816
 31
0.0
  0
LINE
  5
128
330
A
100
AcDbEntity
  8
49
  6
Continuous
 62
     7
370
    15
100
AcDbLine
 10
2095.187722177058
 20
1391.765918399596
 30
0.0
 11
2609.727900748487
 21
1391.765918399596
 31
0.0
  0
LINE
  5
129
330
A
100
AcDbEntity
  8
49
  6
Continuous
 62
     7
370
    15
100
AcDbLine
 10
2427.606277689022
 20
1957.765918399597
 30
0.0
 11
2609.727900748487
 21
1957.765918399597
 31
0.0
  0
MTEXT
  5
12A
330
A
100
AcDbEntity
  8
49
 62
     7
100
AcDbMText
 10
2580.084677394693
 20
1636.15479953799
 30
0.0
 40
20.0
 41
0.0
 71
     2
 72
     1
  1
566
  7
ＭＳ ゴシック
 11
0.0
 21
1.0
 31
0.0
 73
     1
 44
0.7828267384257846
1001
ACAD
1000
MTEXTBEGIN
1070
    73
1070
     1
1070
    44
1040
0.7828267384257846
1070
    74
1070
     0
1000
MTEXTEND
  0
LINE
  5
12B
330
A
100
AcDbEntity
  8
49
  6
Continuous
 62
     7
370
    15
100
AcDbLine
 10
2565.095805722978
 20
1391.765918399596
 30
0.0
 11
2565.095805722978
 21
1401.765918399597
 31
0.0
  0
LINE
  5
12C
330
A
100
AcDbEntity
  8
49
  6
Continuous
 62
     7
370
    15
100
AcDbLine
 10
2095.187722177058
 20
1391.765918399596
 30
0.0
 11
2570.095805722977
 21
1391.765918399596
 31
0.0
  0
LINE
  5
12D
330
A
100
AcDbEntity
  8
49
  6
Continuous
 62
     7
370
    15
100
AcDbLine
 10
2095.187722177058
 20
1401.765918399597
 30
0.0
 11
2570.095805722977
 21
1401.765918399597
 31
0.0
  0
LINE
  5
12E
330
A
100
AcDbEntity
  8
49
  6
Continuous
 62
     7
370
    15
100
AcDbLine
 10
2565.095805722978
 20
1351.765918399597
 30
0.0
 11
2565.095805722978
 21
1391.765918399596
 31
0.0
  0
LINE
  5
12F
330
A
100
AcDbEntity
  8
49
  6
Continuous
 62
     7
370
    15
100
AcDbLine
 10
2565.095805722978
 20
1391.765918399596
 30
0.0
 11
2570.272186625027
 21
1372.447401873816
 31
0.0
  0
LINE
  5
130
330
A
100
AcDbEntity
  8
49
  6
Continuous
 62
     7
370
    15
100
AcDbLine
 10
2565.095805722978
 20
1391.765918399596
 30
0.0
 11
2559.919424820927
 21
1372.447401873816
 31
0.0
  0
MTEXT
  5
131
330
A
100
AcDbEntity
  8
49
 62
     7
100
AcDbMText
 10
2539.019980129067
 20
1361.197402077053
 30
0.0
 40
20.0
 41
0.0
 71
     2
 72
     1
  1
10
  7
ＭＳ ゴシック
 11
0.0
 21
1.0
 31
0.0
 73
     1
 44
0.7828267384257846
1001
ACAD
1000
MTEXTBEGIN
1070
    73
1070
     1
1070
    44
1040
0.7828267384257846
1070
    74
1070
     0
1000
MTEXTEND
  0
LINE
  5
132
330
A
100
AcDbEntity
  8
49
  6
Continuous
 62
     7
370
    15
100
AcDbLine
 10
2565.095805722978
 20
1401.765918399597
 30
0.0
 11
2565.095805722978
 21
1853.765918399598
 31
0.0
  0
LINE
  5
133
330
A
100
AcDbEntity
  8
49
  6
Continuous
 62
     7
370
    15
100
AcDbLine
 10
2565.095805722978
 20
1401.765918399597
 30
0.0
 11
2559.919424820927
 21
1421.084434925378
 31
0.0
  0
LINE
  5
134
330
A
100
AcDbEntity
  8
49
  6
Continuous
 62
     7
370
    15
100
AcDbLine
 10
2565.095805722978
 20
1401.765918399597
 30
0.0
 11
2570.272186625027
 21
1421.084434925378
 31
0.0
  0
LINE
  5
135
330
A
100
AcDbEntity
  8
49
  6
Continuous
 62
     7
370
    15
100
AcDbLine
 10
2565.095805722978
 20
1853.765918399598
 30
0.0
 11
2570.272186625027
 21
1834.447401873816
 31
0.0
  0
LINE
  5
136
330
A
100
AcDbEntity
  8
49
  6
Continuous
 62
     7
370
    15
100
AcDbLine
 10
2565.095805722978
 20
1853.765918399598
 30
0.0
 11
2559.919424820927
 21
1834.447401873816
 31
0.0
  0
LINE
  5
137
330
A
100
AcDbEntity
  8
49
  6
Continuous
 62
     7
370
    15
100
AcDbLine
 10
2402.194166224874
 20
1853.765918399598
 30
0.0
 11
2570.095805722977
 21
1853.765918399598
 31
0.0
  0
MTEXT
  5
138
330
A
100
AcDbEntity
  8
49
 62
     7
100
AcDbMText
 10
2540.095785793131
 20
1627.765944557522
 30
0.0
 40
20.0
 41
0.0
 71
     2
 72
     1
  1
452
  7
ＭＳ ゴシック
 11
0.0
 21
1.0
 31
0.0
 73
     1
 44
0.7828267384257846
1001
ACAD
1000
MTEXTBEGIN
1070
    73
1070
     1
1070
    44
1040
0.7828267384257846
1070
    74
1070
     0
1000
MTEXTEND
  0
LINE
  5
139
330
A
100
AcDbEntity
  8
49
  6
Continuous
 62
     7
370
    15
100
AcDbLine
 10
2565.095805722978
 20
1853.765918399598
 30
0.0
 11
2565.095805722978
 21
1947.765918399598
 31
0.0
  0
LINE
  5
13A
330
A
100
AcDbEntity
  8
49
  6
Continuous
 62
     7
370
    15
100
AcDbLine
 10
2565.095805722978
 20
1853.765918399598
 30
0.0
 11
2559.919424820927
 21
1873.084434925379
 31
0.0
  0
LINE
  5
13B
330
A
100
AcDbEntity
  8
49
  6
Continuous
 62
     7
370
    15
100
AcDbLine
 10
2565.095805722978
 20
1853.765918399598
 30
0.0
 11
2570.272186625027
 21
1873.084434925379
 31
0.0
  0
LINE
  5
13C
330
A
100
AcDbEntity
  8
49
  6
Continuous
 62
     7
370
    15
100
AcDbLine
 10
2565.095805722978
 20
1947.765918399598
 30
0.0
 11
2570.272186625027
 21
1928.447401873816
 31
0.0
  0
LINE
  5
13D
330
A
100
AcDbEntity
  8
49
  6
Continuous
 62
     7
370
    15
100
AcDbLine
 10
2565.095805722978
 20
1947.765918399598
 30
0.0
 11
2559.919424820927
 21
1928.447401873816
 31
0.0
  0
LINE
  5
13E
330
A
100
AcDbEntity
  8
49
  6
Continuous
 62
     7
370
    15
100
AcDbLine
 10
2427.606277689022
 20
1947.765918399598
 30
0.0
 11
2570.095805722977
 21
1947.765918399598
 31
0.0
  0
MTEXT
  5
13F
330
A
100
AcDbEntity
  8
49
 62
     7
100
AcDbMText
 10
2540.095785793131
 20
1900.765883522365
 30
0.0
 40
20.0
 41
0.0
 71
     2
 72
     1
  1
94
  7
ＭＳ ゴシック
 11
0.0
 21
1.0
 31
0.0
 73
     1
 44
0.7828267384257846
1001
ACAD
1000
MTEXTBEGIN
1070
    73
1070
     1
1070
    44
1040
0.7828267384257846
1070
    74
1070
     0
1000
MTEXTEND
  0
LINE
  5
140
330
A
100
AcDbEntity
  8
49
  6
Continuous
 62
     7
370
    15
100
AcDbLine
 10
2565.095805722978
 20
1947.765918399598
 30
0.0
 11
2565.095805722978
 21
1957.765918399597
 31
0.0
  0
LINE
  5
141
330
A
100
AcDbEntity
  8
49
  6
Continuous
 62
     7
370
    15
100
AcDbLine
 10
2427.606277689022
 20
1957.765918399597
 30
0.0
 11
2570.095805722977
 21
1957.765918399597
 31
0.0
  0
LINE
  5
142
330
A
100
AcDbEntity
  8
49
  6
Continuous
 62
     7
370
    15
100
AcDbLine
 10
2565.095805722978
 20
1957.765918399597
 30
0.0
 11
2565.095805722978
 21
1997.765918399598
 31
0.0
  0
LINE
  5
143
330
A
100
AcDbEntity
  8
49
  6
Continuous
 62
     7
370
    15
100
AcDbLine
 10
2565.095805722978
 20
1957.765918399597
 30
0.0
 11
2559.919424820927
 21
1977.084434925379
 31
0.0
  0
LINE
  5
144
330
A
100
AcDbEntity
  8
49
  6
Continuous
 62
     7
370
    15
100
AcDbLine
 10
2565.095805722978
 20
1957.765918399597
 30
0.0
 11
2570.272186625027
 21
1977.084434925379
 31
0.0
  0
MTEXT
  5
145
330
A
100
AcDbEntity
  8
49
 62
     7
100
AcDbMText
 10
2540.095785793131
 20
1977.765883522366
 30
0.0
 40
20.0
 41
0.0
 71
     2
 72
     1
  1
10
  7
ＭＳ ゴシック
 11
0.0
 21
1.0
 31
0.0
 73
     1
 44
0.7828267384257846
1001
ACAD
1000
MTEXTBEGIN
1070
    73
1070
     1
1070
    44
1040
0.7828267384257846
1070
    74
1070
     0
1000
MTEXTEND
  0
LINE
  5
146
330
A
100
AcDbEntity
  8
49
  6
Continuous
 62
     7
370
    15
100
AcDbLine
 10
2529.370359294406
 20
1401.765918399597
 30
0.0
 11
2529.370359294406
 21
1414.765918399598
 31
0.0
  0
LINE
  5
147
330
A
100
AcDbEntity
  8
49
  6
Continuous
 62
     7
370
    15
100
AcDbLine
 10
2095.187722177058
 20
1401.765918399597
 30
0.0
 11
2534.370359294407
 21
1401.765918399597
 31
0.0
  0
LINE
  5
148
330
A
100
AcDbEntity
  8
49
  6
Continuous
 62
     7
370
    15
100
AcDbLine
 10
2095.187722177058
 20
1414.765918399598
 30
0.0
 11
2534.370359294407
 21
1414.765918399598
 31
0.0
  0
LINE
  5
149
330
A
100
AcDbEntity
  8
49
  6
Continuous
 62
     7
370
    15
100
AcDbLine
 10
2529.370359294406
 20
1361.765918399597
 30
0.0
 11
2529.370359294406
 21
1401.765918399597
 31
0.0
  0
LINE
  5
14A
330
A
100
AcDbEntity
  8
49
  6
Continuous
 62
     7
370
    15
100
AcDbLine
 10
2529.370359294406
 20
1401.765918399597
 30
0.0
 11
2534.546740196456
 21
1382.447401873816
 31
0.0
  0
LINE
  5
14B
330
A
100
AcDbEntity
  8
49
  6
Continuous
 62
     7
370
    15
100
AcDbLine
 10
2529.370359294406
 20
1401.765918399597
 30
0.0
 11
2524.193978392356
 21
1382.447401873816
 31
0.0
  0
MTEXT
  5
14C
330
A
100
AcDbEntity
  8
49
 62
     7
100
AcDbMText
 10
2503.246542629068
 20
1430.233656959865
 30
0.0
 40
20.0
 41
0.0
 71
     2
 72
     1
  1
13
  7
ＭＳ ゴシック
 11
0.0
 21
1.0
 31
0.0
 73
     1
 44
0.7828267384257846
1001
ACAD
1000
MTEXTBEGIN
1070
    73
1070
     1
1070
    44
1040
0.7828267384257846
1070
    74
1070
     0
1000
MTEXTEND
  0
LINE
  5
14D
330
A
100
AcDbEntity
  8
49
  6
Continuous
 62
     7
370
    15
100
AcDbLine
 10
2529.370359294406
 20
1414.765918399598
 30
0.0
 11
2529.370359294406
 21
1840.765918399598
 31
0.0
  0
LINE
  5
14E
330
A
100
AcDbEntity
  8
49
  6
Continuous
 62
     7
370
    15
100
AcDbLine
 10
2529.370359294406
 20
1414.765918399598
 30
0.0
 11
2524.193978392356
 21
1434.084434925378
 31
0.0
  0
LINE
  5
14F
330
A
100
AcDbEntity
  8
49
  6
Continuous
 62
     7
370
    15
100
AcDbLine
 10
2529.370359294406
 20
1414.765918399598
 30
0.0
 11
2534.546740196456
 21
1434.084434925378
 31
0.0
  0
LINE
  5
150
330
A
100
AcDbEntity
  8
49
  6
Continuous
 62
     7
370
    15
100
AcDbLine
 10
2529.370359294406
 20
1840.765918399598
 30
0.0
 11
2534.546740196456
 21
1821.447401873816
 31
0.0
  0
LINE
  5
151
330
A
100
AcDbEntity
  8
49
  6
Continuous
 62
     7
370
    15
100
AcDbLine
 10
2529.370359294406
 20
1840.765918399598
 30
0.0
 11
2524.193978392356
 21
1821.447401873816
 31
0.0
  0
LINE
  5
152
330
A
100
AcDbEntity
  8
49
  6
Continuous
 62
     7
370
    15
100
AcDbLine
 10
2386.364938376038
 20
1840.765918399598
 30
0.0
 11
2534.370359294407
 21
1840.765918399598
 31
0.0
  0
MTEXT
  5
153
330
A
100
AcDbEntity
  8
49
 62
     7
100
AcDbMText
 10
2504.370443996255
 20
1627.765944557522
 30
0.0
 40
20.0
 41
0.0
 71
     2
 72
     1
  1
426
  7
ＭＳ ゴシック
 11
0.0
 21
1.0
 31
0.0
 73
     1
 44
0.7828267384257846
1001
ACAD
1000
MTEXTBEGIN
1070
    73
1070
     1
1070
    44
1040
0.7828267384257846
1070
    74
1070
     0
1000
MTEXTEND
  0
LINE
  5
154
330
A
100
AcDbEntity
  8
49
  6
Continuous
 62
     7
370
    15
100
AcDbLine
 10
2529.370359294406
 20
1840.765918399598
 30
0.0
 11
2529.370359294406
 21
1853.765918399598
 31
0.0
  0
LINE
  5
155
330
A
100
AcDbEntity
  8
49
  6
Continuous
 62
     7
370
    15
100
AcDbLine
 10
2386.364938376038
 20
1853.765918399598
 30
0.0
 11
2534.370359294407
 21
1853.765918399598
 31
0.0
  0
LINE
  5
156
330
A
100
AcDbEntity
  8
49
  6
Continuous
 62
     7
370
    15
100
AcDbLine
 10
2529.370359294406
 20
1853.765918399598
 30
0.0
 11
2529.370359294406
 21
1893.765918399597
 31
0.0
  0
LINE
  5
157
330
A
100
AcDbEntity
  8
49
  6
Continuous
 62
     7
370
    15
100
AcDbLine
 10
2529.370359294406
 20
1853.765918399598
 30
0.0
 11
2524.193978392356
 21
1873.084434925379
 31
0.0
  0
LINE
  5
158
330
A
100
AcDbEntity
  8
49
  6
Continuous
 62
     7
370
    15
100
AcDbLine
 10
2529.370359294406
 20
1853.765918399598
 30
0.0
 11
2534.546740196456
 21
1873.084434925379
 31
0.0
  0
MTEXT
  5
159
330
A
100
AcDbEntity
  8
49
 62
     7
100
AcDbMText
 10
2504.370443996255
 20
1873.765883522365
 30
0.0
 40
20.0
 41
0.0
 71
     2
 72
     1
  1
13
  7
ＭＳ ゴシック
 11
0.0
 21
1.0
 31
0.0
 73
     1
 44
0.7828267384257846
1001
ACAD
1000
MTEXTBEGIN
1070
    73
1070
     1
1070
    44
1040
0.7828267384257846
1070
    74
1070
     0
1000
MTEXTEND
  0
LINE
  5
15A
330
A
100
AcDbEntity
  8
49
  6
Continuous
 62
     7
370
    15
100
AcDbLine
 10
1687.187722177059
 20
1347.578418399597
 30
0.0
 11
1697.187722177059
 21
1347.578418399597
 31
0.0
  0
LINE
  5
15B
330
A
100
AcDbEntity
  8
49
  6
Continuous
 62
     7
370
    15
100
AcDbLine
 10
1687.187722177059
 20
1622.765918399598
 30
0.0
 11
1687.187722177059
 21
1342.578418399597
 31
0.0
  0
LINE
  5
15C
330
A
100
AcDbEntity
  8
49
  6
Continuous
 62
     7
370
    15
100
AcDbLine
 10
1697.187722177059
 20
1622.765918399598
 30
0.0
 11
1697.187722177059
 21
1342.578418399597
 31
0.0
  0
LINE
  5
15D
330
A
100
AcDbEntity
  8
49
  6
Continuous
 62
     7
370
    15
100
AcDbLine
 10
1647.187722177059
 20
1347.578418399597
 30
0.0
 11
1687.187722177059
 21
1347.578418399597
 31
0.0
  0
LINE
  5
15E
330
A
100
AcDbEntity
  8
49
  6
Continuous
 62
     7
370
    15
100
AcDbLine
 10
1687.187722177059
 20
1347.578418399597
 30
0.0
 11
1667.869205651277
 21
1342.402037497547
 31
0.0
  0
LINE
  5
15F
330
A
100
AcDbEntity
  8
49
  6
Continuous
 62
     7
370
    15
100
AcDbLine
 10
1687.187722177059
 20
1347.578418399597
 30
0.0
 11
1667.869205651277
 21
1352.754799301648
 31
0.0
  0
MTEXT
  5
160
330
A
100
AcDbEntity
  8
49
 62
     7
100
AcDbMText
 10
1667.187704734952
 20
1372.578444557522
 30
0.0
 40
20.0
 41
0.0
 71
     2
 72
     1
  1
10
  7
ＭＳ ゴシック
 11
1.0
 21
0.0000000001745329
 31
0.0
 73
     1
 44
0.7828267384257846
1001
ACAD
1000
MTEXTBEGIN
1070
    73
1070
     1
1070
    44
1040
0.7828267384257846
1070
    74
1070
     0
1000
MTEXTEND
  0
LINE
  5
161
330
A
100
AcDbEntity
  8
49
  6
Continuous
 62
     7
370
    15
100
AcDbLine
 10
1697.187722177059
 20
1347.578418399597
 30
0.0
 11
1710.187722177059
 21
1347.578418399597
 31
0.0
  0
CIRCLE
  5
162
330
A
100
AcDbEntity
  8
49
  6
Continuous
 62
     7
370
    15
100
AcDbCircle
 10
1697.187722177059
 20
1347.578418399597
 30
0.0
 40
2.5
  0
LINE
  5
163
330
A
100
AcDbEntity
  8
49
  6
Continuous
 62
     7
370
    15
100
AcDbLine
 10
1710.187722177059
 20
1622.765918399598
 30
0.0
 11
1710.187722177059
 21
1342.578418399597
 31
0.0
  0
MTEXT
  5
164
330
A
100
AcDbEntity
  8
49
 62
     7
100
AcDbMText
 10
1728.310873680264
 20
1373.465407448147
 30
0.0
 40
20.0
 41
0.0
 71
     2
 72
     1
  1
13
  7
ＭＳ ゴシック
 11
1.0
 21
0.0000000001745329
 31
0.0
 73
     1
 44
0.7828267384257846
1001
ACAD
1000
MTEXTBEGIN
1070
    73
1070
     1
1070
    44
1040
0.7828267384257846
1070
    74
1070
     0
1000
MTEXTEND
  0
LINE
  5
165
330
A
100
AcDbEntity
  8
49
  6
Continuous
 62
     7
370
    15
100
AcDbLine
 10
1710.187722177059
 20
1347.578418399597
 30
0.0
 11
2470.187722177059
 21
1347.578418399597
 31
0.0
  0
LINE
  5
166
330
A
100
AcDbEntity
  8
49
  6
Continuous
 62
     7
370
    15
100
AcDbLine
 10
1710.187722177059
 20
1347.578418399597
 30
0.0
 11
1729.50623870284
 21
1352.754799301648
 31
0.0
  0
LINE
  5
167
330
A
100
AcDbEntity
  8
49
  6
Continuous
 62
     7
370
    15
100
AcDbLine
 10
1710.187722177059
 20
1347.578418399597
 30
0.0
 11
1729.50623870284
 21
1342.402037497547
 31
0.0
  0
LINE
  5
168
330
A
100
AcDbEntity
  8
49
  6
Continuous
 62
     7
370
    15
100
AcDbLine
 10
2470.187722177059
 20
1347.578418399597
 30
0.0
 11
2450.869205651278
 21
1342.402037497547
 31
0.0
  0
LINE
  5
169
330
A
100
AcDbEntity
  8
49
  6
Continuous
 62
     7
370
    15
100
AcDbLine
 10
2470.187722177059
 20
1347.578418399597
 30
0.0
 11
2450.869205651278
 21
1352.754799301648
 31
0.0
  0
LINE
  5
16A
330
A
100
AcDbEntity
  8
49
  6
Continuous
 62
     7
370
    15
100
AcDbLine
 10
2470.187722177059
 20
1622.765918399598
 30
0.0
 11
2470.187722177059
 21
1342.578418399597
 31
0.0
  0
MTEXT
  5
16B
330
A
100
AcDbEntity
  8
49
 62
     7
100
AcDbMText
 10
2077.445761375577
 20
1370.621230202053
 30
0.0
 40
20.0
 41
0.0
 71
     2
 72
     1
  1
760
  7
ＭＳ ゴシック
 11
1.0
 21
0.0000000001745329
 31
0.0
 73
     1
 44
0.7828267384257846
1001
ACAD
1000
MTEXTBEGIN
1070
    73
1070
     1
1070
    44
1040
0.7828267384257846
1070
    74
1070
     0
1000
MTEXTEND
  0
LINE
  5
16C
330
A
100
AcDbEntity
  8
49
  6
Continuous
 62
     7
370
    15
100
AcDbLine
 10
2470.187722177059
 20
1347.578418399597
 30
0.0
 11
2483.187722177059
 21
1347.578418399597
 31
0.0
  0
LINE
  5
16D
330
A
100
AcDbEntity
  8
49
  6
Continuous
 62
     7
370
    15
100
AcDbLine
 10
2483.187722177059
 20
1622.765918399598
 30
0.0
 11
2483.187722177059
 21
1342.578418399597
 31
0.0
  0
MTEXT
  5
16E
330
A
100
AcDbEntity
  8
49
 62
     7
100
AcDbMText
 10
2450.236899070889
 20
1373.060866432522
 30
0.0
 40
20.0
 41
0.0
 71
     2
 72
     1
  1
13
  7
ＭＳ ゴシック
 11
1.0
 21
0.0000000001745329
 31
0.0
 73
     1
 44
0.7828267384257846
1001
ACAD
1000
MTEXTBEGIN
1070
    73
1070
     1
1070
    44
1040
0.7828267384257846
1070
    74
1070
     0
1000
MTEXTEND
  0
LINE
  5
16F
330
A
100
AcDbEntity
  8
49
  6
Continuous
 62
     7
370
    15
100
AcDbLine
 10
2483.187722177059
 20
1347.578418399597
 30
0.0
 11
2493.187722177058
 21
1347.578418399597
 31
0.0
  0
CIRCLE
  5
170
330
A
100
AcDbEntity
  8
49
  6
Continuous
 62
     7
370
    15
100
AcDbCircle
 10
2483.187722177059
 20
1347.578418399597
 30
0.0
 40
2.5
  0
LINE
  5
171
330
A
100
AcDbEntity
  8
49
  6
Continuous
 62
     7
370
    15
100
AcDbLine
 10
2493.187722177058
 20
1622.765918399598
 30
0.0
 11
2493.187722177058
 21
1342.578418399597
 31
0.0
  0
LINE
  5
172
330
A
100
AcDbEntity
  8
49
  6
Continuous
 62
     7
370
    15
100
AcDbLine
 10
2493.187722177058
 20
1347.578418399597
 30
0.0
 11
2533.187722177058
 21
1347.578418399597
 31
0.0
  0
LINE
  5
173
330
A
100
AcDbEntity
  8
49
  6
Continuous
 62
     7
370
    15
100
AcDbLine
 10
2493.187722177058
 20
1347.578418399597
 30
0.0
 11
2512.506238702841
 21
1352.754799301648
 31
0.0
  0
LINE
  5
174
330
A
100
AcDbEntity
  8
49
  6
Continuous
 62
     7
370
    15
100
AcDbLine
 10
2493.187722177058
 20
1347.578418399597
 30
0.0
 11
2512.506238702841
 21
1342.402037497547
 31
0.0
  0
MTEXT
  5
175
330
A
100
AcDbEntity
  8
49
 62
     7
100
AcDbMText
 10
2509.672812156827
 20
1372.793593483303
 30
0.0
 40
20.0
 41
0.0
 71
     2
 72
     1
  1
10
  7
ＭＳ ゴシック
 11
1.0
 21
0.0000000001745329
 31
0.0
 73
     1
 44
0.7828267384257846
1001
ACAD
1000
MTEXTBEGIN
1070
    73
1070
     1
1070
    44
1040
0.7828267384257846
1070
    74
1070
     0
1000
MTEXTEND
  0
LINE
  5
176
330
A
100
AcDbEntity
  8
49
  6
Continuous
 62
     7
370
    15
100
AcDbLine
 10
1687.187722177059
 20
1310.453418399597
 30
0.0
 11
2493.187722177058
 21
1310.453418399597
 31
0.0
  0
LINE
  5
177
330
A
100
AcDbEntity
  8
49
  6
Continuous
 62
     7
370
    15
100
AcDbLine
 10
1687.187722177059
 20
1310.453418399597
 30
0.0
 11
1706.506238702839
 21
1315.629799301648
 31
0.0
  0
LINE
  5
178
330
A
100
AcDbEntity
  8
49
  6
Continuous
 62
     7
370
    15
100
AcDbLine
 10
1687.187722177059
 20
1310.453418399597
 30
0.0
 11
1706.506238702839
 21
1305.277037497547
 31
0.0
  0
LINE
  5
179
330
A
100
AcDbEntity
  8
49
  6
Continuous
 62
     7
370
    15
100
AcDbLine
 10
2493.187722177058
 20
1310.453418399597
 30
0.0
 11
2473.869205651278
 21
1305.277037497547
 31
0.0
  0
LINE
  5
17A
330
A
100
AcDbEntity
  8
49
  6
Continuous
 62
     7
370
    15
100
AcDbLine
 10
2493.187722177058
 20
1310.453418399597
 30
0.0
 11
2473.869205651278
 21
1315.629799301648
 31
0.0
  0
LINE
  5
17B
330
A
100
AcDbEntity
  8
49
  6
Continuous
 62
     7
370
    15
100
AcDbLine
 10
1687.187722177059
 20
1622.765918399598
 30
0.0
 11
1687.187722177059
 21
1305.453418399597
 31
0.0
  0
LINE
  5
17C
330
A
100
AcDbEntity
  8
49
  6
Continuous
 62
     7
370
    15
100
AcDbLine
 10
2493.187722177058
 20
1622.765918399598
 30
0.0
 11
2493.187722177058
 21
1305.453418399597
 31
0.0
  0
MTEXT
  5
17D
330
A
100
AcDbEntity
  8
49
 62
     7
100
AcDbMText
 10
2082.470053367764
 20
1335.953932838772
 30
0.0
 40
20.0
 41
0.0
 71
     2
 72
     1
  1
806
  7
ＭＳ ゴシック
 11
1.0
 21
0.0000000001745329
 31
0.0
 73
     1
 44
0.7828267384257846
1001
ACAD
1000
MTEXTBEGIN
1070
    73
1070
     1
1070
    44
1040
0.7828267384257846
1070
    74
1070
     0
1000
MTEXTEND
  0
LINE
  5
17E
330
A
100
AcDbEntity
  8
49
  6
Continuous
 62
     7
370
    15
100
AcDbLine
 10
2020.187722177058
 20
1946.265918399598
 30
0.0
 11
2020.187722177058
 21
1916.265918399598
 31
0.0
  0
LINE
  5
17F
330
A
100
AcDbEntity
  8
49
  6
Continuous
 62
     7
370
    15
100
AcDbLine
 10
2005.187722177058
 20
1931.265918399597
 30
0.0
 11
2035.187722177058
 21
1931.265918399597
 31
0.0
  0
LINE
  5
180
330
A
100
AcDbEntity
  8
49
  6
Continuous
 62
     7
370
    15
100
AcDbLine
 10
2146.260632177058
 20
1931.265918399597
 30
0.0
 11
2175.314020748487
 21
1931.265918399597
 31
0.0
  0
LINE
  5
181
330
A
100
AcDbEntity
  8
49
  6
Continuous
 62
     7
370
    15
100
AcDbLine
 10
2160.187722177058
 20
1947.765918399598
 30
0.0
 11
2160.187722177058
 21
1916.884484928169
 31
0.0
  0
LINE
  5
182
330
A
100
AcDbEntity
  8
49
  6
Continuous
 62
     7
370
    15
100
AcDbLine
 10
2020.187722177058
 20
1992.966206971026
 30
0.0
 11
2160.187722177058
 21
1992.966206971026
 31
0.0
  0
LINE
  5
183
330
A
100
AcDbEntity
  8
49
  6
Continuous
 62
     7
370
    15
100
AcDbLine
 10
2020.187722177058
 20
1992.966206971026
 30
0.0
 11
2039.506238702839
 21
1998.142587873076
 31
0.0
  0
LINE
  5
184
330
A
100
AcDbEntity
  8
49
  6
Continuous
 62
     7
370
    15
100
AcDbLine
 10
2020.187722177058
 20
1992.966206971026
 30
0.0
 11
2039.506238702839
 21
1987.789826068976
 31
0.0
  0
LINE
  5
185
330
A
100
AcDbEntity
  8
49
  6
Continuous
 62
     7
370
    15
100
AcDbLine
 10
2160.187722177058
 20
1992.966206971026
 30
0.0
 11
2140.869205651277
 21
1987.789826068976
 31
0.0
  0
LINE
  5
186
330
A
100
AcDbEntity
  8
49
  6
Continuous
 62
     7
370
    15
100
AcDbLine
 10
2160.187722177058
 20
1992.966206971026
 30
0.0
 11
2140.869205651277
 21
1998.142587873076
 31
0.0
  0
LINE
  5
187
330
A
100
AcDbEntity
  8
49
  6
Continuous
 62
     7
370
    15
100
AcDbLine
 10
2020.187722177058
 20
1951.265918399598
 30
0.0
 11
2020.187722177058
 21
1997.966206971026
 31
0.0
  0
LINE
  5
188
330
A
100
AcDbEntity
  8
49
  6
Continuous
 62
     7
370
    15
100
AcDbLine
 10
2160.187722177058
 20
1952.765918399597
 30
0.0
 11
2160.187722177058
 21
1997.966206971026
 31
0.0
  0
MTEXT
  5
189
330
A
100
AcDbEntity
  8
49
 62
     7
100
AcDbMText
 10
2090.187704734952
 20
2017.566420631741
 30
0.0
 40
20.0
 41
0.0
 71
     2
 72
     1
  1
140
  7
ＭＳ ゴシック
 11
1.0
 21
0.0000000001745329
 31
0.0
 73
     1
 44
0.7828267384257846
1001
ACAD
1000
MTEXTBEGIN
1070
    73
1070
     1
1070
    44
1040
0.7828267384257846
1070
    74
1070
     0
1000
MTEXTEND
  0
LINE
  5
18A
330
A
100
AcDbEntity
  8
49
  6
Continuous
 62
     7
370
    15
100
AcDbLine
 10
2090.187722177058
 20
1982.765918399597
 30
0.0
 11
2090.187722177058
 21
2038.422698399597
 31
0.0
  0
LINE
  5
18B
330
A
100
AcDbEntity
  8
49
  6
Continuous
 62
     7
370
    15
100
AcDbLine
 10
1926.187722177058
 20
2033.422698399597
 30
0.0
 11
2090.187722177058
 21
2033.422698399597
 31
0.0
  0
LINE
  5
18C
330
A
100
AcDbEntity
  8
49
  6
Continuous
 62
     7
370
    15
100
AcDbLine
 10
1926.187722177058
 20
2033.422698399597
 30
0.0
 11
1945.50623870284
 21
2038.599079301648
 31
0.0
  0
LINE
  5
18D
330
A
100
AcDbEntity
  8
49
  6
Continuous
 62
     7
370
    15
100
AcDbLine
 10
1926.187722177058
 20
2033.422698399597
 30
0.0
 11
1945.50623870284
 21
2028.246317497548
 31
0.0
  0
LINE
  5
18E
330
A
100
AcDbEntity
  8
49
  6
Continuous
 62
     7
370
    15
100
AcDbLine
 10
2090.187722177058
 20
2033.422698399597
 30
0.0
 11
2070.869205651277
 21
2028.246317497548
 31
0.0
  0
LINE
  5
18F
330
A
100
AcDbEntity
  8
49
  6
Continuous
 62
     7
370
    15
100
AcDbLine
 10
2090.187722177058
 20
2033.422698399597
 30
0.0
 11
2070.869205651277
 21
2038.599079301648
 31
0.0
  0
LINE
  5
190
330
A
100
AcDbEntity
  8
49
  6
Continuous
 62
     7
370
    15
100
AcDbLine
 10
1926.187722177058
 20
1945.765918399598
 30
0.0
 11
1926.187722177058
 21
2038.422698399597
 31
0.0
  0
MTEXT
  5
191
330
A
100
AcDbEntity
  8
49
 62
     7
100
AcDbMText
 10
2008.187704738443
 20
2058.422743873928
 30
0.0
 40
20.0
 41
0.0
 71
     2
 72
     1
  1
164
  7
ＭＳ ゴシック
 73
     1
 44
0.7828267384257846
1001
ACAD
1000
MTEXTBEGIN
1070
    73
1070
     1
1070
    44
1040
0.7828267384257846
1070
    74
1070
     0
1000
MTEXTEND
  0
LINE
  5
192
330
A
100
AcDbEntity
  8
49
  6
Continuous
 62
     7
370
    15
100
AcDbLine
 10
1875.893436462773
 20
1900.765918399597
 30
0.0
 11
1875.893436462773
 21
1957.765918399597
 31
0.0
  0
LINE
  5
193
330
A
100
AcDbEntity
  8
49
  6
Continuous
 62
     7
370
    15
100
AcDbLine
 10
1870.599150748487
 20
1900.765918399597
 30
0.0
 11
1880.893436462773
 21
1900.765918399597
 31
0.0
  0
LINE
  5
194
330
A
100
AcDbEntity
  8
49
  6
Continuous
 62
     7
370
    15
100
AcDbLine
 10
1875.893436462773
 20
1870.765918399598
 30
0.0
 11
1875.893436462773
 21
1900.765918399597
 31
0.0
  0
LINE
  5
195
330
A
100
AcDbEntity
  8
49
  6
Continuous
 62
     7
370
    15
100
AcDbLine
 10
1875.893436462773
 20
1900.765918399597
 30
0.0
 11
1881.069817364823
 21
1881.447401873816
 31
0.0
  0
LINE
  5
196
330
A
100
AcDbEntity
  8
49
  6
Continuous
 62
     7
370
    15
100
AcDbLine
 10
1875.893436462773
 20
1900.765918399597
 30
0.0
 11
1870.717055560722
 21
1881.447401873816
 31
0.0
  0
LINE
  5
197
330
A
100
AcDbEntity
  8
49
  6
Continuous
 62
     7
370
    15
100
AcDbLine
 10
1825.827722177059
 20
1797.765918399598
 30
0.0
 11
1825.827722177059
 21
1957.765918399597
 31
0.0
  0
LINE
  5
198
330
A
100
AcDbEntity
  8
49
  6
Continuous
 62
     7
370
    15
100
AcDbLine
 10
1825.827722177059
 20
1797.765918399598
 30
0.0
 11
1820.651341275008
 21
1817.084434925379
 31
0.0
  0
LINE
  5
199
330
A
100
AcDbEntity
  8
49
  6
Continuous
 62
     7
370
    15
100
AcDbLine
 10
1825.827722177059
 20
1797.765918399598
 30
0.0
 11
1831.004103079109
 21
1817.084434925379
 31
0.0
  0
LINE
  5
19A
330
A
100
AcDbEntity
  8
49
  6
Continuous
 62
     7
370
    15
100
AcDbLine
 10
1825.827722177059
 20
1957.765918399597
 30
0.0
 11
1831.004103079109
 21
1938.447401873816
 31
0.0
  0
LINE
  5
19B
330
A
100
AcDbEntity
  8
49
  6
Continuous
 62
     7
370
    15
100
AcDbLine
 10
1825.827722177059
 20
1957.765918399597
 30
0.0
 11
1820.651341275008
 21
1938.447401873816
 31
0.0
  0
LINE
  5
19C
330
A
100
AcDbEntity
  8
49
  6
Continuous
 62
     7
370
    15
100
AcDbLine
 10
1985.187722177058
 20
1797.765918399598
 30
0.0
 11
1820.827722177059
 21
1797.765918399598
 31
0.0
  0
MTEXT
  5
19D
330
A
100
AcDbEntity
  8
49
 62
     7
100
AcDbMText
 10
1800.827658351724
 20
1877.765883522366
 30
0.0
 40
20.0
 41
0.0
 71
     2
 72
     1
  1
160
  7
ＭＳ ゴシック
 11
0.0
 21
1.0
 31
0.0
 73
     1
 44
0.7828267384257846
1001
ACAD
1000
MTEXTBEGIN
1070
    73
1070
     1
1070
    44
1040
0.7828267384257846
1070
    74
1070
     0
1000
MTEXTEND
  0
LINE
  5
19E
330
A
100
AcDbEntity
  8
49
  6
Continuous
 62
     7
370
    15
100
AcDbLine
 10
1887.03677670512
 20
2033.422698399597
 30
0.0
 11
1764.842490990834
 21
2033.422698399597
 31
0.0
  0
MTEXT
  5
19F
330
A
100
AcDbEntity
  8
49
 62
     7
100
AcDbMText
 10
1840.579245265787
 20
2057.271376686428
 30
0.0
 40
20.0
 41
0.0
 71
     2
 72
     1
  1
\U+7d66\U+6c34\U+6813\U+7a74
  7
ＭＳ ゴシック
 73
     1
 44
0.7828267384257846
1001
ACAD
1000
MTEXTBEGIN
1070
    73
1070
     1
1070
    44
1040
0.7828267384257846
1070
    74
1070
     0
1000
MTEXTEND
  0
MTEXT
  5
1A0
330
A
100
AcDbEntity
  8
49
 62
     7
100
AcDbMText
 10
2473.778236635528
 20
1976.899264767008
 30
0.0
 40
20.0
 41
0.0
 71
     2
 72
     1
  1
R50
  7
ＭＳ ゴシック
 11
0.7169412790289981
 21
0.6971335613957087
 31
0.0
 73
     1
 44
0.7828267384257846
1001
ACAD
1000
MTEXTBEGIN
1070
    73
1070
     1
1070
    44
1040
0.7828267384257846
1070
    74
1070
     0
1000
MTEXTEND
  0
MTEXT
  5
1A1
330
A
100
AcDbEntity
  8
49
 62
     7
100
AcDbMText
 10
2501.023477275782
 20
1948.610946866246
 30
0.0
 40
20.0
 41
0.0
 71
     2
 72
     1
  1
R60
  7
ＭＳ ゴシック
 11
0.9696762628971852
 21
0.2443930137580637
 31
0.0
 73
     1
 44
0.7828267384257846
1001
ACAD
1000
MTEXTBEGIN
1070
    73
1070
     1
1070
    44
1040
0.7828267384257846
1070
    74
1070
     0
1000
MTEXTEND
  0
LINE
  5
1A2
330
A
100
AcDbEntity
  8
49
  6
Continuous
 62
     7
370
    15
100
AcDbLine
 10
2434.90566860563
 20
1910.375739828169
 30
0.0
 11
2531.961025748488
 21
1931.943596971026
 31
0.0
  0
LINE
  5
1A3
330
A
100
AcDbEntity
  8
49
  6
Continuous
 62
     7
370
    15
100
AcDbLine
 10
2434.90566860563
 20
1910.375739828169
 30
0.0
 11
2500.687632891344
 21
1968.608954113883
 31
0.0
  0
LINE
  5
1A4
330
A
100
AcDbEntity
  8
49
  6
Continuous
 62
     7
370
    15
100
AcDbLine
 10
2444.192787891344
 20
1924.990119828169
 30
0.0
 11
2459.177379304434
 21
1931.862172250061
 31
0.0
  0
LINE
  5
1A5
330
A
100
AcDbEntity
  8
49
  6
Continuous
 62
     7
370
    15
100
AcDbLine
 10
2459.177379304434
 20
1931.862172250061
 30
0.0
 11
2450.956467891345
 21
1918.226439828169
 31
0.0
  0
LINE
  5
1A6
330
A
100
AcDbEntity
  8
49
  6
Continuous
 62
     7
370
    15
100
AcDbLine
 10
2461.101987891344
 20
1919.494629828169
 30
0.0
 11
2478.324838567243
 21
1920.024444264083
 31
0.0
  0
LINE
  5
1A7
330
A
100
AcDbEntity
  8
49
  6
Continuous
 62
     7
370
    15
100
AcDbLine
 10
2478.324838567243
 20
1920.024444264083
 30
0.0
 11
2462.792907891344
 21
1911.885489828169
 31
0.0
  0
MTEXT
  5
1A8
330
A
100
AcDbEntity
  8
49
 62
     7
100
AcDbMText
 10
2432.961640290783
 20
1503.447161544189
 30
0.0
 40
20.0
 41
0.0
 71
     2
 72
     1
  1
R70
  7
ＭＳ ゴシック
 11
0.9358888522630619
 21
-0.352295410429555
 31
0.0
 73
     1
 44
0.7828267384257846
1001
ACAD
1000
MTEXTBEGIN
1070
    73
1070
     1
1070
    44
1040
0.7828267384257846
1070
    74
1070
     0
1000
MTEXTEND
  0
MTEXT
  5
1A9
330
A
100
AcDbEntity
  8
49
 62
     7
100
AcDbMText
 10
2404.723275858694
 20
1458.345192309277
 30
0.0
 40
20.0
 41
0.0
 71
     2
 72
     1
  1
R83
  7
ＭＳ ゴシック
 11
0.5907055516502716
 21
-0.8068871985907003
 31
0.0
 73
     1
 44
0.7828267384257846
1001
ACAD
1000
MTEXTBEGIN
1070
    73
1070
     1
1070
    44
1040
0.7828267384257846
1070
    74
1070
     0
1000
MTEXTEND
  0
LINE
  5
1AA
330
A
100
AcDbEntity
  8
49
  6
Continuous
 62
     7
370
    15
100
AcDbLine
 10
2392.521125391902
 20
1489.922713098316
 30
0.0
 11
2463.366864680534
 21
1464.722752934162
 31
0.0
  0
LINE
  5
1AB
330
A
100
AcDbEntity
  8
49
  6
Continuous
 62
     7
370
    15
100
AcDbLine
 10
2392.521125391902
 20
1489.922713098316
 30
0.0
 11
2442.030832016023
 21
1417.996783890986
 31
0.0
  0
LINE
  5
1AC
330
A
100
AcDbEntity
  8
49
  6
Continuous
 62
     7
370
    15
100
AcDbLine
 10
2427.250316819915
 20
1430.950914828169
 30
0.0
 11
2442.030832016023
 21
1417.996783890986
 31
0.0
  0
LINE
  5
1AD
330
A
100
AcDbEntity
  8
49
  6
Continuous
 62
     7
370
    15
100
AcDbLine
 10
2442.030832016023
 20
1417.996783890986
 30
0.0
 11
2436.452366819916
 21
1435.970214828169
 31
0.0
  0
LINE
  5
1AE
330
A
100
AcDbEntity
  8
49
  6
Continuous
 62
     7
370
    15
100
AcDbLine
 10
2445.654416819917
 20
1466.086014828169
 30
0.0
 11
2463.366864680534
 21
1464.722752934162
 31
0.0
  0
LINE
  5
1AF
330
A
100
AcDbEntity
  8
49
  6
Continuous
 62
     7
370
    15
100
AcDbLine
 10
2463.366864680534
 20
1464.722752934162
 30
0.0
 11
2449.837166819917
 21
1474.451514828169
 31
0.0
  0
LINE
  5
1B0
330
A
100
AcDbEntity
  8
49
  6
Continuous
 62
     7
370
    15
100
AcDbLine
 10
1710.187722177059
 20
1430.13506247492
 30
0.0
 11
1770.953666054609
 21
1478.33339640338
 31
0.0
  0
LINE
  5
1B1
330
A
100
AcDbEntity
  8
49
  6
Continuous
 62
     7
370
    15
100
AcDbLine
 10
1710.187722177059
 20
1430.13506247492
 30
0.0
 11
1722.106404215071
 21
1446.195729287875
 31
0.0
  0
LINE
  5
1B2
330
A
100
AcDbEntity
  8
49
  6
Continuous
 62
     7
370
    15
100
AcDbLine
 10
1710.187722177059
 20
1430.13506247492
 30
0.0
 11
1728.539937008084
 21
1438.084666917651
 31
0.0
  0
MTEXT
  5
1B3
330
A
100
AcDbEntity
  8
49
 62
     7
100
AcDbMText
 10
1736.62046281671
 20
1479.958323957323
 30
0.0
 40
20.0
 41
0.0
 71
     2
 72
     1
  1
R93
  7
ＭＳ ゴシック
 11
0.7834684572947383
 21
0.6214315540944173
 31
0.0
 73
     1
 44
0.7828267384257846
1001
ACAD
1000
MTEXTBEGIN
1070
    73
1070
     1
1070
    44
1040
0.7828267384257846
1070
    74
1070
     0
1000
MTEXTEND
  0
LINE
  5
1B4
330
A
100
AcDbEntity
  8
49
  6
Continuous
 62
     7
370
    15
100
AcDbLine
 10
2062.705797739361
 20
1414.791115463908
 30
0.0
 11
2062.921797432157
 21
1532.584247481231
 31
0.0
  0
LINE
  5
1B5
330
A
100
AcDbEntity
  8
49
  6
Continuous
 62
     7
370
    15
100
AcDbLine
 10
2062.705797739361
 20
1414.791115463908
 30
0.0
 11
2057.564850242329
 21
1434.119091530552
 31
0.0
  0
LINE
  5
1B6
330
A
100
AcDbEntity
  8
49
  6
Continuous
 62
     7
370
    15
100
AcDbLine
 10
2062.705797739361
 20
1414.791115463908
 30
0.0
 11
2067.917594640731
 21
1434.100107489876
 31
0.0
  0
LINE
  5
1B7
330
A
100
AcDbEntity
  8
49
  6
Continuous
 62
     7
370
    15
100
AcDbLine
 10
2062.921797432157
 20
1532.584247481231
 30
0.0
 11
2073.979322942364
 21
1468.450599522046
 31
0.0
  0
LINE
  5
1B8
330
A
100
AcDbEntity
  8
49
  6
Continuous
 62
     7
370
    15
100
AcDbLine
 10
2073.979322942364
 20
1468.450599522046
 30
0.0
 11
2073.979322942364
 21
1581.237359726128
 31
0.0
  0
MTEXT
  5
1B9
330
A
100
AcDbEntity
  8
49
 62
     7
100
AcDbMText
 10
2037.813836996519
 20
1473.733527131465
 30
0.0
 40
20.0
 41
0.0
 71
     2
 72
     1
  1
R15000
  7
ＭＳ ゴシック
 11
0.0018337185409215
 21
0.9999983187367432
 31
0.0
 73
     1
 44
0.7828267384257846
1001
ACAD
1000
MTEXTBEGIN
1070
    73
1070
     1
1070
    44
1040
0.7828267384257846
1070
    74
1070
     0
1000
MTEXTEND
  0
LINE
  5
1BA
330
A
100
AcDbEntity
  8
49
  6
Continuous
 62
     7
370
    15
100
AcDbLine
 10
1710.345736658109
 20
1660.961822096739
 30
0.0
 11
1847.271829319916
 21
1659.658239828169
 31
0.0
  0
LINE
  5
1BB
330
A
100
AcDbEntity
  8
49
  6
Continuous
 62
     7
370
    15
100
AcDbLine
 10
1710.345736658109
 20
1660.961822096739
 30
0.0
 11
1729.712656406305
 21
1665.954058015335
 31
0.0
  0
LINE
  5
1BC
330
A
100
AcDbEntity
  8
49
  6
Continuous
 62
     7
370
    15
100
AcDbLine
 10
1710.345736658109
 20
1660.961822096739
 30
0.0
 11
1729.6140991124
 21
1655.601765349831
 31
0.0
  0
LINE
  5
1BD
330
A
100
AcDbEntity
  8
49
  6
Continuous
 62
     7
370
    15
100
AcDbLine
 10
1847.271829319916
 20
1659.658239828169
 30
0.0
 11
1770.263972177058
 21
1651.10181125674
 31
0.0
  0
LINE
  5
1BE
330
A
100
AcDbEntity
  8
49
  6
Continuous
 62
     7
370
    15
100
AcDbLine
 10
1770.263972177058
 20
1651.10181125674
 30
0.0
 11
1911.44504360563
 21
1646.823596971026
 31
0.0
  0
MTEXT
  5
1BF
330
A
100
AcDbEntity
  8
49
 62
     7
100
AcDbMText
 10
1779.046808399378
 20
1685.308922486633
 30
0.0
 40
20.0
 41
0.0
 71
     2
 72
     1
  1
R3500
  7
ＭＳ ゴシック
 11
0.9999546825883651
 21
-0.0095201244530719
 31
0.0
 73
     1
 44
0.7828267384257846
1001
ACAD
1000
MTEXTBEGIN
1070
    73
1070
     1
1070
    44
1040
0.7828267384257846
1070
    74
1070
     0
1000
MTEXTEND
  0
LINE
  5
1C0
330
A
100
AcDbEntity
  8
49
  6
Continuous
 62
     7
370
    15
100
AcDbLine
 10
2167.003111873284
 20
1938.583736605087
 30
0.0
 11
2221.219103479076
 21
2061.717723171181
 31
0.0
  0
LINE
  5
1C1
330
A
100
AcDbEntity
  8
49
  6
Continuous
 62
     7
370
    15
100
AcDbLine
 10
2167.003111873284
 20
1938.583736605087
 30
0.0
 11
2170.050385947525
 21
1958.350226448163
 31
0.0
  0
LINE
  5
1C2
330
A
100
AcDbEntity
  8
49
  6
Continuous
 62
     7
370
    15
100
AcDbLine
 10
2167.003111873284
 20
1938.583736605087
 30
0.0
 11
2179.525373555409
 21
1954.178381915718
 31
0.0
  0
CIRCLE
  5
1C3
330
A
100
AcDbEntity
  8
49
  6
Continuous
 62
     7
370
    15
100
AcDbCircle
 10
2231.293334421957
 20
2084.598061256741
 30
0.0
 40
25.0
  0
MTEXT
  5
1C4
330
A
100
AcDbEntity
  8
49
 62
     7
100
AcDbMText
 10
2231.293295558755
 20
2084.598036842678
 30
0.0
 40
20.0
 41
0.0
 71
     5
 72
     1
  1
5
  7
ＭＳ ゴシック
 73
     1
 44
0.7828267384257846
1001
ACAD
1000
MTEXTBEGIN
1070
    73
1070
     1
1070
    44
1040
0.7828267384257846
1070
    74
1070
     0
1000
MTEXTEND
  0
LINE
  5
1C5
330
A
100
AcDbEntity
  8
49
  6
Continuous
 62
     7
370
    15
100
AcDbLine
 10
2350.35535610563
 20
1957.765918399597
 30
0.0
 11
2407.930613705309
 21
2063.632154037106
 31
0.0
  0
LINE
  5
1C6
330
A
100
AcDbEntity
  8
49
  6
Continuous
 62
     7
370
    15
100
AcDbLine
 10
2350.35535610563
 20
1957.765918399597
 30
0.0
 11
2355.037675853678
 21
1977.210091865627
 31
0.0
  0
LINE
  5
1C7
330
A
100
AcDbEntity
  8
49
  6
Continuous
 62
     7
370
    15
100
AcDbLine
 10
2350.35535610563
 20
1957.765918399597
 30
0.0
 11
2364.132450689095
 21
1972.263906702747
 31
0.0
  0
CIRCLE
  5
1C8
330
A
100
AcDbEntity
  8
49
  6
Continuous
 62
     7
370
    15
100
AcDbCircle
 10
2419.874733681394
 20
2085.594348781642
 30
0.0
 40
25.0
  0
MTEXT
  5
1C9
330
A
100
AcDbEntity
  8
49
 62
     7
100
AcDbMText
 10
2419.874716457192
 20
2085.594252662991
 30
0.0
 40
20.0
 41
0.0
 71
     5
 72
     1
  1
1
  7
ＭＳ ゴシック
 73
     1
 44
0.7828267384257846
1001
ACAD
1000
MTEXTBEGIN
1070
    73
1070
     1
1070
    44
1040
0.7828267384257846
1070
    74
1070
     0
1000
MTEXTEND
  0
LINE
  5
1CA
330
A
100
AcDbEntity
  8
49
  6
Continuous
 62
     7
370
    15
100
AcDbLine
 10
2222.573280874616
 20
1859.242923568784
 30
0.0
 11
2198.420785874477
 21
1813.916830454471
 31
0.0
  0
LINE
  5
1CB
330
A
100
AcDbEntity
  8
49
  6
Continuous
 62
     7
370
    15
100
AcDbLine
 10
2222.573280874616
 20
1859.242923568784
 30
0.0
 11
2218.056779090204
 21
1839.759566270018
 31
0.0
  0
LINE
  5
1CC
330
A
100
AcDbEntity
  8
49
  6
Continuous
 62
     7
370
    15
100
AcDbLine
 10
2222.573280874616
 20
1859.242923568784
 30
0.0
 11
2208.920196943694
 21
1844.628092089249
 31
0.0
  0
MTEXT
  5
1CD
330
A
100
AcDbEntity
  8
49
 62
     7
100
AcDbMText
 10
2185.959234219946
 20
1835.72861020197
 30
0.0
 40
15.508436203003
 41
0.0
 71
     2
 72
     1
  1
R70
  7
ＭＳ ゴシック
 11
0.4702633360168818
 21
0.8825261439743716
 31
0.0
 73
     1
 44
0.7828267384257846
1001
ACAD
1000
MTEXTBEGIN
1070
    73
1070
     1
1070
    44
1040
0.7828267384257846
1070
    74
1070
     0
1000
MTEXTEND
  0
LINE
  5
1CE
330
A
100
AcDbEntity
  8
49
  6
Continuous
 62
     7
370
    15
100
AcDbLine
 10
2248.839097816279
 20
1842.503736652193
 30
0.0
 11
2232.83945257585
 21
1797.765918399598
 31
0.0
  0
LINE
  5
1CF
330
A
100
AcDbEntity
  8
49
  6
Continuous
 62
     7
370
    15
100
AcDbLine
 10
2248.839097816279
 20
1842.503736652193
 30
0.0
 11
2247.207758237905
 21
1822.570379404103
 31
0.0
  0
LINE
  5
1D0
330
A
100
AcDbEntity
  8
49
  6
Continuous
 62
     7
370
    15
100
AcDbLine
 10
2248.839097816279
 20
1842.503736652193
 30
0.0
 11
2237.459637675163
 21
1826.056612681822
 31
0.0
  0
MTEXT
  5
1D1
330
A
100
AcDbEntity
  8
49
 62
     7
100
AcDbMText
 10
2214.563469568982
 20
1818.143529269694
 30
0.0
 40
17.013521194458
 41
0.0
 71
     2
 72
     1
  1
R90
  7
ＭＳ ゴシック
 11
0.3367444153297865
 21
0.9415960910837513
 31
0.0
 73
     1
 44
0.7828267384257846
1001
ACAD
1000
MTEXTBEGIN
1070
    73
1070
     1
1070
    44
1040
0.7828267384257846
1070
    74
1070
     0
1000
MTEXTEND
  0
LINE
  5
1D2
330
A
100
AcDbEntity
  8
49
  6
Continuous
 62
     7
370
    15
100
AcDbLine
 10
2695.040480467875
 20
1391.765918399596
 30
0.0
 11
2695.040480467875
 21
1398.765918399597
 31
0.0
  0
LINE
  5
1D3
330
A
100
AcDbEntity
  8
49
  6
Continuous
 62
     7
370
    15
100
AcDbLine
 10
2697.540480467875
 20
1947.765918399598
 30
0.0
 11
2697.593106154352
 21
1947.765918399598
 31
0.0
  0
LINE
  5
1D4
330
A
100
AcDbEntity
  8
49
  6
Continuous
 62
     7
370
    15
100
AcDbLine
 10
2698.040480467875
 20
1929.765918399598
 30
0.0
 11
2709.040480467875
 21
1929.765918399598
 31
0.0
  0
LINE
  5
1D5
330
A
100
AcDbEntity
  8
49
  6
Continuous
 62
     7
370
    15
100
AcDbLine
 10
2698.040480467875
 20
1401.765918399597
 30
0.0
 11
2700.040480467875
 21
1401.765918399597
 31
0.0
  0
LINE
  5
1D6
330
A
100
AcDbEntity
  8
49
  6
Continuous
 62
     7
370
    15
100
AcDbLine
 10
2715.040480467875
 20
1414.765918399598
 30
0.0
 11
2819.237811462773
 21
1414.765918399598
 31
0.0
  0
LINE
  5
1D7
330
A
100
AcDbEntity
  8
49
  6
Continuous
 62
     7
370
    15
100
AcDbLine
 10
2684.164686462774
 20
1797.765918399598
 30
0.0
 11
2916.10754360563
 21
1797.765918399598
 31
0.0
  0
LINE
  5
1D8
330
A
100
AcDbEntity
  8
49
  6
Continuous
 62
     7
370
    15
100
AcDbLine
 10
2712.040480467875
 20
1843.765918399597
 30
0.0
 11
2712.040480467875
 21
1847.765918399598
 31
0.0
  0
LINE
  5
1D9
330
A
100
AcDbEntity
  8
49
  6
Continuous
 62
     7
370
    15
100
AcDbLine
 10
2700.548131183091
 20
1923.90633478443
 30
0.0
 11
2701.008208518916
 21
1902.282700000631
 31
0.0
  0
LINE
  5
1DA
330
A
100
AcDbEntity
  8
49
  6
Continuous
 62
     7
370
    15
100
AcDbLine
 10
2703.360308367502
 20
1929.765918399598
 30
0.0
 11
2858.040480467875
 21
1929.765918399598
 31
0.0
  0
LINE
  5
1DB
330
A
100
AcDbEntity
  8
49
  6
Continuous
 62
     7
370
    15
100
AcDbLine
 10
2895.040480467875
 20
1888.265918399597
 30
0.0
 11
2902.040480467875
 21
1888.265918399597
 31
0.0
  0
LINE
  5
1DC
330
A
100
AcDbEntity
  8
49
  6
Continuous
 62
     7
370
    15
100
AcDbLine
 10
2902.040480467875
 20
1888.265918399597
 30
0.0
 11
2902.040480467875
 21
1707.265918399597
 31
0.0
  0
LINE
  5
1DD
330
A
100
AcDbEntity
  8
49
  6
Continuous
 62
     7
370
    15
100
AcDbLine
 10
2902.040480467875
 20
1707.265918399597
 30
0.0
 11
2895.040480467875
 21
1707.265918399597
 31
0.0
  0
LINE
  5
1DE
330
A
100
AcDbEntity
  8
49
  6
Continuous
 62
     7
370
    15
100
AcDbLine
 10
2895.040480467875
 20
1803.765918399598
 30
0.0
 11
2895.040480467875
 21
1707.265918399597
 31
0.0
  0
LINE
  5
1DF
330
A
100
AcDbEntity
  8
49
  6
Continuous
 62
     7
370
    15
100
AcDbLine
 10
2840.484003052378
 20
1414.765918399598
 30
0.0
 11
2742.433257891344
 21
1414.765918399598
 31
0.0
  0
LINE
  5
1E0
330
A
100
AcDbEntity
  8
49
  6
Continuous
 62
     7
370
    15
100
AcDbLine
 10
2895.040480467875
 20
1707.265918399597
 30
0.0
 11
2877.397812355129
 21
1449.241897250692
 31
0.0
  0
ARC
  5
1E1
330
A
100
AcDbEntity
  8
49
  6
Continuous
 62
     7
370
    15
100
AcDbCircle
 10
2858.040480467875
 20
1892.765918399598
 30
0.0
 40
37.0
100
AcDbArc
 50
0.0
 51
90.0
  0
LINE
  5
1E2
330
A
100
AcDbEntity
  8
49
  6
Continuous
 62
     7
370
    15
100
AcDbLine
 10
2703.040480467875
 20
1404.765918399597
 30
0.0
 11
2703.040480467876
 21
1411.765918399598
 31
0.0
  0
LINE
  5
1E3
330
A
100
AcDbEntity
  8
49
  6
Continuous
 62
     7
370
    15
100
AcDbLine
 10
2695.040480467875
 20
1429.253418399597
 30
0.0
 11
2695.040480467875
 21
1899.310283191363
 31
0.0
  0
ARC
  5
1E4
330
A
100
AcDbEntity
  8
49
  6
Continuous
 62
     7
370
    15
100
AcDbCircle
 10
2698.040480467875
 20
1398.765918399597
 30
0.0
 40
3.0
100
AcDbArc
 50
90.0
 51
180.0
  0
ARC
  5
1E5
330
A
100
AcDbEntity
  8
49
  6
Continuous
 62
     7
370
    15
100
AcDbCircle
 10
2700.040480467875
 20
1404.765918399597
 30
0.0
 40
3.0
100
AcDbArc
 50
270.0
 51
0.0
  0
ARC
  5
1E6
330
A
100
AcDbEntity
  8
49
  6
Continuous
 62
     7
370
    15
100
AcDbCircle
 10
2706.040480467875
 20
1411.765918399598
 30
0.0
 40
3.0
100
AcDbArc
 50
90.0
 51
179.9999999999978
  0
LINE
  5
1E7
330
A
100
AcDbEntity
  8
49
  6
Continuous
 62
     7
370
    15
100
AcDbLine
 10
2709.040480467875
 20
1401.765918399597
 30
0.0
 11
2700.040480467875
 21
1401.765918399597
 31
0.0
  0
LINE
  5
1E8
330
A
100
AcDbEntity
  8
49
  6
Continuous
 62
     7
370
    15
100
AcDbLine
 10
2712.040480467875
 20
1404.765918399597
 30
0.0
 11
2712.040480467875
 21
1411.765918399598
 31
0.0
  0
ARC
  5
1E9
330
A
100
AcDbEntity
  8
49
  6
Continuous
 62
     7
370
    15
100
AcDbCircle
 10
2709.040480467875
 20
1404.765918399597
 30
0.0
 40
3.0
100
AcDbArc
 50
270.0
 51
0.0
  0
ARC
  5
1EA
330
A
100
AcDbEntity
  8
49
  6
Continuous
 62
     7
370
    15
100
AcDbCircle
 10
2715.040480467875
 20
1411.765918399598
 30
0.0
 40
3.0
100
AcDbArc
 50
90.0
 51
180.0
  0
LINE
  5
1EB
330
A
100
AcDbEntity
  8
49
  6
Continuous
 62
     7
370
    15
100
AcDbLine
 10
2717.73629360563
 20
1414.765918399598
 30
0.0
 11
2706.040480467875
 21
1414.765918399598
 31
0.0
  0
LINE
  5
1EC
330
A
100
AcDbEntity
  8
49
  6
Continuous
 62
     7
370
    15
100
AcDbLine
 10
2700.306437914682
 20
1935.265918399598
 30
0.0
 11
2696.305532630072
 21
1935.265918399598
 31
0.0
  0
LINE
  5
1ED
330
A
100
AcDbEntity
  8
49
  6
Continuous
 62
     7
370
    15
100
AcDbLine
 10
2700.423459191279
 20
1927.265918399598
 30
0.0
 11
2696.475745396031
 21
1927.265918399598
 31
0.0
  0
ARC
  5
1EE
330
A
100
AcDbEntity
  8
49
  6
Continuous
 62
     7
370
    15
100
AcDbCircle
 10
2674.306437914684
 20
1931.265918399597
 30
0.0
 40
4.0
100
AcDbArc
 50
180.0
 51
270.0
  0
ARC
  5
1EF
330
A
100
AcDbEntity
  8
49
  6
Continuous
 62
     7
370
    15
100
AcDbCircle
 10
2674.306437914684
 20
1931.265918399597
 30
0.0
 40
4.0
100
AcDbArc
 50
90.0
 51
180.0
  0
LINE
  5
1F0
330
A
100
AcDbEntity
  8
49
  6
Continuous
 62
     7
370
    15
100
AcDbLine
 10
2700.009217811084
 20
1899.224626174607
 30
0.0
 11
2707.944704027691
 21
1899.224626174607
 31
0.0
  0
LINE
  5
1F1
330
A
100
AcDbEntity
  8
49
  6
Continuous
 62
     7
370
    15
100
AcDbLine
 10
2696.548945744643
 20
1923.825502014765
 30
0.0
 11
2696.909366557014
 21
1906.885723833337
 31
0.0
  0
LINE
  5
1F2
330
A
100
AcDbEntity
  8
49
  6
Continuous
 62
     7
370
    15
100
AcDbLine
 10
2696.475745396031
 20
1927.265918399598
 30
0.0
 11
2700.47665068064
 21
1927.265918399598
 31
0.0
  0
LINE
  5
1F3
330
A
100
AcDbEntity
  8
49
  6
Continuous
 62
     7
370
    15
100
AcDbLine
 10
2707.944704027691
 20
1855.765918399598
 30
0.0
 11
2707.944704027691
 21
1923.765918399597
 31
0.0
  0
LINE
  5
1F4
330
A
100
AcDbEntity
  8
49
  6
Continuous
 62
     7
370
    15
100
AcDbLine
 10
2711.944704027692
 20
1855.765918399598
 30
0.0
 11
2711.944704027691
 21
1923.765918399597
 31
0.0
  0
LINE
  5
1F5
330
A
100
AcDbEntity
  8
49
  6
Continuous
 62
     7
370
    15
100
AcDbLine
 10
2781.381360569916
 20
1855.765918399598
 30
0.0
 11
2781.381360569916
 21
1923.765918399597
 31
0.0
  0
LINE
  5
1F6
330
A
100
AcDbEntity
  8
49
  6
Continuous
 62
     7
370
    15
100
AcDbLine
 10
2788.381360569916
 20
1859.861362804599
 30
0.0
 11
2788.381360569916
 21
1920.15395614436
 31
0.0
  0
ARC
  5
1F7
330
A
100
AcDbEntity
  8
49
  6
Continuous
 62
     7
370
    15
100
AcDbCircle
 10
2709.944704027691
 20
1923.765918399597
 30
0.0
 40
2.0
100
AcDbArc
 50
90.0
 51
180.0
  0
ARC
  5
1F8
330
A
100
AcDbEntity
  8
49
  6
Continuous
 62
     7
370
    15
100
AcDbCircle
 10
2709.944704027691
 20
1923.765918399597
 30
0.0
 40
2.0
100
AcDbArc
 50
0.0
 51
90.0
  0
ARC
  5
1F9
330
A
100
AcDbEntity
  8
49
  6
Continuous
 62
     7
370
    15
100
AcDbCircle
 10
2783.381360569916
 20
1923.765918399597
 30
0.0
 40
2.0
100
AcDbArc
 50
90.0
 51
180.0
  0
ARC
  5
1FA
330
A
100
AcDbEntity
  8
49
  6
Continuous
 62
     7
370
    15
100
AcDbCircle
 10
2783.381360569916
 20
1923.765918399597
 30
0.0
 40
2.0
100
AcDbArc
 50
0.0
 51
90.0
  0
ARC
  5
1FB
330
A
100
AcDbEntity
  8
49
  6
Continuous
 62
     7
370
    15
100
AcDbCircle
 10
2783.381360569916
 20
1855.765918399598
 30
0.0
 40
2.0
100
AcDbArc
 50
270.0
 51
0.0
  0
ARC
  5
1FC
330
A
100
AcDbEntity
  8
49
  6
Continuous
 62
     7
370
    15
100
AcDbCircle
 10
2783.381360569916
 20
1855.765918399598
 30
0.0
 40
2.0
100
AcDbArc
 50
180.0
 51
270.0
  0
ARC
  5
1FD
330
A
100
AcDbEntity
  8
49
  6
Continuous
 62
     7
370
    15
100
AcDbCircle
 10
2709.944704027691
 20
1855.765918399598
 30
0.0
 40
2.0
100
AcDbArc
 50
270.0
 51
0.0
  0
ARC
  5
1FE
330
A
100
AcDbEntity
  8
49
  6
Continuous
 62
     7
370
    15
100
AcDbCircle
 10
2709.944704027691
 20
1855.765918399598
 30
0.0
 40
2.0
100
AcDbArc
 50
180.0
 51
270.0
  0
LINE
  5
1FF
330
A
100
AcDbEntity
  8
49
  6
Continuous
 62
     7
370
    15
100
AcDbLine
 10
2700.009217811084
 20
1896.224626174608
 30
0.0
 11
2707.944704027691
 21
1896.224626174608
 31
0.0
  0
LINE
  5
200
330
A
100
AcDbEntity
  8
49
  6
Continuous
 62
     7
370
    15
100
AcDbLine
 10
2693.549624554472
 20
1923.761686670294
 30
0.0
 11
2694.010575430741
 21
1902.096995485664
 31
0.0
  0
LINE
  5
201
330
A
100
AcDbEntity
  8
49
  6
Continuous
 62
     7
370
    15
100
AcDbLine
 10
2696.272938849811
 20
1936.797826071834
 30
0.0
 11
2696.586102979888
 21
1922.079111958271
 31
0.0
  0
LINE
  5
202
330
A
100
AcDbEntity
  8
49
  6
Continuous
 62
     7
370
    15
100
AcDbLine
 10
2693.273617659639
 20
1936.734010727361
 30
0.0
 11
2693.603889771655
 21
1921.211221462699
 31
0.0
  0
ARC
  5
203
330
A
100
AcDbEntity
  8
49
  6
Continuous
 62
     7
370
    15
100
AcDbCircle
 10
2694.773278254726
 20
1936.765918399598
 30
0.0
 40
1.5
100
AcDbArc
 50
90.0
 51
181.2188752351366
  0
ARC
  5
204
330
A
100
AcDbEntity
  8
49
  6
Continuous
 62
     7
370
    15
100
AcDbCircle
 10
2694.773278254726
 20
1936.765918399598
 30
0.0
 40
1.499999999999918
100
AcDbArc
 50
1.218875235136654
 51
90.0
  0
LINE
  5
205
330
A
100
AcDbEntity
  8
49
  6
Continuous
 62
     7
370
    15
100
AcDbLine
 10
2695.040480467875
 20
1950.765918399597
 30
0.0
 11
2695.040480467875
 21
1957.765918399597
 31
0.0
  0
LINE
  5
206
330
A
100
AcDbEntity
  8
49
  6
Continuous
 62
     7
370
    15
100
AcDbLine
 10
2695.040480467875
 20
1950.265918399598
 30
0.0
 11
2695.040480467875
 21
1950.765918399597
 31
0.0
  0
LINE
  5
207
330
A
100
AcDbEntity
  8
49
  6
Continuous
 62
     7
370
    15
100
AcDbLine
 10
2695.040480467875
 20
1938.241927538217
 30
0.0
 11
2695.040480467875
 21
1939.851149813591
 31
0.0
  0
LINE
  5
208
330
A
100
AcDbEntity
  8
49
  6
Continuous
 62
     7
370
    15
100
AcDbLine
 10
2695.040480467875
 20
1938.241927538217
 30
0.0
 11
2695.040480467875
 21
1932.765918399597
 31
0.0
  0
LINE
  5
209
330
A
100
AcDbEntity
  8
49
  6
Continuous
 62
     7
370
    15
100
AcDbLine
 10
2700.092540479495
 20
1945.319097853324
 30
0.0
 11
2700.360987177331
 21
1932.702103055126
 31
0.0
  0
ARC
  5
20A
330
A
100
AcDbEntity
  8
49
  6
Continuous
 62
     7
370
    15
100
AcDbCircle
 10
2697.540480467875
 20
1950.265918399598
 30
0.0
 40
2.5
100
AcDbArc
 50
179.9999999999948
 51
270.0
  0
ARC
  5
20B
330
A
100
AcDbEntity
  8
49
  6
Continuous
 62
     7
370
    15
100
AcDbCircle
 10
2697.593106154352
 20
1945.265918399597
 30
0.0
 40
2.499999999999944
100
AcDbArc
 50
1.218875235136616
 51
90.0
  0
LINE
  5
20C
330
A
100
AcDbEntity
  8
49
  6
Continuous
 62
     7
370
    15
100
AcDbLine
 10
2695.040480467875
 20
1939.851149813591
 30
0.0
 11
2695.040480467875
 21
1950.265918399598
 31
0.0
  0
ARC
  5
20D
330
A
100
AcDbEntity
  8
49
  6
Continuous
 62
     7
370
    15
100
AcDbCircle
 10
2698.040480467875
 20
1932.765918399597
 30
0.0
 40
3.0
100
AcDbArc
 50
180.0
 51
270.0
  0
LINE
  5
20E
330
A
100
AcDbEntity
  8
49
  6
Continuous
 62
     7
370
    15
100
AcDbLine
 10
2700.423459191279
 20
1929.765918399598
 30
0.0
 11
2700.075740781632
 21
1929.765918399598
 31
0.0
  0
ARC
  5
20F
330
A
100
AcDbEntity
  8
49
  6
Continuous
 62
     7
370
    15
100
AcDbCircle
 10
2703.360308367502
 20
1932.765918399597
 30
0.0
 40
3.000000000000069
100
AcDbArc
 50
181.2188752351365
 51
270.0
  0
ARC
  5
210
330
A
100
AcDbEntity
  8
49
  6
Continuous
 62
     7
370
    15
100
AcDbCircle
 10
2698.040480467875
 20
1932.765918399597
 30
0.0
 40
2.999999999999933
100
AcDbArc
 50
237.1313559082376
 51
270.0
  0
LINE
  5
211
330
A
100
AcDbEntity
  8
49
  6
Continuous
 62
     7
370
    15
100
AcDbLine
 10
2698.040480467875
 20
1929.765918399598
 30
0.0
 11
2703.137609774997
 21
1929.765918399598
 31
0.0
  0
ARC
  5
212
330
A
100
AcDbEntity
  8
49
  6
Continuous
 62
     7
370
    15
100
AcDbCircle
 10
2715.040480467875
 20
1843.765918399597
 30
0.0
 40
3.0
100
AcDbArc
 50
180.0
 51
270.0
  0
ARC
  5
213
330
A
100
AcDbEntity
  8
49
  6
Continuous
 62
     7
370
    15
100
AcDbCircle
 10
2840.484003052378
 20
1451.765918399598
 30
0.0
 40
37.0
100
AcDbArc
 50
270.0
 51
356.0884281874709
  0
LINE
  5
214
330
A
100
AcDbEntity
  8
49
  6
Continuous
 62
     7
370
    15
100
AcDbLine
 10
2695.040480467875
 20
1456.173665985239
 30
0.0
 11
2695.040480467875
 21
1398.765918399597
 31
0.0
  0
LINE
  5
215
330
A
100
AcDbEntity
  8
49
  6
Continuous
 62
     7
370
    15
100
AcDbLine
 10
2697.040480467875
 20
1391.765918399596
 30
0.0
 11
2697.040480467875
 21
1398.765918399597
 31
0.0
  0
ARC
  5
216
330
A
100
AcDbEntity
  8
49
  6
Continuous
 62
     7
370
    15
100
AcDbCircle
 10
2698.040480467875
 20
1398.765918399597
 30
0.0
 40
1.0
100
AcDbArc
 50
90.0
 51
180.0
  0
LINE
  5
217
330
A
100
AcDbEntity
  8
49
  6
Continuous
 62
     7
370
    15
100
AcDbLine
 10
2698.040480467875
 20
1399.765918399596
 30
0.0
 11
2700.040480467875
 21
1399.765918399596
 31
0.0
  0
ARC
  5
218
330
A
100
AcDbEntity
  8
49
  6
Continuous
 62
     7
370
    15
100
AcDbCircle
 10
2700.040480467875
 20
1404.765918399597
 30
0.0
 40
5.0
100
AcDbArc
 50
270.0
 51
0.0
  0
LINE
  5
219
330
A
100
AcDbEntity
  8
49
  6
Continuous
 62
     7
370
    15
100
AcDbLine
 10
2705.040480467876
 20
1404.765918399597
 30
0.0
 11
2705.040480467876
 21
1411.765918399598
 31
0.0
  0
ARC
  5
21A
330
A
100
AcDbEntity
  8
49
  6
Continuous
 62
     7
370
    15
100
AcDbCircle
 10
2706.040480467875
 20
1411.765918399598
 30
0.0
 40
1.0
100
AcDbArc
 50
90.0
 51
180.0
  0
LINE
  5
21B
330
A
100
AcDbEntity
  8
49
  6
Continuous
 62
     7
370
    15
100
AcDbLine
 10
2706.040480467875
 20
1412.765918399597
 30
0.0
 11
2717.73629360563
 21
1412.765918399597
 31
0.0
  0
LINE
  5
21C
330
A
100
AcDbEntity
  8
49
  6
Continuous
 62
     7
370
    15
100
AcDbLine
 10
2717.73629360563
 20
1412.765918399597
 30
0.0
 11
2819.237811462773
 21
1412.765918399597
 31
0.0
  0
LINE
  5
21D
330
A
100
AcDbEntity
  8
49
  6
Continuous
 62
     7
370
    15
100
AcDbLine
 10
2819.237811462773
 20
1412.765918399597
 30
0.0
 11
2840.484003052378
 21
1412.765918399597
 31
0.0
  0
ARC
  5
21E
330
A
100
AcDbEntity
  8
49
  6
Continuous
 62
     7
370
    15
100
AcDbCircle
 10
2840.484003052378
 20
1451.765918399598
 30
0.0
 40
39.0
100
AcDbArc
 50
270.0
 51
356.0884281874709
  0
LINE
  5
21F
330
A
100
AcDbEntity
  8
49
  6
Continuous
 62
     7
370
    15
100
AcDbLine
 10
2879.393153398521
 20
1449.105463675075
 30
0.0
 11
2896.90839816601
 21
1705.265918399598
 31
0.0
  0
LINE
  5
220
330
A
100
AcDbEntity
  8
49
  6
Continuous
 62
     7
370
    15
100
AcDbLine
 10
2896.90839816601
 20
1705.265918399598
 30
0.0
 11
2904.040480467875
 21
1705.265918399598
 31
0.0
  0
LINE
  5
221
330
A
100
AcDbEntity
  8
49
  6
Continuous
 62
     7
370
    15
100
AcDbLine
 10
2904.040480467875
 20
1705.265918399598
 30
0.0
 11
2904.040480467875
 21
1890.265918399597
 31
0.0
  0
LINE
  5
222
330
A
100
AcDbEntity
  8
49
  6
Continuous
 62
     7
370
    15
100
AcDbLine
 10
2904.040480467875
 20
1890.265918399597
 30
0.0
 11
2897.040480467876
 21
1890.265918399597
 31
0.0
  0
LINE
  5
223
330
A
100
AcDbEntity
  8
49
  6
Continuous
 62
     7
370
    15
100
AcDbLine
 10
2897.040480467876
 20
1890.265918399597
 30
0.0
 11
2897.040480467875
 21
1892.765918399602
 31
0.0
  0
ARC
  5
224
330
A
100
AcDbEntity
  8
49
  6
Continuous
 62
     7
370
    15
100
AcDbCircle
 10
2858.040480467875
 20
1892.765918399598
 30
0.0
 40
39.0
100
AcDbArc
 50
0.0
 51
90.0
  0
LINE
  5
225
330
A
100
AcDbEntity
  8
49
  6
Continuous
 62
     7
370
    15
100
AcDbLine
 10
2858.040480467875
 20
1931.765918399598
 30
0.0
 11
2703.360308367502
 21
1931.765918399598
 31
0.0
  0
ARC
  5
226
330
A
100
AcDbEntity
  8
49
  6
Continuous
 62
     7
370
    15
100
AcDbCircle
 10
2703.360308367502
 20
1932.765918399597
 30
0.0
 40
1.000000000000021
100
AcDbArc
 50
181.2188752351365
 51
270.0
  0
LINE
  5
227
330
A
100
AcDbEntity
  8
49
  6
Continuous
 62
     7
370
    15
100
AcDbLine
 10
2702.360534637444
 20
1932.744646618106
 30
0.0
 11
2702.092087939609
 21
1945.361641416305
 31
0.0
  0
ARC
  5
228
330
A
100
AcDbEntity
  8
49
  6
Continuous
 62
     7
370
    15
100
AcDbCircle
 10
2697.593106154352
 20
1945.265918399597
 30
0.0
 40
4.499999999999988
100
AcDbArc
 50
1.218875235136593
 51
90.0
  0
LINE
  5
229
330
A
100
AcDbEntity
  8
49
  6
Continuous
 62
     7
370
    15
100
AcDbLine
 10
2697.593106154352
 20
1949.765918399598
 30
0.0
 11
2697.540480467875
 21
1949.765918399598
 31
0.0
  0
ARC
  5
22A
330
A
100
AcDbEntity
  8
49
  6
Continuous
 62
     7
370
    15
100
AcDbCircle
 10
2697.540480467875
 20
1950.265918399598
 30
0.0
 40
0.5
100
AcDbArc
 50
180.0
 51
270.0
  0
LINE
  5
22B
330
A
100
AcDbEntity
  8
49
  6
Continuous
 62
     7
370
    15
100
AcDbLine
 10
2697.040480467875
 20
1950.265918399598
 30
0.0
 11
2697.040480467875
 21
1950.765918399597
 31
0.0
  0
LINE
  5
22C
330
A
100
AcDbEntity
  8
49
  6
Continuous
 62
     7
370
    15
100
AcDbLine
 10
2697.040480467875
 20
1950.765918399597
 30
0.0
 11
2697.040480467875
 21
1957.765918399597
 31
0.0
  0
LINE
  5
22D
330
A
100
AcDbEntity
  8
49
  6
Continuous
 62
     7
370
    15
100
AcDbLine
 10
2695.040480467875
 20
1391.765918399596
 30
0.0
 11
2697.040480467875
 21
1391.765918399596
 31
0.0
  0
LINE
  5
22E
330
A
100
AcDbEntity
  8
49
  6
Continuous
 62
     7
370
    15
100
AcDbLine
 10
2695.040480467875
 20
1957.765918399597
 30
0.0
 11
2697.040480467875
 21
1957.765918399597
 31
0.0
  0
LINE
  5
22F
330
A
100
AcDbEntity
  8
49
  6
Continuous
 62
     7
370
    15
100
AcDbLine
 10
2712.040480467875
 20
1411.765918399598
 30
0.0
 11
2712.040480467875
 21
1724.009502583271
 31
0.0
  0
LINE
  5
230
330
A
100
AcDbEntity
  8
49
  6
Continuous
 62
     7
370
    15
100
AcDbLine
 10
2785.381360569915
 20
1861.653596971027
 30
0.0
 11
2785.381360569915
 21
1923.765918399597
 31
0.0
  0
LINE
  5
231
330
A
100
AcDbEntity
  8
49
  6
Continuous
 62
     7
370
    15
100
AcDbLine
 10
2700.572214021816
 20
1922.774441364379
 30
0.0
 11
2700.349356510502
 21
1933.248744396053
 31
0.0
  0
LINE
  5
232
330
A
100
AcDbEntity
  8
49
  6
Continuous
 62
     7
370
    15
100
AcDbLine
 10
2696.909366557014
 20
1906.885723833337
 30
0.0
 11
2697.009896620912
 21
1902.160810830135
 31
0.0
  0
LINE
  5
233
330
A
100
AcDbEntity
  8
49
  6
Continuous
 62
     7
370
    15
100
AcDbLine
 10
2693.304853666614
 20
1935.265918399598
 30
0.0
 11
2674.306437914684
 21
1935.265918399598
 31
0.0
  0
LINE
  5
234
330
A
100
AcDbEntity
  8
49
  6
Continuous
 62
     7
370
    15
100
AcDbLine
 10
2693.475066432572
 20
1927.265918399598
 30
0.0
 11
2674.306437914684
 21
1927.265918399598
 31
0.0
  0
LINE
  5
235
330
A
100
AcDbEntity
  8
49
  6
Continuous
 62
     7
370
    15
100
AcDbLine
 10
2693.304853666614
 20
1935.265918399598
 30
0.0
 11
2696.305532630072
 21
1935.265918399598
 31
0.0
  0
LINE
  5
236
330
A
100
AcDbEntity
  8
49
  6
Continuous
 62
     7
370
    15
100
AcDbLine
 10
2693.475066432572
 20
1927.265918399598
 30
0.0
 11
2696.475745396031
 21
1927.265918399598
 31
0.0
  0
LINE
  5
237
330
A
100
AcDbEntity
  8
49
  6
Continuous
 62
     7
370
    15
100
AcDbLine
 10
2695.040480467875
 20
2005.647771078169
 30
0.0
 11
2895.040480467875
 21
2005.647771078169
 31
0.0
  0
LINE
  5
238
330
A
100
AcDbEntity
  8
49
  6
Continuous
 62
     7
370
    15
100
AcDbLine
 10
2695.040480467875
 20
2005.647771078169
 30
0.0
 11
2714.358996993657
 21
2010.824151980219
 31
0.0
  0
LINE
  5
239
330
A
100
AcDbEntity
  8
49
  6
Continuous
 62
     7
370
    15
100
AcDbLine
 10
2695.040480467875
 20
2005.647771078169
 30
0.0
 11
2714.358996993657
 21
2000.471390176119
 31
0.0
  0
LINE
  5
23A
330
A
100
AcDbEntity
  8
49
  6
Continuous
 62
     7
370
    15
100
AcDbLine
 10
2895.040480467875
 20
2005.647771078169
 30
0.0
 11
2875.721963942094
 21
2000.471390176119
 31
0.0
  0
LINE
  5
23B
330
A
100
AcDbEntity
  8
49
  6
Continuous
 62
     7
370
    15
100
AcDbLine
 10
2895.040480467875
 20
2005.647771078169
 30
0.0
 11
2875.721963942094
 21
2010.824151980219
 31
0.0
  0
LINE
  5
23C
330
A
100
AcDbEntity
  8
49
  6
Continuous
 62
     7
370
    15
100
AcDbLine
 10
2695.040480467875
 20
1962.765918399598
 30
0.0
 11
2695.040480467875
 21
2010.647771078169
 31
0.0
  0
LINE
  5
23D
330
A
100
AcDbEntity
  8
49
  6
Continuous
 62
     7
370
    15
100
AcDbLine
 10
2895.040480467875
 20
1886.124333578169
 30
0.0
 11
2895.040480467875
 21
2010.647771078169
 31
0.0
  0
MTEXT
  5
23E
330
A
100
AcDbEntity
  8
49
 62
     7
100
AcDbMText
 10
2795.040487938077
 20
2030.647719459865
 30
0.0
 40
20.0
 41
0.0
 71
     2
 72
     1
  1
200
  7
ＭＳ ゴシック
 11
1.0
 21
0.0000000001745329
 31
0.0
 73
     1
 44
0.7828267384257846
1001
ACAD
1000
MTEXTBEGIN
1070
    73
1070
     1
1070
    44
1040
0.7828267384257846
1070
    74
1070
     0
1000
MTEXTEND
  0
LINE
  5
23F
330
A
100
AcDbEntity
  8
49
  6
Continuous
 62
     7
370
    15
100
AcDbLine
 10
2895.040480467875
 20
2005.647771078169
 30
0.0
 11
2902.040480467875
 21
2005.647771078169
 31
0.0
  0
LINE
  5
240
330
A
100
AcDbEntity
  8
49
  6
Continuous
 62
     7
370
    15
100
AcDbLine
 10
2902.040480467875
 20
1875.959155006739
 30
0.0
 11
2902.040480467875
 21
2010.647771078169
 31
0.0
  0
LINE
  5
241
330
A
100
AcDbEntity
  8
49
  6
Continuous
 62
     7
370
    15
100
AcDbLine
 10
2902.040480467875
 20
2005.647771078169
 30
0.0
 11
2927.040480467875
 21
2005.647771078169
 31
0.0
  0
LINE
  5
242
330
A
100
AcDbEntity
  8
49
  6
Continuous
 62
     7
370
    15
100
AcDbLine
 10
2902.040480467875
 20
2005.647771078169
 30
0.0
 11
2921.358996993657
 21
2010.824151980219
 31
0.0
  0
LINE
  5
243
330
A
100
AcDbEntity
  8
49
  6
Continuous
 62
     7
370
    15
100
AcDbLine
 10
2902.040480467875
 20
2005.647771078169
 30
0.0
 11
2921.358996993657
 21
2000.471390176119
 31
0.0
  0
MTEXT
  5
244
330
A
100
AcDbEntity
  8
49
 62
     7
100
AcDbMText
 10
2899.54549282089
 20
2030.979384498929
 30
0.0
 40
20.0
 41
0.0
 71
     2
 72
     1
  1
8
  7
ＭＳ ゴシック
 11
1.0
 21
0.0000000001745329
 31
0.0
 73
     1
 44
0.7828267384257846
1001
ACAD
1000
MTEXTBEGIN
1070
    73
1070
     1
1070
    44
1040
0.7828267384257846
1070
    74
1070
     0
1000
MTEXTEND
  0
LINE
  5
245
330
A
100
AcDbEntity
  8
49
  6
Continuous
 62
     7
370
    15
100
AcDbLine
 10
2695.040480467875
 20
1349.640918399597
 30
0.0
 11
2712.040480467875
 21
1349.640918399597
 31
0.0
  0
LINE
  5
246
330
A
100
AcDbEntity
  8
49
  6
Continuous
 62
     7
370
    15
100
AcDbLine
 10
2695.040480467875
 20
1386.765918399597
 30
0.0
 11
2695.040480467875
 21
1344.640918399597
 31
0.0
  0
LINE
  5
247
330
A
100
AcDbEntity
  8
49
  6
Continuous
 62
     7
370
    15
100
AcDbLine
 10
2712.040480467875
 20
1399.765918399596
 30
0.0
 11
2712.040480467875
 21
1344.640918399597
 31
0.0
  0
LINE
  5
248
330
A
100
AcDbEntity
  8
49
  6
Continuous
 62
     7
370
    15
100
AcDbLine
 10
2655.040480467875
 20
1349.640918399597
 30
0.0
 11
2695.040480467875
 21
1349.640918399597
 31
0.0
  0
LINE
  5
249
330
A
100
AcDbEntity
  8
49
  6
Continuous
 62
     7
370
    15
100
AcDbLine
 10
2695.040480467875
 20
1349.640918399597
 30
0.0
 11
2675.721963942094
 21
1344.464537497547
 31
0.0
  0
LINE
  5
24A
330
A
100
AcDbEntity
  8
49
  6
Continuous
 62
     7
370
    15
100
AcDbLine
 10
2695.040480467875
 20
1349.640918399597
 30
0.0
 11
2675.721963942094
 21
1354.817299301648
 31
0.0
  0
MTEXT
  5
24B
330
A
100
AcDbEntity
  8
49
 62
     7
100
AcDbMText
 10
2675.040487938077
 20
1374.640944557522
 30
0.0
 40
20.0
 41
0.0
 71
     2
 72
     1
  1
17
  7
ＭＳ ゴシック
 11
1.0
 21
0.0000000001745329
 31
0.0
 73
     1
 44
0.7828267384257846
1001
ACAD
1000
MTEXTBEGIN
1070
    73
1070
     1
1070
    44
1040
0.7828267384257846
1070
    74
1070
     0
1000
MTEXTEND
  0
LINE
  5
24C
330
A
100
AcDbEntity
  8
49
  6
Continuous
 62
     7
370
    15
100
AcDbLine
 10
2712.040480467875
 20
1349.640918399597
 30
0.0
 11
2877.397812355129
 21
1349.640918399597
 31
0.0
  0
LINE
  5
24D
330
A
100
AcDbEntity
  8
49
  6
Continuous
 62
     7
370
    15
100
AcDbLine
 10
2712.040480467875
 20
1349.640918399597
 30
0.0
 11
2731.358996993658
 21
1354.817299301648
 31
0.0
  0
LINE
  5
24E
330
A
100
AcDbEntity
  8
49
  6
Continuous
 62
     7
370
    15
100
AcDbLine
 10
2712.040480467875
 20
1349.640918399597
 30
0.0
 11
2731.358996993658
 21
1344.464537497547
 31
0.0
  0
LINE
  5
24F
330
A
100
AcDbEntity
  8
49
  6
Continuous
 62
     7
370
    15
100
AcDbLine
 10
2877.397812355129
 20
1349.640918399597
 30
0.0
 11
2858.079295829347
 21
1344.464537497547
 31
0.0
  0
LINE
  5
250
330
A
100
AcDbEntity
  8
49
  6
Continuous
 62
     7
370
    15
100
AcDbLine
 10
2877.397812355129
 20
1349.640918399597
 30
0.0
 11
2858.079295829347
 21
1354.817299301648
 31
0.0
  0
LINE
  5
251
330
A
100
AcDbEntity
  8
49
  6
Continuous
 62
     7
370
    15
100
AcDbLine
 10
2877.397812355129
 20
1444.241897250691
 30
0.0
 11
2877.397812355129
 21
1344.640918399597
 31
0.0
  0
MTEXT
  5
252
330
A
100
AcDbEntity
  8
49
 62
     7
100
AcDbMText
 10
2794.719198875577
 20
1374.640944557522
 30
0.0
 40
20.0
 41
0.0
 71
     2
 72
     1
  1
163
  7
ＭＳ ゴシック
 11
1.0
 21
0.0000000001745329
 31
0.0
 73
     1
 44
0.7828267384257846
1001
ACAD
1000
MTEXTBEGIN
1070
    73
1070
     1
1070
    44
1040
0.7828267384257846
1070
    74
1070
     0
1000
MTEXTEND
  0
LINE
  5
253
330
A
100
AcDbEntity
  8
49
  6
Continuous
 62
     7
370
    15
100
AcDbLine
 10
2877.397812355129
 20
1349.640918399597
 30
0.0
 11
2895.040480467875
 21
1349.640918399597
 31
0.0
  0
LINE
  5
254
330
A
100
AcDbEntity
  8
49
  6
Continuous
 62
     7
370
    15
100
AcDbLine
 10
2895.040480467875
 20
1702.265918399599
 30
0.0
 11
2895.040480467875
 21
1344.640918399597
 31
0.0
  0
LINE
  5
255
330
A
100
AcDbEntity
  8
49
  6
Continuous
 62
     7
370
    15
100
AcDbLine
 10
2895.040480467875
 20
1349.640918399597
 30
0.0
 11
2935.040480467875
 21
1349.640918399597
 31
0.0
  0
LINE
  5
256
330
A
100
AcDbEntity
  8
49
  6
Continuous
 62
     7
370
    15
100
AcDbLine
 10
2895.040480467875
 20
1349.640918399597
 30
0.0
 11
2914.358996993657
 21
1354.817299301648
 31
0.0
  0
LINE
  5
257
330
A
100
AcDbEntity
  8
49
  6
Continuous
 62
     7
370
    15
100
AcDbLine
 10
2895.040480467875
 20
1349.640918399597
 30
0.0
 11
2914.358996993657
 21
1344.464537497547
 31
0.0
  0
MTEXT
  5
258
330
A
100
AcDbEntity
  8
49
 62
     7
100
AcDbMText
 10
2915.040487938077
 20
1374.640944557522
 30
0.0
 40
20.0
 41
0.0
 71
     2
 72
     1
  1
20
  7
ＭＳ ゴシック
 11
1.0
 21
0.0000000001745329
 31
0.0
 73
     1
 44
0.7828267384257846
1001
ACAD
1000
MTEXTBEGIN
1070
    73
1070
     1
1070
    44
1040
0.7828267384257846
1070
    74
1070
     0
1000
MTEXTEND
  0
LINE
  5
259
330
A
100
AcDbEntity
  8
49
  6
Continuous
 62
     7
370
    15
100
AcDbLine
 10
2866.85939063377
 20
1425.81714328532
 30
0.0
 11
2841.106204319915
 21
1451.153781015177
 31
0.0
  0
LINE
  5
25A
330
A
100
AcDbEntity
  8
49
  6
Continuous
 62
     7
370
    15
100
AcDbLine
 10
2866.85939063377
 20
1425.81714328532
 30
0.0
 11
2849.457928341929
 21
1435.675597023386
 31
0.0
  0
LINE
  5
25B
330
A
100
AcDbEntity
  8
49
  6
Continuous
 62
     7
370
    15
100
AcDbLine
 10
2866.85939063377
 20
1425.81714328532
 30
0.0
 11
2856.718509095072
 21
1443.05554581044
 31
0.0
  0
MTEXT
  5
25C
330
A
100
AcDbEntity
  8
49
 62
     7
100
AcDbMText
 10
2831.159505337467
 20
1478.308737370203
 30
0.0
 40
20.0
 41
0.0
 71
     2
 72
     1
  1
R37
  7
ＭＳ ゴシック
 11
0.7128482587981245
 21
-0.7013183014355766
 31
0.0
 73
     1
 44
0.7828267384257846
1001
ACAD
1000
MTEXTBEGIN
1070
    73
1070
     1
1070
    44
1040
0.7828267384257846
1070
    74
1070
     0
1000
MTEXTEND
  0
LINE
  5
25D
330
A
100
AcDbEntity
  8
49
  6
Continuous
 62
     7
370
    15
100
AcDbLine
 10
2670.306437914683
 20
1978.519266613883
 30
0.0
 11
2700.360987177331
 21
1978.519266613883
 31
0.0
  0
LINE
  5
25E
330
A
100
AcDbEntity
  8
49
  6
Continuous
 62
     7
370
    15
100
AcDbLine
 10
2670.306437914684
 20
1936.265918399597
 30
0.0
 11
2670.306437914683
 21
1983.519266613883
 31
0.0
  0
LINE
  5
25F
330
A
100
AcDbEntity
  8
49
  6
Continuous
 62
     7
370
    15
100
AcDbLine
 10
2700.360987177331
 20
1937.702103055126
 30
0.0
 11
2700.360987177331
 21
1983.519266613883
 31
0.0
  0
LINE
  5
260
330
A
100
AcDbEntity
  8
49
  6
Continuous
 62
     7
370
    15
100
AcDbLine
 10
2632.402565927058
 20
1978.519266613883
 30
0.0
 11
2670.306437914683
 21
1978.519266613883
 31
0.0
  0
LINE
  5
261
330
A
100
AcDbEntity
  8
49
  6
Continuous
 62
     7
370
    15
100
AcDbLine
 10
2670.306437914683
 20
1978.519266613883
 30
0.0
 11
2650.987921388901
 21
1973.342885711833
 31
0.0
  0
LINE
  5
262
330
A
100
AcDbEntity
  8
49
  6
Continuous
 62
     7
370
    15
100
AcDbLine
 10
2670.306437914683
 20
1978.519266613883
 30
0.0
 11
2650.987921388901
 21
1983.695647515934
 31
0.0
  0
LINE
  5
263
330
A
100
AcDbEntity
  8
49
  6
Continuous
 62
     7
370
    15
100
AcDbLine
 10
2700.360987177331
 20
1978.519266613883
 30
0.0
 11
2730.360987177331
 21
1978.519266613883
 31
0.0
  0
LINE
  5
264
330
A
100
AcDbEntity
  8
49
  6
Continuous
 62
     7
370
    15
100
AcDbLine
 10
2700.360987177331
 20
1978.519266613883
 30
0.0
 11
2719.679503703112
 21
1983.695647515934
 31
0.0
  0
LINE
  5
265
330
A
100
AcDbEntity
  8
49
  6
Continuous
 62
     7
370
    15
100
AcDbLine
 10
2700.360987177331
 20
1978.519266613883
 30
0.0
 11
2719.679503703112
 21
1973.342885711833
 31
0.0
  0
MTEXT
  5
266
330
A
100
AcDbEntity
  8
49
 62
     7
100
AcDbMText
 10
2672.790732078702
 20
2004.633071022366
 30
0.0
 40
20.0
 41
0.0
 71
     2
 72
     1
  1
30
  7
ＭＳ ゴシック
 11
1.0
 21
0.0000000001745329
 31
0.0
 73
     1
 44
0.7828267384257846
1001
ACAD
1000
MTEXTBEGIN
1070
    73
1070
     1
1070
    44
1040
0.7828267384257846
1070
    74
1070
     0
1000
MTEXTEND
  0
LINE
  5
267
330
A
100
AcDbEntity
  8
49
  6
Continuous
 62
     7
370
    15
100
AcDbLine
 10
2493.187722177059
 20
1252.698156920006
 30
0.0
 11
2485.687722177059
 21
1252.698156920006
 31
0.0
  0
LINE
  5
268
330
A
100
AcDbEntity
  8
49
  6
Continuous
 62
     7
370
    15
100
AcDbLine
 10
1710.187722177059
 20
1232.698156920006
 30
0.0
 11
1710.187722177059
 21
1104.95580998123
 31
0.0
  0
LINE
  5
269
330
A
100
AcDbEntity
  8
49
  6
Continuous
 62
     7
370
    15
100
AcDbLine
 10
2470.187722177059
 20
1232.698156920006
 30
0.0
 11
2470.187722177059
 21
1104.95580998123
 31
0.0
  0
LINE
  5
26A
330
A
100
AcDbEntity
  8
49
  6
Continuous
 62
     7
370
    15
100
AcDbLine
 10
2480.187722177058
 20
1235.698156920006
 30
0.0
 11
2473.187722177059
 21
1235.698156920006
 31
0.0
  0
LINE
  5
26B
330
A
100
AcDbEntity
  8
49
  6
Continuous
 62
     7
370
    15
100
AcDbLine
 10
2480.687722177059
 20
1247.698156920006
 30
0.0
 11
2463.394686462774
 21
1247.698156920006
 31
0.0
  0
LINE
  5
26C
330
A
100
AcDbEntity
  8
49
  6
Continuous
 62
     7
370
    15
100
AcDbLine
 10
2090.187722177058
 20
1278.190025542454
 30
0.0
 11
2090.187722177058
 21
1030.690025542454
 31
0.0
  0
LINE
  5
26D
330
A
100
AcDbEntity
  8
49
  6
Continuous
 62
     7
370
    15
100
AcDbLine
 10
2180.687722177058
 20
1052.698156920006
 30
0.0
 11
1999.687722177058
 21
1052.698156920006
 31
0.0
  0
LINE
  5
26E
330
A
100
AcDbEntity
  8
49
  6
Continuous
 62
     7
370
    15
100
AcDbLine
 10
2016.187722177058
 20
1253.698156920006
 30
0.0
 11
2016.187722177058
 21
1257.698156920006
 31
0.0
  0
LINE
  5
26F
330
A
100
AcDbEntity
  8
49
  6
Continuous
 62
     7
370
    15
100
AcDbLine
 10
2036.187722177059
 20
1277.698156920006
 30
0.0
 11
2144.187722177058
 21
1277.698156920006
 31
0.0
  0
LINE
  5
270
330
A
100
AcDbEntity
  8
49
  6
Continuous
 62
     7
370
    15
100
AcDbLine
 10
2164.187722177058
 20
1257.698156920006
 30
0.0
 11
2164.187722177058
 21
1253.698156920006
 31
0.0
  0
LINE
  5
271
330
A
100
AcDbEntity
  8
49
  6
Continuous
 62
     7
370
    15
100
AcDbLine
 10
2013.187722177058
 20
1252.698156920006
 30
0.0
 11
1716.67755795512
 21
1252.698156920006
 31
0.0
  0
LINE
  5
272
330
A
100
AcDbEntity
  8
49
  6
Continuous
 62
     7
370
    15
100
AcDbLine
 10
2167.187722177058
 20
1252.698156920006
 30
0.0
 11
2013.187722177058
 21
1252.698156920006
 31
0.0
  0
LINE
  5
273
330
A
100
AcDbEntity
  8
49
  6
Continuous
 62
     7
370
    15
100
AcDbLine
 10
2016.187722177058
 20
1252.698156920006
 30
0.0
 11
2016.187722177058
 21
1253.698156920006
 31
0.0
  0
LINE
  5
274
330
A
100
AcDbEntity
  8
49
  6
Continuous
 62
     7
370
    15
100
AcDbLine
 10
2164.187722177058
 20
1252.698156920006
 30
0.0
 11
2164.187722177058
 21
1253.698156920006
 31
0.0
  0
LINE
  5
275
330
A
100
AcDbEntity
  8
49
  6
Continuous
 62
     7
370
    15
100
AcDbLine
 10
1976.881561773172
 20
1247.698156920006
 30
0.0
 11
1726.152956552058
 21
1247.698156920006
 31
0.0
  0
LINE
  5
276
330
A
100
AcDbEntity
  8
49
  6
Continuous
 62
     7
370
    15
100
AcDbLine
 10
2203.493882580946
 20
1247.698156920006
 30
0.0
 11
2016.187722177058
 21
1247.698156920006
 31
0.0
  0
LINE
  5
277
330
A
100
AcDbEntity
  8
49
  6
Continuous
 62
     7
370
    15
100
AcDbLine
 10
1978.881561773172
 20
1235.694853804117
 30
0.0
 11
2201.493882580946
 21
1235.694853804117
 31
0.0
  0
LINE
  5
278
330
A
100
AcDbEntity
  8
49
  6
Continuous
 62
     7
370
    15
100
AcDbLine
 10
1978.881561773172
 20
1160.652334671463
 30
0.0
 11
2201.493882580946
 21
1160.652334671463
 31
0.0
  0
LINE
  5
279
330
A
100
AcDbEntity
  8
49
  6
Continuous
 62
     7
370
    15
100
AcDbLine
 10
1978.881561773172
 20
1231.694853804116
 30
0.0
 11
2201.493882580946
 21
1231.694853804116
 31
0.0
  0
LINE
  5
27A
330
A
100
AcDbEntity
  8
49
  6
Continuous
 62
     7
370
    15
100
AcDbLine
 10
1978.881561773172
 20
1156.652334671463
 30
0.0
 11
2201.493882580946
 21
1156.652334671463
 31
0.0
  0
LINE
  5
27B
330
A
100
AcDbEntity
  8
49
  6
Continuous
 62
     7
370
    15
100
AcDbLine
 10
2013.187722177058
 20
1160.652334671463
 30
0.0
 11
2013.187722177058
 21
1249.198156920006
 31
0.0
  0
LINE
  5
27C
330
A
100
AcDbEntity
  8
49
  6
Continuous
 62
     7
370
    15
100
AcDbLine
 10
2016.187722177058
 20
1160.652334671463
 30
0.0
 11
2016.187722177058
 21
1249.198156920006
 31
0.0
  0
LINE
  5
27D
330
A
100
AcDbEntity
  8
49
  6
Continuous
 62
     7
370
    15
100
AcDbLine
 10
2167.187722177058
 20
1160.652334671463
 30
0.0
 11
2167.187722177058
 21
1249.198156920006
 31
0.0
  0
LINE
  5
27E
330
A
100
AcDbEntity
  8
49
  6
Continuous
 62
     7
370
    15
100
AcDbLine
 10
2164.187722177058
 20
1160.652334671463
 30
0.0
 11
2164.187722177058
 21
1249.198156920006
 31
0.0
  0
CIRCLE
  5
27F
330
A
100
AcDbEntity
  8
49
  6
Continuous
 62
     7
370
    15
100
AcDbCircle
 10
2000.187722177058
 20
1155.152334671463
 30
0.0
 40
1.5
  0
CIRCLE
  5
280
330
A
100
AcDbEntity
  8
49
  6
Continuous
 62
     7
370
    15
100
AcDbCircle
 10
2030.187722177059
 20
1155.152334671463
 30
0.0
 40
1.5
  0
CIRCLE
  5
281
330
A
100
AcDbEntity
  8
49
  6
Continuous
 62
     7
370
    15
100
AcDbCircle
 10
2060.187722177058
 20
1155.152334671463
 30
0.0
 40
1.5
  0
CIRCLE
  5
282
330
A
100
AcDbEntity
  8
49
  6
Continuous
 62
     7
370
    15
100
AcDbCircle
 10
2090.187722177058
 20
1155.152334671463
 30
0.0
 40
1.5
  0
CIRCLE
  5
283
330
A
100
AcDbEntity
  8
49
  6
Continuous
 62
     7
370
    15
100
AcDbCircle
 10
2120.187722177059
 20
1155.152334671463
 30
0.0
 40
1.5
  0
CIRCLE
  5
284
330
A
100
AcDbEntity
  8
49
  6
Continuous
 62
     7
370
    15
100
AcDbCircle
 10
2150.187722177058
 20
1155.152334671463
 30
0.0
 40
1.5
  0
CIRCLE
  5
285
330
A
100
AcDbEntity
  8
49
  6
Continuous
 62
     7
370
    15
100
AcDbCircle
 10
2180.187722177058
 20
1155.152334671463
 30
0.0
 40
1.5
  0
ARC
  5
286
330
A
100
AcDbEntity
  8
49
  6
Continuous
 62
     7
370
    15
100
AcDbCircle
 10
1978.881561773172
 20
1158.652334671463
 30
0.0
 40
2.0
100
AcDbArc
 50
90.0
 51
180.0
  0
ARC
  5
287
330
A
100
AcDbEntity
  8
49
  6
Continuous
 62
     7
370
    15
100
AcDbCircle
 10
1978.881561773172
 20
1158.652334671463
 30
0.0
 40
2.0
100
AcDbArc
 50
180.0
 51
270.0
  0
ARC
  5
288
330
A
100
AcDbEntity
  8
49
  6
Continuous
 62
     7
370
    15
100
AcDbCircle
 10
2201.493882580946
 20
1158.652334671463
 30
0.0
 40
2.0
100
AcDbArc
 50
0.0
 51
90.0
  0
ARC
  5
289
330
A
100
AcDbEntity
  8
49
  6
Continuous
 62
     7
370
    15
100
AcDbCircle
 10
2201.493882580946
 20
1158.652334671463
 30
0.0
 40
2.0
100
AcDbArc
 50
270.0
 51
0.0
  0
ARC
  5
28A
330
A
100
AcDbEntity
  8
49
  6
Continuous
 62
     7
370
    15
100
AcDbCircle
 10
2201.493882580946
 20
1233.694853804116
 30
0.0
 40
2.0
100
AcDbArc
 50
0.0
 51
90.0
  0
ARC
  5
28B
330
A
100
AcDbEntity
  8
49
  6
Continuous
 62
     7
370
    15
100
AcDbCircle
 10
2201.493882580946
 20
1233.694853804116
 30
0.0
 40
2.0
100
AcDbArc
 50
270.0
 51
0.0
  0
ARC
  5
28C
330
A
100
AcDbEntity
  8
49
  6
Continuous
 62
     7
370
    15
100
AcDbCircle
 10
1978.881561773172
 20
1233.694853804116
 30
0.0
 40
2.0
100
AcDbArc
 50
90.0
 51
180.0
  0
ARC
  5
28D
330
A
100
AcDbEntity
  8
49
  6
Continuous
 62
     7
370
    15
100
AcDbCircle
 10
1978.881561773172
 20
1233.694853804116
 30
0.0
 40
2.0
100
AcDbArc
 50
180.0000000000066
 51
270.0
  0
ARC
  5
28E
330
A
100
AcDbEntity
  8
49
  6
Continuous
 62
     7
370
    15
100
AcDbCircle
 10
2036.187722177059
 20
1257.698156920006
 30
0.0
 40
20.0
100
AcDbArc
 50
90.0
 51
180.0
  0
ARC
  5
28F
330
A
100
AcDbEntity
  8
49
  6
Continuous
 62
     7
370
    15
100
AcDbCircle
 10
2144.187722177058
 20
1257.698156920006
 30
0.0
 40
20.0
100
AcDbArc
 50
0.0
 51
90.0
  0
LINE
  5
290
330
A
100
AcDbEntity
  8
49
  6
Continuous
 62
     7
370
    15
100
AcDbLine
 10
2024.187722177059
 20
1253.698156920006
 30
0.0
 11
2024.187722177059
 21
1257.698156920006
 31
0.0
  0
ARC
  5
291
330
A
100
AcDbEntity
  8
49
  6
Continuous
 62
     7
370
    15
100
AcDbCircle
 10
2036.187722177059
 20
1257.698156920006
 30
0.0
 40
12.0
100
AcDbArc
 50
90.0
 51
180.0
  0
LINE
  5
292
330
A
100
AcDbEntity
  8
49
  6
Continuous
 62
     7
370
    15
100
AcDbLine
 10
2036.187722177059
 20
1269.698156920006
 30
0.0
 11
2144.187722177058
 21
1269.698156920006
 31
0.0
  0
ARC
  5
293
330
A
100
AcDbEntity
  8
49
  6
Continuous
 62
     7
370
    15
100
AcDbCircle
 10
2144.187722177058
 20
1257.698156920006
 30
0.0
 40
12.0
100
AcDbArc
 50
0.0
 51
90.0
  0
LINE
  5
294
330
A
100
AcDbEntity
  8
49
  6
Continuous
 62
     7
370
    15
100
AcDbLine
 10
2156.187722177058
 20
1257.698156920006
 30
0.0
 11
2156.187722177058
 21
1253.698156920006
 31
0.0
  0
LINE
  5
295
330
A
100
AcDbEntity
  8
49
  6
Continuous
 62
     7
370
    15
100
AcDbLine
 10
2024.187722177059
 20
1247.698156920006
 30
0.0
 11
2024.187722177059
 21
1253.698156920006
 31
0.0
  0
LINE
  5
296
330
A
100
AcDbEntity
  8
49
  6
Continuous
 62
     7
370
    15
100
AcDbLine
 10
2016.187722177058
 20
1250.698156920006
 30
0.0
 11
2016.187722177058
 21
1253.698156920006
 31
0.0
  0
LINE
  5
297
330
A
100
AcDbEntity
  8
49
  6
Continuous
 62
     7
370
    15
100
AcDbLine
 10
2156.187722177058
 20
1247.698156920006
 30
0.0
 11
2156.187722177058
 21
1253.698156920006
 31
0.0
  0
LINE
  5
298
330
A
100
AcDbEntity
  8
49
  6
Continuous
 62
     7
370
    15
100
AcDbLine
 10
2164.187722177058
 20
1250.698156920006
 30
0.0
 11
2164.187722177058
 21
1253.698156920006
 31
0.0
  0
LINE
  5
299
330
A
100
AcDbEntity
  8
49
  6
Continuous
 62
     7
370
    15
100
AcDbLine
 10
1999.687722177058
 20
1593.82618625674
 30
0.0
 11
2180.687722177058
 21
1593.82618625674
 31
0.0
  0
LINE
  5
29A
330
A
100
AcDbEntity
  8
49
  6
Continuous
 62
     7
370
    15
100
AcDbLine
 10
1999.687722177058
 20
1593.82618625674
 30
0.0
 11
2019.00623870284
 21
1599.002567158791
 31
0.0
  0
LINE
  5
29B
330
A
100
AcDbEntity
  8
49
  6
Continuous
 62
     7
370
    15
100
AcDbLine
 10
1999.687722177058
 20
1593.82618625674
 30
0.0
 11
2019.00623870284
 21
1588.64980535469
 31
0.0
  0
LINE
  5
29C
330
A
100
AcDbEntity
  8
49
  6
Continuous
 62
     7
370
    15
100
AcDbLine
 10
2180.687722177058
 20
1593.82618625674
 30
0.0
 11
2161.369205651277
 21
1588.64980535469
 31
0.0
  0
LINE
  5
29D
330
A
100
AcDbEntity
  8
49
  6
Continuous
 62
     7
370
    15
100
AcDbLine
 10
2180.687722177058
 20
1593.82618625674
 30
0.0
 11
2161.369205651277
 21
1599.002567158791
 31
0.0
  0
LINE
  5
29E
330
A
100
AcDbEntity
  8
49
  6
Continuous
 62
     7
370
    15
100
AcDbLine
 10
1999.687722177058
 20
1792.765918399598
 30
0.0
 11
1999.687722177058
 21
1588.82618625674
 31
0.0
  0
LINE
  5
29F
330
A
100
AcDbEntity
  8
49
  6
Continuous
 62
     7
370
    15
100
AcDbLine
 10
2180.687722177058
 20
1792.765918399598
 30
0.0
 11
2180.687722177058
 21
1588.82618625674
 31
0.0
  0
MTEXT
  5
2A0
330
A
100
AcDbEntity
  8
49
 62
     7
100
AcDbMText
 10
2090.187704734952
 20
1618.82618625674
 30
0.0
 40
20.0
 41
0.0
 71
     2
 72
     1
  1
\U+03c6181
  7
ＭＳ ゴシック
 11
1.0
 21
0.0000000001745329
 31
0.0
 73
     1
 44
0.7828267384257846
1001
ACAD
1000
MTEXTBEGIN
1070
    73
1070
     1
1070
    44
1040
0.7828267384257846
1070
    74
1070
     0
1000
MTEXTEND
  0
LINE
  5
2A1
330
A
100
AcDbEntity
  8
49
  6
Continuous
 62
     7
370
    15
100
AcDbLine
 10
2010.437722177059
 20
1652.754757685312
 30
0.0
 11
2169.937722177058
 21
1652.754757685312
 31
0.0
  0
LINE
  5
2A2
330
A
100
AcDbEntity
  8
49
  6
Continuous
 62
     7
370
    15
100
AcDbLine
 10
2010.437722177059
 20
1652.754757685312
 30
0.0
 11
2029.75623870284
 21
1657.931138587362
 31
0.0
  0
LINE
  5
2A3
330
A
100
AcDbEntity
  8
49
  6
Continuous
 62
     7
370
    15
100
AcDbLine
 10
2010.437722177059
 20
1652.754757685312
 30
0.0
 11
2029.75623870284
 21
1647.578376783261
 31
0.0
  0
LINE
  5
2A4
330
A
100
AcDbEntity
  8
49
  6
Continuous
 62
     7
370
    15
100
AcDbLine
 10
2169.937722177058
 20
1652.754757685312
 30
0.0
 11
2150.619205651278
 21
1647.578376783261
 31
0.0
  0
LINE
  5
2A5
330
A
100
AcDbEntity
  8
49
  6
Continuous
 62
     7
370
    15
100
AcDbLine
 10
2169.937722177058
 20
1652.754757685312
 30
0.0
 11
2150.619205651278
 21
1657.931138587362
 31
0.0
  0
LINE
  5
2A6
330
A
100
AcDbEntity
  8
49
  6
Continuous
 62
     7
370
    15
100
AcDbLine
 10
2010.437722177059
 20
1792.765918399598
 30
0.0
 11
2010.437722177059
 21
1647.754757685312
 31
0.0
  0
LINE
  5
2A7
330
A
100
AcDbEntity
  8
49
  6
Continuous
 62
     7
370
    15
100
AcDbLine
 10
2169.937722177058
 20
1792.765918399598
 30
0.0
 11
2169.937722177058
 21
1647.754757685312
 31
0.0
  0
MTEXT
  5
2A8
330
A
100
AcDbEntity
  8
49
 62
     7
100
AcDbMText
 10
2090.187704734952
 20
1677.754775123928
 30
0.0
 40
20.0
 41
0.0
 71
     2
 72
     1
  1
\U+03c6159
  7
ＭＳ ゴシック
 11
1.0
 21
0.0000000001745329
 31
0.0
 73
     1
 44
0.7828267384257846
1001
ACAD
1000
MTEXTBEGIN
1070
    73
1070
     1
1070
    44
1040
0.7828267384257846
1070
    74
1070
     0
1000
MTEXTEND
  0
LINE
  5
2A9
330
A
100
AcDbEntity
  8
49
  6
Continuous
 62
     7
370
    15
100
AcDbLine
 10
2000.187722177058
 20
1052.698156920006
 30
0.0
 11
1999.687722177058
 21
1052.698156920006
 31
0.0
  0
LINE
  5
2AA
330
A
100
AcDbEntity
  8
49
  6
Continuous
 62
     7
370
    15
100
AcDbLine
 10
1999.687722177058
 20
1052.698156920006
 30
0.0
 11
1999.687722177058
 21
1044.698156920006
 31
0.0
  0
LINE
  5
2AB
330
A
100
AcDbEntity
  8
49
  6
Continuous
 62
     7
370
    15
100
AcDbLine
 10
1999.687722177058
 20
1044.698156920006
 30
0.0
 11
2180.687722177058
 21
1044.698156920006
 31
0.0
  0
LINE
  5
2AC
330
A
100
AcDbEntity
  8
49
  6
Continuous
 62
     7
370
    15
100
AcDbLine
 10
2180.687722177058
 20
1044.698156920006
 30
0.0
 11
2180.687722177058
 21
1052.698156920006
 31
0.0
  0
LINE
  5
2AD
330
A
100
AcDbEntity
  8
49
  6
Continuous
 62
     7
370
    15
100
AcDbLine
 10
2180.687722177058
 20
1052.698156920006
 30
0.0
 11
2435.433175688908
 21
1068.186680493526
 31
0.0
  0
LINE
  5
2AE
330
A
100
AcDbEntity
  8
49
  6
Continuous
 62
     7
370
    15
100
AcDbLine
 10
1999.687722177058
 20
1052.698156920006
 30
0.0
 11
1744.94226866521
 21
1068.186680493526
 31
0.0
  0
LINE
  5
2AF
330
A
100
AcDbEntity
  8
49
  6
Continuous
 62
     7
370
    15
100
AcDbLine
 10
1710.187722177059
 20
1105.118481675246
 30
0.0
 11
1710.187722177059
 21
1141.886259828169
 31
0.0
  0
LINE
  5
2B0
330
A
100
AcDbEntity
  8
49
  6
Continuous
 62
     7
370
    15
100
AcDbLine
 10
2470.187722177059
 20
1105.118481675246
 30
0.0
 11
2470.187722177059
 21
1127.345139828169
 31
0.0
  0
ARC
  5
2B1
330
A
100
AcDbEntity
  8
49
  6
Continuous
 62
     7
370
    15
100
AcDbCircle
 10
2433.187722177058
 20
1105.118481675246
 30
0.0
 40
37.00000000000001
100
AcDbArc
 50
273.4793003721581
 51
0.0
  0
ARC
  5
2B2
330
A
100
AcDbEntity
  8
49
  6
Continuous
 62
     7
370
    15
100
AcDbCircle
 10
1747.187722177059
 20
1105.118481675246
 30
0.0
 40
37.0
100
AcDbArc
 50
180.0
 51
266.5206996278421
  0
LINE
  5
2B3
330
A
100
AcDbEntity
  8
49
  6
Continuous
 62
     7
370
    15
100
AcDbLine
 10
1694.687722177058
 20
1252.698156920006
 30
0.0
 11
1687.187722177059
 21
1252.698156920006
 31
0.0
  0
LINE
  5
2B4
330
A
100
AcDbEntity
  8
49
  6
Continuous
 62
     7
370
    15
100
AcDbLine
 10
1707.187722177059
 20
1235.698156920006
 30
0.0
 11
1700.187722177058
 21
1235.698156920006
 31
0.0
  0
LINE
  5
2B5
330
A
100
AcDbEntity
  8
49
  6
Continuous
 62
     7
370
    15
100
AcDbLine
 10
1714.361349409201
 20
1247.698156920006
 30
0.0
 11
1699.687722177059
 21
1247.698156920006
 31
0.0
  0
ARC
  5
2B6
330
A
100
AcDbEntity
  8
49
  6
Continuous
 62
     7
370
    15
100
AcDbCircle
 10
1694.687722177058
 20
1250.198156920006
 30
0.0
 40
2.5
100
AcDbArc
 50
0.0
 51
90.0
  0
ARC
  5
2B7
330
A
100
AcDbEntity
  8
49
  6
Continuous
 62
     7
370
    15
100
AcDbCircle
 10
1699.687722177059
 20
1250.198156920006
 30
0.0
 40
2.5
100
AcDbArc
 50
180.0000000000025
 51
270.0
  0
LINE
  5
2B8
330
A
100
AcDbEntity
  8
49
  6
Continuous
 62
     7
370
    15
100
AcDbLine
 10
1697.187722177059
 20
1238.698156920006
 30
0.0
 11
1697.187722177059
 21
1250.198156920006
 31
0.0
  0
ARC
  5
2B9
330
A
100
AcDbEntity
  8
49
  6
Continuous
 62
     7
370
    15
100
AcDbCircle
 10
1700.187722177058
 20
1238.698156920006
 30
0.0
 40
3.0
100
AcDbArc
 50
180.0
 51
270.0
  0
ARC
  5
2BA
330
A
100
AcDbEntity
  8
49
  6
Continuous
 62
     7
370
    15
100
AcDbCircle
 10
1707.187722177059
 20
1232.698156920006
 30
0.0
 40
3.0
100
AcDbArc
 50
0.0
 51
90.0
  0
LINE
  5
2BB
330
A
100
AcDbEntity
  8
49
  6
Continuous
 62
     7
370
    15
100
AcDbLine
 10
1689.72531305716
 20
1252.698156920006
 30
0.0
 11
1720.67828180716
 21
1252.698156920006
 31
0.0
  0
LINE
  5
2BC
330
A
100
AcDbEntity
  8
49
  6
Continuous
 62
     7
370
    15
100
AcDbLine
 10
1728.258600684711
 20
1247.698156920006
 30
0.0
 11
1712.255705276548
 21
1247.698156920006
 31
0.0
  0
LINE
  5
2BD
330
A
100
AcDbEntity
  8
49
  6
Continuous
 62
     7
370
    15
100
AcDbLine
 10
1726.152956552058
 20
1235.698156920006
 30
0.0
 11
1705.622926258691
 21
1235.698156920006
 31
0.0
  0
LINE
  5
2BE
330
A
100
AcDbEntity
  8
49
  6
Continuous
 62
     7
370
    15
100
AcDbLine
 10
2450.171115034202
 20
1252.698156920006
 30
0.0
 11
2167.187722177058
 21
1252.698156920006
 31
0.0
  0
LINE
  5
2BF
330
A
100
AcDbEntity
  8
49
  6
Continuous
 62
     7
370
    15
100
AcDbLine
 10
2442.958257891345
 20
1247.698156920006
 30
0.0
 11
2203.493882580946
 21
1247.698156920006
 31
0.0
  0
LINE
  5
2C0
330
A
100
AcDbEntity
  8
49
  6
Continuous
 62
     7
370
    15
100
AcDbLine
 10
2427.330400748487
 20
1235.698156920006
 30
0.0
 11
1723.415619179609
 21
1235.698156920006
 31
0.0
  0
ARC
  5
2C1
330
A
100
AcDbEntity
  8
49
  6
Continuous
 62
     7
370
    15
100
AcDbCircle
 10
2485.687722177059
 20
1250.198156920006
 30
0.0
 40
2.5
100
AcDbArc
 50
90.0
 51
180.0
  0
ARC
  5
2C2
330
A
100
AcDbEntity
  8
49
  6
Continuous
 62
     7
370
    15
100
AcDbCircle
 10
2480.687722177059
 20
1250.198156920006
 30
0.0
 40
2.5
100
AcDbArc
 50
270.0
 51
359.9999999999949
  0
LINE
  5
2C3
330
A
100
AcDbEntity
  8
49
  6
Continuous
 62
     7
370
    15
100
AcDbLine
 10
2483.187722177059
 20
1238.698156920006
 30
0.0
 11
2483.187722177059
 21
1249.618086766944
 31
0.0
  0
ARC
  5
2C4
330
A
100
AcDbEntity
  8
49
  6
Continuous
 62
     7
370
    15
100
AcDbCircle
 10
2480.187722177058
 20
1238.698156920006
 30
0.0
 40
3.0
100
AcDbArc
 50
270.0
 51
0.0
  0
ARC
  5
2C5
330
A
100
AcDbEntity
  8
49
  6
Continuous
 62
     7
370
    15
100
AcDbCircle
 10
2473.187722177059
 20
1232.698156920006
 30
0.0
 40
3.0
100
AcDbArc
 50
90.0
 51
180.0
  0
LINE
  5
2C6
330
A
100
AcDbEntity
  8
49
  6
Continuous
 62
     7
370
    15
100
AcDbLine
 10
2485.687722177059
 20
1252.698156920006
 30
0.0
 11
2414.716740034201
 21
1252.698156920006
 31
0.0
  0
LINE
  5
2C7
330
A
100
AcDbEntity
  8
49
  6
Continuous
 62
     7
370
    15
100
AcDbLine
 10
2463.394686462774
 20
1247.698156920006
 30
0.0
 11
2420.762811462772
 21
1247.698156920006
 31
0.0
  0
LINE
  5
2C8
330
A
100
AcDbEntity
  8
49
  6
Continuous
 62
     7
370
    15
100
AcDbLine
 10
2473.187722177059
 20
1235.698156920006
 30
0.0
 11
2400.609240034202
 21
1235.698156920006
 31
0.0
  0
LINE
  5
2C9
330
A
100
AcDbEntity
  8
49
  6
Continuous
 62
     7
370
    15
100
AcDbLine
 10
1687.187722177059
 20
1250.698156920006
 30
0.0
 11
1694.687722177058
 21
1250.698156920006
 31
0.0
  0
ARC
  5
2CA
330
A
100
AcDbEntity
  8
49
  6
Continuous
 62
     7
370
    15
100
AcDbCircle
 10
1694.687722177058
 20
1250.198156920006
 30
0.0
 40
0.5
100
AcDbArc
 50
0.0
 51
90.0
  0
LINE
  5
2CB
330
A
100
AcDbEntity
  8
49
  6
Continuous
 62
     7
370
    15
100
AcDbLine
 10
1695.187722177058
 20
1250.198156920006
 30
0.0
 11
1695.187722177058
 21
1238.698156920006
 31
0.0
  0
ARC
  5
2CC
330
A
100
AcDbEntity
  8
49
  6
Continuous
 62
     7
370
    15
100
AcDbCircle
 10
1700.187722177058
 20
1238.698156920006
 30
0.0
 40
5.0
100
AcDbArc
 50
180.0
 51
270.0
  0
LINE
  5
2CD
330
A
100
AcDbEntity
  8
49
  6
Continuous
 62
     7
370
    15
100
AcDbLine
 10
1700.187722177058
 20
1233.698156920006
 30
0.0
 11
1707.187722177059
 21
1233.698156920006
 31
0.0
  0
ARC
  5
2CE
330
A
100
AcDbEntity
  8
49
  6
Continuous
 62
     7
370
    15
100
AcDbCircle
 10
1707.187722177059
 20
1232.698156920006
 30
0.0
 40
1.0
100
AcDbArc
 50
0.0
 51
90.0
  0
LINE
  5
2CF
330
A
100
AcDbEntity
  8
49
  6
Continuous
 62
     7
370
    15
100
AcDbLine
 10
1708.187722177058
 20
1232.698156920006
 30
0.0
 11
1708.187722177058
 21
1105.118481675246
 31
0.0
  0
ARC
  5
2D0
330
A
100
AcDbEntity
  8
49
  6
Continuous
 62
     7
370
    15
100
AcDbCircle
 10
1747.187722177059
 20
1105.118481675246
 30
0.0
 40
39.0
100
AcDbArc
 50
180.0
 51
266.5206996278421
  0
LINE
  5
2D1
330
A
100
AcDbEntity
  8
49
  6
Continuous
 62
     7
370
    15
100
AcDbLine
 10
1744.820892799705
 20
1066.190366916136
 30
0.0
 11
1997.687722177058
 21
1050.816063689993
 31
0.0
  0
LINE
  5
2D2
330
A
100
AcDbEntity
  8
49
  6
Continuous
 62
     7
370
    15
100
AcDbLine
 10
1997.687722177058
 20
1050.816063689993
 30
0.0
 11
1997.687722177058
 21
1042.698156920006
 31
0.0
  0
LINE
  5
2D3
330
A
100
AcDbEntity
  8
49
  6
Continuous
 62
     7
370
    15
100
AcDbLine
 10
1997.687722177058
 20
1042.698156920006
 30
0.0
 11
2182.687722177059
 21
1042.698156920006
 31
0.0
  0
LINE
  5
2D4
330
A
100
AcDbEntity
  8
49
  6
Continuous
 62
     7
370
    15
100
AcDbLine
 10
2182.687722177059
 20
1042.698156920006
 30
0.0
 11
2182.687722177059
 21
1050.816063689993
 31
0.0
  0
LINE
  5
2D5
330
A
100
AcDbEntity
  8
49
  6
Continuous
 62
     7
370
    15
100
AcDbLine
 10
2182.687722177059
 20
1050.816063689993
 30
0.0
 11
2435.554551554413
 21
1066.190366916136
 31
0.0
  0
ARC
  5
2D6
330
A
100
AcDbEntity
  8
49
  6
Continuous
 62
     7
370
    15
100
AcDbCircle
 10
2433.187722177058
 20
1105.118481675246
 30
0.0
 40
38.99999999999998
100
AcDbArc
 50
273.4793003721581
 51
0.0
  0
LINE
  5
2D7
330
A
100
AcDbEntity
  8
49
  6
Continuous
 62
     7
370
    15
100
AcDbLine
 10
2472.187722177058
 20
1105.118481675246
 30
0.0
 11
2472.187722177059
 21
1178.458308767575
 31
0.0
  0
ARC
  5
2D8
330
A
100
AcDbEntity
  8
49
  6
Continuous
 62
     7
370
    15
100
AcDbCircle
 10
2473.187722177059
 20
1232.698156920006
 30
0.0
 40
1.0
100
AcDbArc
 50
90.0
 51
180.0
  0
LINE
  5
2D9
330
A
100
AcDbEntity
  8
49
  6
Continuous
 62
     7
370
    15
100
AcDbLine
 10
2473.187722177059
 20
1233.698156920006
 30
0.0
 11
2480.187722177058
 21
1233.698156920006
 31
0.0
  0
ARC
  5
2DA
330
A
100
AcDbEntity
  8
49
  6
Continuous
 62
     7
370
    15
100
AcDbCircle
 10
2480.187722177058
 20
1238.698156920006
 30
0.0
 40
5.0
100
AcDbArc
 50
270.0
 51
0.0
  0
LINE
  5
2DB
330
A
100
AcDbEntity
  8
49
  6
Continuous
 62
     7
370
    15
100
AcDbLine
 10
2485.187722177058
 20
1238.698156920006
 30
0.0
 11
2485.187722177058
 21
1249.618086766944
 31
0.0
  0
LINE
  5
2DC
330
A
100
AcDbEntity
  8
49
  6
Continuous
 62
     7
370
    15
100
AcDbLine
 10
1687.187722177059
 20
1252.698156920006
 30
0.0
 11
1687.187722177059
 21
1250.698156920006
 31
0.0
  0
LINE
  5
2DD
330
A
100
AcDbEntity
  8
49
  6
Continuous
 62
     7
370
    15
100
AcDbLine
 10
2483.187722177059
 20
1250.198156920006
 30
0.0
 11
2483.187722177059
 21
1249.549529687863
 31
0.0
  0
LINE
  5
2DE
330
A
100
AcDbEntity
  8
49
  6
Continuous
 62
     7
370
    15
100
AcDbLine
 10
2493.187722177059
 20
1250.698156920006
 30
0.0
 11
2485.687722177059
 21
1250.698156920006
 31
0.0
  0
ARC
  5
2DF
330
A
100
AcDbEntity
  8
49
  6
Continuous
 62
     7
370
    15
100
AcDbCircle
 10
2485.687722177059
 20
1250.198156920006
 30
0.0
 40
0.5
100
AcDbArc
 50
90.0
 51
180.0
  0
LINE
  5
2E0
330
A
100
AcDbEntity
  8
49
  6
Continuous
 62
     7
370
    15
100
AcDbLine
 10
2485.187722177058
 20
1249.618086766944
 30
0.0
 11
2485.187722177058
 21
1250.198156920006
 31
0.0
  0
LINE
  5
2E1
330
A
100
AcDbEntity
  8
49
  6
Continuous
 62
     7
370
    15
100
AcDbLine
 10
2493.187722177059
 20
1252.698156920006
 30
0.0
 11
2493.187722177059
 21
1250.698156920006
 31
0.0
  0
LINE
  5
2E2
330
A
100
AcDbEntity
  8
49
  6
Continuous
 62
     7
370
    15
100
AcDbLine
 10
2013.187722177058
 20
1222.698156920006
 30
0.0
 11
1716.67755795512
 21
1222.698156920006
 31
0.0
  0
LINE
  5
2E3
330
A
100
AcDbEntity
  8
49
  6
Continuous
 62
     7
370
    15
100
AcDbLine
 10
1708.187722177058
 20
1222.698156920006
 30
0.0
 11
1719.707123366178
 21
1222.698156920006
 31
0.0
  0
LINE
  5
2E4
330
A
100
AcDbEntity
  8
49
  6
Continuous
 62
     7
370
    15
100
AcDbLine
 10
2472.187722177059
 20
1222.698156920006
 30
0.0
 11
1995.513615034201
 21
1222.698156920006
 31
0.0
  0
LINE
  5
2E5
330
A
100
AcDbEntity
  8
49
  6
Continuous
 62
     7
370
    15
100
AcDbLine
 10
1575.64754360563
 20
1252.698156920006
 30
0.0
 11
1575.64754360563
 21
1277.698156920006
 31
0.0
  0
LINE
  5
2E6
330
A
100
AcDbEntity
  8
49
  6
Continuous
 62
     7
370
    15
100
AcDbLine
 10
1689.687722177058
 20
1252.698156920006
 30
0.0
 11
1570.64754360563
 21
1252.698156920006
 31
0.0
  0
LINE
  5
2E7
330
A
100
AcDbEntity
  8
49
  6
Continuous
 62
     7
370
    15
100
AcDbLine
 10
2031.187722177058
 20
1277.698156920006
 30
0.0
 11
1570.64754360563
 21
1277.698156920006
 31
0.0
  0
LINE
  5
2E8
330
A
100
AcDbEntity
  8
49
  6
Continuous
 62
     7
370
    15
100
AcDbLine
 10
1575.64754360563
 20
1277.698156920006
 30
0.0
 11
1575.64754360563
 21
1317.698156920006
 31
0.0
  0
LINE
  5
2E9
330
A
100
AcDbEntity
  8
49
  6
Continuous
 62
     7
370
    15
100
AcDbLine
 10
1575.64754360563
 20
1277.698156920006
 30
0.0
 11
1570.47116270358
 21
1297.016673445787
 31
0.0
  0
LINE
  5
2EA
330
A
100
AcDbEntity
  8
49
  6
Continuous
 62
     7
370
    15
100
AcDbLine
 10
1575.64754360563
 20
1277.698156920006
 30
0.0
 11
1580.82392450768
 21
1297.016673445787
 31
0.0
  0
MTEXT
  5
2EB
330
A
100
AcDbEntity
  8
49
 62
     7
100
AcDbMText
 10
1548.386679347817
 20
1265.352004127834
 30
0.0
 40
20.0
 41
0.0
 71
     2
 72
     1
  1
25
  7
ＭＳ ゴシック
 11
0.0
 21
1.0
 31
0.0
 73
     1
 44
0.7828267384257846
1001
ACAD
1000
MTEXTBEGIN
1070
    73
1070
     1
1070
    44
1040
0.7828267384257846
1070
    74
1070
     0
1000
MTEXTEND
  0
LINE
  5
2EC
330
A
100
AcDbEntity
  8
49
  6
Continuous
 62
     7
370
    15
100
AcDbLine
 10
1575.64754360563
 20
1052.698156920006
 30
0.0
 11
1575.64754360563
 21
1252.698156920006
 31
0.0
  0
LINE
  5
2ED
330
A
100
AcDbEntity
  8
49
  6
Continuous
 62
     7
370
    15
100
AcDbLine
 10
1575.64754360563
 20
1052.698156920006
 30
0.0
 11
1570.47116270358
 21
1072.016673445787
 31
0.0
  0
LINE
  5
2EE
330
A
100
AcDbEntity
  8
49
  6
Continuous
 62
     7
370
    15
100
AcDbLine
 10
1575.64754360563
 20
1052.698156920006
 30
0.0
 11
1580.82392450768
 21
1072.016673445787
 31
0.0
  0
LINE
  5
2EF
330
A
100
AcDbEntity
  8
49
  6
Continuous
 62
     7
370
    15
100
AcDbLine
 10
1575.64754360563
 20
1252.698156920006
 30
0.0
 11
1580.82392450768
 21
1233.379640394224
 31
0.0
  0
LINE
  5
2F0
330
A
100
AcDbEntity
  8
49
  6
Continuous
 62
     7
370
    15
100
AcDbLine
 10
1575.64754360563
 20
1252.698156920006
 30
0.0
 11
1570.47116270358
 21
1233.379640394224
 31
0.0
  0
LINE
  5
2F1
330
A
100
AcDbEntity
  8
49
  6
Continuous
 62
     7
370
    15
100
AcDbLine
 10
1994.687722177058
 20
1052.698156920006
 30
0.0
 11
1570.64754360563
 21
1052.698156920006
 31
0.0
  0
MTEXT
  5
2F2
330
A
100
AcDbEntity
  8
49
 62
     7
100
AcDbMText
 10
1618.379721340005
 20
1121.832015114162
 30
0.0
 40
20.0
 41
0.0
 71
     2
 72
     1
  1
\U+9632\U+6ef4\U+30d1\U+30c3\U+30c8
  7
ＭＳ ゴシック
 11
0.0
 21
1.0
 31
0.0
 73
     1
 44
0.7828267384257846
1001
ACAD
1000
MTEXTBEGIN
1070
    73
1070
     1
1070
    44
1040
0.7828267384257846
1070
    74
1070
     0
1000
MTEXTEND
  0
LINE
  5
2F3
330
A
100
AcDbEntity
  8
49
  6
Continuous
 62
     7
370
    15
100
AcDbLine
 10
1575.64754360563
 20
1044.698156920006
 30
0.0
 11
1575.64754360563
 21
1052.698156920006
 31
0.0
  0
LINE
  5
2F4
330
A
100
AcDbEntity
  8
49
  6
Continuous
 62
     7
370
    15
100
AcDbLine
 10
1994.687722177058
 20
1044.698156920006
 30
0.0
 11
1570.64754360563
 21
1044.698156920006
 31
0.0
  0
LINE
  5
2F5
330
A
100
AcDbEntity
  8
49
  6
Continuous
 62
     7
370
    15
100
AcDbLine
 10
1575.64754360563
 20
1019.698156920006
 30
0.0
 11
1575.64754360563
 21
1044.698156920006
 31
0.0
  0
LINE
  5
2F6
330
A
100
AcDbEntity
  8
49
  6
Continuous
 62
     7
370
    15
100
AcDbLine
 10
1575.64754360563
 20
1044.698156920006
 30
0.0
 11
1580.82392450768
 21
1025.379640394224
 31
0.0
  0
LINE
  5
2F7
330
A
100
AcDbEntity
  8
49
  6
Continuous
 62
     7
370
    15
100
AcDbLine
 10
1575.64754360563
 20
1044.698156920006
 30
0.0
 11
1570.47116270358
 21
1025.379640394224
 31
0.0
  0
MTEXT
  5
2F8
330
A
100
AcDbEntity
  8
49
 62
     7
100
AcDbMText
 10
1549.175924953286
 20
1048.289687233303
 30
0.0
 40
20.0
 41
0.0
 71
     2
 72
     1
  1
8
  7
ＭＳ ゴシック
 11
0.0
 21
1.0
 31
0.0
 73
     1
 44
0.7828267384257846
1001
ACAD
1000
MTEXTBEGIN
1070
    73
1070
     1
1070
    44
1040
0.7828267384257846
1070
    74
1070
     0
1000
MTEXTEND
  0
LINE
  5
2F9
330
A
100
AcDbEntity
  8
49
  6
Continuous
 62
     7
370
    15
100
AcDbLine
 10
1689.687722177058
 20
1252.698156920006
 30
0.0
 11
1638.144329319916
 21
1252.698156920006
 31
0.0
  0
LINE
  5
2FA
330
A
100
AcDbEntity
  8
49
  6
Continuous
 62
     7
370
    15
100
AcDbLine
 10
1997.206338248487
 20
1217.499489828169
 30
0.0
 11
1945.589462564502
 21
1164.144064276316
 31
0.0
  0
LINE
  5
2FB
330
A
100
AcDbEntity
  8
49
  6
Continuous
 62
     7
370
    15
100
AcDbLine
 10
1997.206338248487
 20
1217.499489828169
 30
0.0
 11
1987.494532154675
 21
1200.015759608441
 31
0.0
  0
LINE
  5
2FC
330
A
100
AcDbEntity
  8
49
  6
Continuous
 62
     7
370
    15
100
AcDbLine
 10
1997.206338248487
 20
1217.499489828169
 30
0.0
 11
1980.053802344754
 21
1207.214038351877
 31
0.0
  0
LINE
  5
2FD
330
A
100
AcDbEntity
  8
49
  6
Continuous
 62
     7
370
    15
100
AcDbLine
 10
2161.757559916597
 20
1267.253302225353
 30
0.0
 11
2280.040042616239
 21
1278.804586136869
 31
0.0
  0
LINE
  5
2FE
330
A
100
AcDbEntity
  8
49
  6
Continuous
 62
     7
370
    15
100
AcDbLine
 10
2161.757559916597
 20
1267.253302225353
 30
0.0
 11
2180.481484332085
 21
1274.2828580067
 31
0.0
  0
LINE
  5
2FF
330
A
100
AcDbEntity
  8
49
  6
Continuous
 62
     7
370
    15
100
AcDbLine
 10
2161.757559916597
 20
1267.253302225353
 30
0.0
 11
2181.487732009623
 21
1263.979113901575
 31
0.0
  0
CIRCLE
  5
300
330
A
100
AcDbEntity
  8
49
  6
Continuous
 62
     7
370
    15
100
AcDbCircle
 10
2304.921673962773
 20
1281.234487685312
 30
0.0
 40
25.0
  0
MTEXT
  5
301
330
A
100
AcDbEntity
  8
49
 62
     7
100
AcDbMText
 10
2304.921591457192
 20
1281.234511452053
 30
0.0
 40
20.0
 41
0.0
 71
     5
 72
     1
  1
3
  7
ＭＳ ゴシック
 73
     1
 44
0.7828267384257846
1001
ACAD
1000
MTEXTBEGIN
1070
    73
1070
     1
1070
    44
1040
0.7828267384257846
1070
    74
1070
     0
1000
MTEXTEND
  0
LINE
  5
302
330
A
100
AcDbEntity
  8
49
  6
Continuous
 62
     7
370
    15
100
AcDbLine
 10
2167.187722177058
 20
1194.900803603679
 30
0.0
 11
2287.196285625052
 21
1177.664893343128
 31
0.0
  0
LINE
  5
303
330
A
100
AcDbEntity
  8
49
  6
Continuous
 62
     7
370
    15
100
AcDbLine
 10
2167.187722177058
 20
1194.900803603679
 30
0.0
 11
2187.045916827675
 21
1197.278219263218
 31
0.0
  0
LINE
  5
304
330
A
100
AcDbEntity
  8
49
  6
Continuous
 62
     7
370
    15
100
AcDbLine
 10
2167.187722177058
 20
1194.900803603679
 30
0.0
 11
2185.574131047559
 21
1187.030608634887
 31
0.0
  0
CIRCLE
  5
305
330
A
100
AcDbEntity
  8
49
  6
Continuous
 62
     7
370
    15
100
AcDbCircle
 10
2311.942365034202
 20
1174.110803603679
 30
0.0
 40
25.0
  0
MTEXT
  5
306
330
A
100
AcDbEntity
  8
49
 62
     7
100
AcDbMText
 10
2311.942343410317
 20
1174.110823707912
 30
0.0
 40
20.0
 41
0.0
 71
     5
 72
     1
  1
2
  7
ＭＳ ゴシック
 73
     1
 44
0.7828267384257846
1001
ACAD
1000
MTEXTBEGIN
1070
    73
1070
     1
1070
    44
1040
0.7828267384257846
1070
    74
1070
     0
1000
MTEXTEND
  0
LINE
  5
307
330
A
100
AcDbEntity
  8
49
  6
Continuous
 62
     7
370
    15
100
AcDbLine
 10
2461.704136865202
 20
1081.542771859127
 30
0.0
 11
2421.298851003589
 21
1114.947507515002
 31
0.0
  0
LINE
  5
308
330
A
100
AcDbEntity
  8
49
  6
Continuous
 62
     7
370
    15
100
AcDbLine
 10
2461.704136865202
 20
1081.542771859127
 30
0.0
 11
2443.516794096192
 21
1089.862661461913
 31
0.0
  0
LINE
  5
309
330
A
100
AcDbEntity
  8
49
  6
Continuous
 62
     7
370
    15
100
AcDbLine
 10
2461.704136865202
 20
1081.542771859127
 30
0.0
 11
2450.113380801297
 21
1097.841678996327
 31
0.0
  0
MTEXT
  5
30A
330
A
100
AcDbEntity
  8
49
 62
     7
100
AcDbMText
 10
2442.092467426304
 20
1130.024885857662
 30
0.0
 40
20.0
 41
0.0
 71
     2
 72
     1
  1
R37
  7
ＭＳ ゴシック
 11
0.7707137886398252
 21
-0.6371814937680213
 31
0.0
 73
     1
 44
0.7828267384257846
1001
ACAD
1000
MTEXTBEGIN
1070
    73
1070
     1
1070
    44
1040
0.7828267384257846
1070
    74
1070
     0
1000
MTEXTEND
  0
LINE
  5
30B
330
A
100
AcDbEntity
  8
49
  6
Continuous
 62
     7
370
    15
100
AcDbLine
 10
2856.822454319916
 20
1280.22306125674
 30
0.0
 11
2705.988882891344
 21
1280.22306125674
 31
0.0
  0
MTEXT
  5
30C
330
A
100
AcDbEntity
  8
49
 62
     7
100
AcDbMText
 10
2903.3881938025
 20
1159.507114881314
 30
0.0
 40
23.72577095031751
 41
0.0
 71
     5
 72
     1
  1
\U+2460\U+30b7\U+30f3\U+30af\U+672c\U+4f53\U+ff08SUS304 t0.8)
  7
ＭＳ ゴシック
 73
     1
 44
0.7828267384257847
1001
ACAD
1000
MTEXTBEGIN
1070
    73
1070
     1
1070
    44
1040
0.7828267384257847
1070
    74
1070
     0
1000
MTEXTEND
  0
MTEXT
  5
30D
330
A
100
AcDbEntity
  8
49
 62
     7
100
AcDbMText
 10
2872.55672892908
 20
1113.30980856621
 30
0.0
 40
23.72577095031751
 41
0.0
 71
     5
 72
     1
  1
\U+2461\U+ff86\U+ff6d\U+ff70\U+6d17\U+5264\U+30e9\U+30c3\U+30af(\U+ff12\U+6bb5\U+ff09
  7
ＭＳ ゴシック
 73
     1
 44
0.7828267384257847
1001
ACAD
1000
MTEXTBEGIN
1070
    73
1070
     1
1070
    44
1040
0.7828267384257847
1070
    74
1070
     0
1000
MTEXTEND
  0
MTEXT
  5
30E
330
A
100
AcDbEntity
  8
49
 62
     7
100
AcDbMText
 10
2795.478086931638
 20
1067.112502251106
 30
0.0
 40
23.72577095031751
 41
0.0
 71
     5
 72
     1
  1
\U+2462\U+30e9\U+30c3\U+30af\U+30d0\U+30fc
  7
ＭＳ ゴシック
 73
     1
 44
0.7828267384257847
1001
ACAD
1000
MTEXTBEGIN
1070
    73
1070
     1
1070
    44
1040
0.7828267384257847
1070
    74
1070
     0
1000
MTEXTEND
  0
MTEXT
  5
30F
330
A
100
AcDbEntity
  8
49
 62
     7
100
AcDbMText
 10
2911.096056656504
 20
1020.915195936002
 30
0.0
 40
23.72577095031751
 41
0.0
 71
     5
 72
     1
  1
\U+2463\U+7d66\U+6c34\U+6813\U+53d6\U+4ed8\U+7528\U+82af\U+6750\U+ff08PB\U+ff549\U+ff09
  7
ＭＳ ゴシック
 73
     1
 44
0.7828267384257847
1001
ACAD
1000
MTEXTBEGIN
1070
    73
1070
     1
1070
    44
1040
0.7828267384257847
1070
    74
1070
     0
1000
MTEXTEND
  0
MTEXT
  5
310
330
A
100
AcDbEntity
  8
49
 62
     7
100
AcDbMText
 10
2965.05112354934
 20
974.7178896208977
 30
0.0
 40
23.72577095031751
 41
0.0
 71
     5
 72
     1
  1
\U+2464\U+30e9\U+30c3\U+30af\U+30d0\U+30fc\U+53d6\U+4ed8\U+30b9\U+30da\U+30fc\U+30b5\U+30fc\U+ff08\U+ff54\U+ff15\U+ff09
  7
ＭＳ ゴシック
 73
     1
 44
0.7828267384257847
1001
ACAD
1000
MTEXTBEGIN
1070
    73
1070
     1
1070
    44
1040
0.7828267384257847
1070
    74
1070
     0
1000
MTEXTEND
  0
MTEXT
  5
311
330
A
100
AcDbEntity
  8
49
 62
     7
100
AcDbMText
 10
2903.3881938025
 20
928.520583305794
 30
0.0
 40
23.72577095031751
 41
0.0
 71
     5
 72
     1
  1
\U+2465\U+5e73\U+30ef\U+30c3\U+30b7\U+30e3\U+ff08\U+ff540.7\U+3000\U+03c610)
  7
ＭＳ ゴシック
 73
     1
 44
0.7828267384257847
1001
ACAD
1000
MTEXTBEGIN
1070
    73
1070
     1
1070
    44
1040
0.7828267384257847
1070
    74
1070
     0
1000
MTEXTEND
  0
MTEXT
  5
312
330
A
100
AcDbEntity
  8
49
 62
     7
100
AcDbMText
 10
2895.680330948497
 20
882.3232769906896
 30
0.0
 40
23.72577095031751
 41
0.0
 71
     5
 72
     1
  1
\U+2466\U+30bb\U+30e0\U+30b9\U+30cd\U+30b8\U+ff08\U+ff2d\U+ff14\U+ff38\U+ff115\U+ff09
  7
ＭＳ ゴシック
 73
     1
 44
0.7828267384257847
1001
ACAD
1000
MTEXTBEGIN
1070
    73
1070
     1
1070
    44
1040
0.7828267384257847
1070
    74
1070
     0
1000
MTEXTEND
  0
ARC
  5
313
330
A
100
AcDbEntity
  8
49
  6
Continuous
 62
     7
370
    15
100
AcDbCircle
 10
2858.040480467875
 20
1803.765918399598
 30
0.0
 40
37.0
100
AcDbArc
 50
0.0
 51
90.0
  0
LINE
  5
314
330
A
100
AcDbEntity
  8
49
  6
Continuous
 62
     7
370
    15
100
AcDbLine
 10
2895.040480467875
 20
1782.502844420006
 30
0.0
 11
2895.040480467875
 21
1888.265918399597
 31
0.0
  0
LINE
  5
315
330
A
100
AcDbEntity
  8
49
  6
Continuous
 62
     7
370
    15
100
AcDbLine
 10
2902.040480467875
 20
1877.265918399597
 30
0.0
 11
2904.040480467875
 21
1877.265918399597
 31
0.0
  0
LINE
  5
316
330
A
100
AcDbEntity
  8
49
  6
Continuous
 62
     7
370
    15
100
AcDbLine
 10
2902.040480467875
 20
1718.265918399598
 30
0.0
 11
2904.040480467875
 21
1718.265918399598
 31
0.0
  0
MTEXT
  5
317
330
A
100
AcDbEntity
  8
49
 62
     7
100
AcDbMText
 10
2037.497184422099
 20
1891.01602437895
 30
0.0
 40
11.3432416915895
 41
0.0
 71
     2
 72
     1
  1
R138
  7
ＭＳ ゴシック
 11
-0.3471536207841421
 21
0.9378082765557469
 31
0.0
 73
     1
 44
0.7828267384257846
1001
ACAD
1000
MTEXTBEGIN
1070
    73
1070
     1
1070
    44
1040
0.7828267384257846
1070
    74
1070
     0
1000
MTEXTEND
  0
LINE
  5
318
330
A
100
AcDbEntity
  8
49
  6
Continuous
 62
     7
370
    15
100
AcDbLine
 10
2054.632915097977
 20
1882.457802965924
 30
0.0
 11
2040.163147856485
 21
1920.379844410918
 31
0.0
  0
LINE
  5
319
330
A
100
AcDbEntity
  8
49
  6
Continuous
 62
     7
370
    15
100
AcDbLine
 10
2040.163147856485
 20
1920.379844410918
 30
0.0
 11
2041.137219944916
 21
1909.949033833271
 31
0.0
  0
LINE
  5
31A
330
A
100
AcDbEntity
  8
49
  6
Continuous
 62
     7
370
    15
100
AcDbLine
 10
2040.163147856485
 20
1920.379844410918
 30
0.0
 11
2046.135625557161
 21
1911.948396078169
 31
0.0
  0
LINE
  5
31B
330
A
100
AcDbEntity
  8
49
  6
Continuous
 62
     7
370
    15
100
AcDbLine
 10
2090.187722177058
 20
1970.453418399598
 30
0.0
 11
2120.187722177059
 21
1970.453418399598
 31
0.0
  0
LINE
  5
31C
330
A
100
AcDbEntity
  8
49
  6
Continuous
 62
     7
370
    15
100
AcDbLine
 10
2120.187722177059
 20
1970.453418399598
 30
0.0
 11
2105.187722177058
 21
1975.453418399598
 31
0.0
  0
LINE
  5
31D
330
A
100
AcDbEntity
  8
49
  6
Continuous
 62
     7
370
    15
100
AcDbLine
 10
2105.187722177058
 20
1975.453418399598
 30
0.0
 11
2105.187722177058
 21
1967.453418399598
 31
0.0
  0
MTEXT
  5
31E
330
A
100
AcDbEntity
  8
49
 62
     7
100
AcDbMText
 10
2139.728842433755
 20
1971.926650123928
 30
0.0
 40
30.0
 41
0.0
 71
     5
 72
     1
  1
A
  7
ＭＳ ゴシック
 11
0.0
 21
-1.0
 31
0.0
 73
     1
 44
0.7828267384257842
1001
ACAD
1000
MTEXTBEGIN
1070
    73
1070
     1
1070
    44
1040
0.7828267384257842
1070
    74
1070
     0
1000
MTEXTEND
  0
LINE
  5
31F
330
A
100
AcDbEntity
  8
49
  6
Continuous
 62
     7
370
    15
100
AcDbLine
 10
2090.187722177058
 20
1376.99556125674
 30
0.0
 11
2120.187722177059
 21
1376.99556125674
 31
0.0
  0
LINE
  5
320
330
A
100
AcDbEntity
  8
49
  6
Continuous
 62
     7
370
    15
100
AcDbLine
 10
2120.187722177059
 20
1376.99556125674
 30
0.0
 11
2105.187722177058
 21
1371.99556125674
 31
0.0
  0
LINE
  5
321
330
A
100
AcDbEntity
  8
49
  6
Continuous
 62
     7
370
    15
100
AcDbLine
 10
2105.187722177058
 20
1371.99556125674
 30
0.0
 11
2105.187722177058
 21
1379.99556125674
 31
0.0
  0
MTEXT
  5
322
330
A
100
AcDbEntity
  8
49
 62
     7
100
AcDbMText
 10
2142.366903957192
 20
1377.897292213772
 30
0.0
 40
30.0
 41
0.0
 71
     5
 72
     1
  1
A
  7
ＭＳ ゴシック
 11
0.0
 21
-1.0
 31
0.0
 73
     1
 44
0.7828267384257842
1001
ACAD
1000
MTEXTBEGIN
1070
    73
1070
     1
1070
    44
1040
0.7828267384257842
1070
    74
1070
     0
1000
MTEXTEND
  0
MTEXT
  5
323
330
A
100
AcDbEntity
  8
49
 62
     7
100
AcDbMText
 10
2779.496420558755
 20
1304.280898170803
 30
0.0
 40
30.0
 41
0.0
 71
     5
 72
     1
  1
A-A\U+65ad\U+9762\U+56f3
  7
ＭＳ ゴシック
 73
     1
 44
0.7828267384257842
1001
ACAD
1000
MTEXTBEGIN
1070
    73
1070
     1
1070
    44
1040
0.7828267384257842
1070
    74
1070
     0
1000
MTEXTEND
  0
CIRCLE
  5
324
330
A
100
AcDbEntity
  8
1
  6
Continuous
 62
     7
370
    15
100
AcDbCircle
 10
2023.260987541317
 20
1253.104169350438
 30
0.0
 40
41.78443789259357
  0
MTEXT
  5
325
330
A
100
AcDbEntity
  8
1
 62
     7
100
AcDbMText
 10
2963.563266164304
 20
708.2794656975661
 30
0.0
 40
32.57682291666667
 41
0.0
 71
     5
 72
     1
  1
GB\U+30b7\U+30f3\U+30af\U+ff08\U+6d17\U+5264\U+30ab\U+30b4\U+6709\U+308a\U+ff09
  7
ＭＳ ゴシック
 73
     1
 44
0.7828267384257846
1001
ACAD
1000
MTEXTBEGIN
1070
    73
1070
     1
1070
    44
1040
0.7828267384257846
1070
    74
1070
     0
1000
MTEXTEND
  0
ARC
  5
326
330
A
100
AcDbEntity
  8
49
  6
Continuous
 62
     7
370
    15
100
AcDbCircle
 10
2700.009217811084
 20
1902.224626174608
 30
0.0
 40
5.999999999999896
100
AcDbArc
 50
181.21887523513
 51
270.0
  0
ARC
  5
327
330
A
100
AcDbEntity
  8
49
  6
Continuous
 62
     7
370
    15
100
AcDbCircle
 10
2700.009217811084
 20
1902.224626174607
 30
0.0
 40
3.000000000000063
100
AcDbArc
 50
181.2188752351321
 51
270.0
  0
LINE
  5
328
330
A
100
AcDbEntity
  8
49
  6
Continuous
 62
     7
370
    15
100
AcDbLine
 10
2702.041838241167
 20
1853.702103055126
 30
0.0
 11
2701.997927276389
 21
1855.765918399598
 31
0.0
  0
LINE
  5
329
330
A
100
AcDbEntity
  8
49
  6
Continuous
 62
     7
370
    15
100
AcDbLine
 10
2701.073273919471
 20
1899.224626174607
 30
0.0
 11
2701.008208518916
 21
1902.282700000631
 31
0.0
  0
LINE
  5
32A
330
A
100
AcDbEntity
  8
49
  6
Continuous
 62
     7
370
    15
100
AcDbLine
 10
2701.073273919471
 20
1899.224626174607
 30
0.0
 11
2701.137103706705
 21
1896.224626174608
 31
0.0
  0
LINE
  5
32B
330
A
100
AcDbEntity
  8
49
  6
Continuous
 62
     7
370
    15
100
AcDbLine
 10
2701.934112439898
 20
1858.765215714678
 30
0.0
 11
2701.137103706705
 21
1896.224626174608
 31
0.0
  0
LINE
  5
32C
330
A
100
AcDbEntity
  8
49
  6
Continuous
 62
     7
370
    15
100
AcDbLine
 10
2715.040480467875
 20
1840.765918399598
 30
0.0
 11
2858.040480467875
 21
1840.765918399598
 31
0.0
  0
LINE
  5
32D
330
A
100
AcDbEntity
  8
49
  6
Continuous
 62
     7
370
    15
100
AcDbLine
 10
2709.040480467875
 20
1850.765918399597
 30
0.0
 11
2705.041159431337
 21
1850.765918399597
 31
0.0
  0
ARC
  5
32E
330
A
100
AcDbEntity
  8
49
  6
Continuous
 62
     7
370
    15
100
AcDbCircle
 10
2705.041159431337
 20
1853.765918399598
 30
0.0
 40
3.000000000000069
100
AcDbArc
 50
181.2188752351365
 51
270.0
  0
ARC
  5
32F
330
A
100
AcDbEntity
  8
49
  6
Continuous
 62
     7
370
    15
100
AcDbCircle
 10
2709.040480467875
 20
1847.765918399598
 30
0.0
 40
3.0
100
AcDbArc
 50
0.0
 51
90.0
  0
LINE
  5
330
330
A
100
AcDbEntity
  8
49
  6
Continuous
 62
     7
370
    15
100
AcDbLine
 10
2781.381360569916
 20
1899.224626174608
 30
0.0
 11
2720.494150748488
 21
1899.224626174608
 31
0.0
  0
LINE
  5
331
330
A
100
AcDbEntity
  8
49
  6
Continuous
 62
     7
370
    15
100
AcDbLine
 10
2781.381360569916
 20
1896.224626174608
 30
0.0
 11
2720.494150748488
 21
1896.224626174608
 31
0.0
  0
LINE
  5
332
330
A
100
AcDbEntity
  8
49
  6
Continuous
 62
     7
370
    15
100
AcDbLine
 10
2781.381360569916
 20
1858.765918399598
 30
0.0
 11
2711.944704027691
 21
1858.765918399598
 31
0.0
  0
LINE
  5
333
330
A
100
AcDbEntity
  8
49
  6
Continuous
 62
     7
370
    15
100
AcDbLine
 10
2781.381360569916
 20
1855.765918399598
 30
0.0
 11
2711.944704027691
 21
1855.765918399598
 31
0.0
  0
LINE
  5
334
330
A
100
AcDbEntity
  8
49
  6
Continuous
 62
     7
370
    15
100
AcDbLine
 10
2785.381360569915
 20
1923.925628221026
 30
0.0
 11
2787.199602548699
 21
1922.540165713234
 31
0.0
  0
LINE
  5
335
330
A
100
AcDbEntity
  8
49
  6
Continuous
 62
     7
370
    15
100
AcDbLine
 10
2785.381360569916
 20
1855.616740648139
 30
0.0
 11
2787.50367072359
 21
1857.741032733217
 31
0.0
  0
ARC
  5
336
330
A
100
AcDbEntity
  8
49
  6
Continuous
 62
     7
370
    15
100
AcDbCircle
 10
2785.381360569916
 20
1859.861362804599
 30
0.0
 40
2.99999999999989
100
AcDbArc
 50
315.0267405068869
 51
0.0
  0
ARC
  5
337
330
A
100
AcDbEntity
  8
49
  6
Continuous
 62
     7
370
    15
100
AcDbCircle
 10
2785.381360569916
 20
1920.15395614436
 30
0.0
 40
3.0
100
AcDbArc
 50
0.0
 51
52.69335451924436
  0
LINE
  5
338
330
A
100
AcDbEntity
  8
49
  6
Continuous
 62
     7
370
    15
100
AcDbLine
 10
2785.381360569915
 20
1855.765918399598
 30
0.0
 11
2785.381360569915
 21
1861.653596971027
 31
0.0
  0
ARC
  5
339
330
A
100
AcDbEntity
  8
49
  6
Continuous
 62
     7
370
    15
100
AcDbCircle
 10
2014.687722177058
 20
1249.198156920006
 30
0.0
 40
1.5
100
AcDbArc
 50
90.0
 51
180.0
  0
ARC
  5
33A
330
A
100
AcDbEntity
  8
49
  6
Continuous
 62
     7
370
    15
100
AcDbCircle
 10
2014.687722177058
 20
1249.198156920006
 30
0.0
 40
1.5
100
AcDbArc
 50
0.0
 51
90.0
  0
LINE
  5
33B
330
A
100
AcDbEntity
  8
49
  6
Continuous
 62
     7
370
    15
100
AcDbLine
 10
2014.687722177058
 20
1250.698156920006
 30
0.0
 11
2020.935256027971
 21
1250.698156920006
 31
0.0
  0
LINE
  5
33C
330
A
100
AcDbEntity
  8
49
  6
Continuous
 62
     7
370
    15
100
AcDbLine
 10
2016.187722177058
 20
1246.698156920006
 30
0.0
 11
2164.187722177058
 21
1246.698156920006
 31
0.0
  0
LINE
  5
33D
330
A
100
AcDbEntity
  8
49
  6
Continuous
 62
     7
370
    15
100
AcDbLine
 10
1976.881561773172
 20
1247.698156920006
 30
0.0
 11
2023.693257891344
 21
1247.698156920006
 31
0.0
  0
LINE
  5
33E
330
A
100
AcDbEntity
  8
49
  6
Continuous
 62
     7
370
    15
100
AcDbLine
 10
2149.421277891344
 20
1250.698156920006
 30
0.0
 11
2014.687722177058
 21
1250.698156920006
 31
0.0
  0
ARC
  5
33F
330
A
100
AcDbEntity
  8
49
  6
Continuous
 62
     7
370
    15
100
AcDbCircle
 10
2165.687722177058
 20
1249.198156920006
 30
0.0
 40
1.5
100
AcDbArc
 50
90.0
 51
180.0
  0
ARC
  5
340
330
A
100
AcDbEntity
  8
49
  6
Continuous
 62
     7
370
    15
100
AcDbCircle
 10
2165.687722177058
 20
1249.198156920006
 30
0.0
 40
1.5
100
AcDbArc
 50
0.0
 51
90.0
  0
LINE
  5
341
330
A
100
AcDbEntity
  8
49
  6
Continuous
 62
     7
370
    15
100
AcDbLine
 10
2165.687722177058
 20
1250.698156920006
 30
0.0
 11
2149.421277891344
 21
1250.698156920006
 31
0.0
  0
LINE
  5
342
330
A
100
AcDbEntity
  8
49
  6
Continuous
 62
     7
370
    15
100
AcDbLine
 10
2167.187722177058
 20
1247.698156920006
 30
0.0
 11
2210.272900748487
 21
1247.698156920006
 31
0.0
  0
LINE
  5
343
330
A
100
AcDbEntity
  8
49
  6
Continuous
 62
     7
370
    15
100
AcDbLine
 10
1976.881561773172
 20
1247.698156920006
 30
0.0
 11
2013.187722177058
 21
1247.698156920006
 31
0.0
  0
CIRCLE
  5
344
330
A
100
AcDbEntity
  8
49
  6
Continuous
 62
     7
370
    15
100
AcDbCircle
 10
2166.468423203609
 20
1860.265918399598
 30
0.0
 40
1.5
  0
CIRCLE
  5
345
330
A
100
AcDbEntity
  8
49
  6
Continuous
 62
     7
370
    15
100
AcDbCircle
 10
2013.776692488965
 20
1860.265918399598
 30
0.0
 40
1.5
  0
LINE
  5
346
330
A
100
AcDbEntity
  8
49
  6
Continuous
 62
     7
370
    15
100
AcDbLine
 10
2701.934112439898
 20
1855.765918399598
 30
0.0
 11
2701.934112439898
 21
1859.008046110056
 31
0.0
  0
LINE
  5
347
330
A
100
AcDbEntity
  8
49
  6
Continuous
 62
     7
370
    15
100
AcDbLine
 10
2711.944704027691
 20
1899.224626174607
 30
0.0
 11
2729.349700748487
 21
1899.224626174608
 31
0.0
  0
LINE
  5
348
330
A
100
AcDbEntity
  8
49
  6
Continuous
 62
     7
370
    15
100
AcDbLine
 10
2711.944704027691
 20
1896.224626174608
 30
0.0
 11
2728.988704319915
 21
1896.224626174608
 31
0.0
  0
LINE
  5
349
330
A
100
AcDbEntity
  8
49
  6
Continuous
 62
     7
370
    15
100
AcDbLine
 10
2694.722186443474
 20
1939.167233528392
 30
0.0
 11
2695.530721638617
 21
1901.166079356838
 31
0.0
  0
LINE
  5
34A
330
A
100
AcDbEntity
  8
49
  6
Continuous
 62
     7
370
    15
100
AcDbLine
 10
2783.381360569916
 20
1855.765918399598
 30
0.0
 11
2783.381360569916
 21
1923.765918399597
 31
0.0
  0
LINE
  5
34B
330
A
100
AcDbEntity
  8
49
  6
Continuous
 62
     7
370
    15
100
AcDbLine
 10
2712.040480467875
 20
1926.765918399597
 30
0.0
 11
2712.040480467875
 21
1847.765918399598
 31
0.0
  0
ARC
  5
34C
330
A
100
AcDbEntity
  8
49
  6
Continuous
 62
     7
370
    15
100
AcDbCircle
 10
2709.040480467875
 20
1926.765918399597
 30
0.0
 40
3.0
100
AcDbArc
 50
0.0
 51
90.0
  0
LINE
  5
34D
330
A
100
AcDbEntity
  8
49
  6
Continuous
 62
     7
370
    15
100
AcDbLine
 10
2695.530721638617
 20
1816.018469420006
 30
0.0
 11
2783.381360569916
 21
1816.018469420006
 31
0.0
  0
LINE
  5
34E
330
A
100
AcDbEntity
  8
49
  6
Continuous
 62
     7
370
    15
100
AcDbLine
 10
2695.530721638617
 20
1816.018469420006
 30
0.0
 11
2714.849238164398
 21
1821.194850322056
 31
0.0
  0
LINE
  5
34F
330
A
100
AcDbEntity
  8
49
  6
Continuous
 62
     7
370
    15
100
AcDbLine
 10
2695.530721638617
 20
1816.018469420006
 30
0.0
 11
2714.849238164398
 21
1810.842088517955
 31
0.0
  0
LINE
  5
350
330
A
100
AcDbEntity
  8
49
  6
Continuous
 62
     7
370
    15
100
AcDbLine
 10
2783.381360569916
 20
1816.018469420006
 30
0.0
 11
2764.062844044135
 21
1810.842088517955
 31
0.0
  0
LINE
  5
351
330
A
100
AcDbEntity
  8
49
  6
Continuous
 62
     7
370
    15
100
AcDbLine
 10
2783.381360569916
 20
1816.018469420006
 30
0.0
 11
2764.062844044135
 21
1821.194850322056
 31
0.0
  0
LINE
  5
352
330
A
100
AcDbEntity
  8
49
  6
Continuous
 62
     7
370
    15
100
AcDbLine
 10
2695.530721638617
 20
1896.166079356838
 30
0.0
 11
2695.530721638617
 21
1811.018469420006
 31
0.0
  0
LINE
  5
353
330
A
100
AcDbEntity
  8
49
  6
Continuous
 62
     7
370
    15
100
AcDbLine
 10
2783.381360569916
 20
1850.765918399597
 30
0.0
 11
2783.381360569916
 21
1811.018469420006
 31
0.0
  0
MTEXT
  5
354
330
A
100
AcDbEntity
  8
49
 62
     7
100
AcDbMText
 10
2739.456015281827
 20
1841.018446998928
 30
0.0
 40
20.0
 41
0.0
 71
     2
 72
     1
  1
90
  7
ＭＳ ゴシック
 11
1.0
 21
0.0000000001745329
 31
0.0
 73
     1
 44
0.7828267384257846
1001
ACAD
1000
MTEXTBEGIN
1070
    73
1070
     1
1070
    44
1040
0.7828267384257846
1070
    74
1070
     0
1000
MTEXTEND
  0
LINE
  5
355
330
A
100
AcDbEntity
  8
33
  6
Continuous
 62
     7
370
    15
100
AcDbLine
 10
1061.134082536974
 20
1873.86967040836
 30
0.0
 11
1127.579313517926
 21
1857.594444395532
 31
0.0
  0
LINE
  5
356
330
A
100
AcDbEntity
  8
33
  6
Continuous
 62
     7
370
    15
100
AcDbLine
 10
1061.134082536974
 20
1873.86967040836
 30
0.0
 11
1081.129422794259
 21
1874.301374005055
 31
0.0
  0
LINE
  5
357
330
A
100
AcDbEntity
  8
33
  6
Continuous
 62
     7
370
    15
100
AcDbLine
 10
1061.134082536974
 20
1873.86967040836
 30
0.0
 11
1078.666406955444
 21
1864.245866561361
 31
0.0
  0
CIRCLE
  5
358
330
A
100
AcDbEntity
  8
33
  6
Continuous
 62
     7
370
    15
100
AcDbCircle
 10
1151.861499358693
 20
1851.646717872356
 30
0.0
 40
25.0
  0
MTEXT
  5
359
330
A
100
AcDbEntity
  8
33
 62
     7
100
AcDbMText
 10
1151.861485736039
 20
1851.646736726594
 30
0.0
 40
20.0
 41
0.0
 71
     5
 72
     1
  1
5
  7
ＭＳ ゴシック
 73
     1
 44
0.7828267384257846
1001
ACAD
1000
MTEXTBEGIN
1070
    73
1070
     1
1070
    44
1040
0.7828267384257846
1070
    74
1070
     0
1000
MTEXTEND
  0
LINE
  5
35A
330
A
100
AcDbEntity
  8
33
  6
Continuous
 62
     7
370
    15
100
AcDbLine
 10
1071.549030144008
 20
1882.163108796907
 30
0.0
 11
1071.549030144008
 21
1860.163108796907
 31
0.0
  0
LINE
  5
35B
330
A
100
AcDbEntity
  8
33
  6
Continuous
 62
     7
370
    15
100
AcDbLine
 10
1036.549030144008
 20
1883.663108796907
 30
0.0
 11
1272.888315858294
 21
1883.663108796907
 31
0.0
  0
LINE
  5
35C
330
A
100
AcDbEntity
  8
33
  6
Continuous
 62
     7
370
    15
100
AcDbLine
 10
1001.549030144008
 20
1882.163108796907
 30
0.0
 11
1001.549030144008
 21
1860.163108796907
 31
0.0
  0
LINE
  5
35D
330
A
100
AcDbEntity
  8
33
  6
Continuous
 62
     7
370
    15
100
AcDbLine
 10
1009.549030144008
 20
1861.163108796907
 30
0.0
 11
1012.822729862713
 21
1861.163108796907
 31
0.0
  0
LINE
  5
35E
330
A
100
AcDbEntity
  8
33
  6
Continuous
 62
     7
370
    15
100
AcDbLine
 10
1019.049030144008
 20
1861.163108796907
 30
0.0
 11
1026.549030144008
 21
1861.163108796907
 31
0.0
  0
LINE
  5
35F
330
A
100
AcDbEntity
  8
33
  6
Continuous
 62
     7
370
    15
100
AcDbLine
 10
1009.049030144008
 20
1859.163108796907
 30
0.0
 11
1009.049030144008
 21
1860.663108796907
 31
0.0
  0
LINE
  5
360
330
A
100
AcDbEntity
  8
33
  6
Continuous
 62
     7
370
    15
100
AcDbLine
 10
1064.049030144008
 20
1859.163108796907
 30
0.0
 11
1064.049030144008
 21
1860.663108796906
 31
0.0
  0
LINE
  5
361
330
A
100
AcDbEntity
  8
33
  6
Continuous
 62
     7
370
    15
100
AcDbLine
 10
1063.549030144008
 20
1861.163108796906
 30
0.0
 11
1058.607299462713
 21
1861.163108796907
 31
0.0
  0
LINE
  5
362
330
A
100
AcDbEntity
  8
33
  6
Continuous
 62
     7
370
    15
100
AcDbLine
 10
1011.549030144008
 20
1859.163108796907
 30
0.0
 11
1011.549030144008
 21
1860.663108796907
 31
0.0
  0
LINE
  5
363
330
A
100
AcDbEntity
  8
33
  6
Continuous
 62
     7
370
    15
100
AcDbLine
 10
1061.549030144008
 20
1860.663108796907
 30
0.0
 11
1061.549030144008
 21
1859.163108796907
 31
0.0
  0
LINE
  5
364
330
A
100
AcDbEntity
  8
33
  6
Continuous
 62
     7
370
    15
100
AcDbLine
 10
1021.549030144008
 20
1858.163108796907
 30
0.0
 11
1021.549030144008
 21
1855.163108796907
 31
0.0
  0
LINE
  5
365
330
A
100
AcDbEntity
  8
33
  6
Continuous
 62
     7
370
    15
100
AcDbLine
 10
1051.549030144008
 20
1858.163108796907
 30
0.0
 11
1051.549030144008
 21
1855.163108796907
 31
0.0
  0
LINE
  5
366
330
A
100
AcDbEntity
  8
33
  6
Continuous
 62
     7
370
    15
100
AcDbLine
 10
1036.549030144008
 20
1858.663108796907
 30
0.0
 11
1051.049030144008
 21
1858.663108796907
 31
0.0
  0
LINE
  5
367
330
A
100
AcDbEntity
  8
33
  6
Continuous
 62
     7
370
    15
100
AcDbLine
 10
1022.049030144008
 20
1854.663108796907
 30
0.0
 11
1026.549030144008
 21
1854.663108796907
 31
0.0
  0
LINE
  5
368
330
A
100
AcDbEntity
  8
33
  6
Continuous
 62
     7
370
    15
100
AcDbLine
 10
1051.049030144008
 20
1854.663108796907
 30
0.0
 11
1036.549030144008
 21
1854.663108796907
 31
0.0
  0
LINE
  5
369
330
A
100
AcDbEntity
  8
33
  6
Continuous
 62
     7
370
    15
100
AcDbLine
 10
1026.312535315518
 20
1854.663108796907
 30
0.0
 11
1036.549030144008
 21
1854.663108796907
 31
0.0
  0
ARC
  5
36A
330
A
100
AcDbEntity
  8
33
  6
Continuous
 62
     7
370
    15
100
AcDbCircle
 10
1041.549030144008
 20
1851.400744667932
 30
0.0
 40
10.00000000000004
100
AcDbArc
 50
308.3274571091442
 51
0.0
  0
ARC
  5
36B
330
A
100
AcDbEntity
  8
33
  6
Continuous
 62
     7
370
    15
100
AcDbCircle
 10
1031.549030144008
 20
1851.400744667932
 30
0.0
 40
10.0
100
AcDbArc
 50
180.0
 51
231.6725428908557
  0
LINE
  5
36C
330
A
100
AcDbEntity
  8
33
  6
Continuous
 62
     7
370
    15
100
AcDbLine
 10
1051.549030144008
 20
1851.400744667932
 30
0.0
 11
1051.549030144008
 21
1854.163108796907
 31
0.0
  0
LINE
  5
36D
330
A
100
AcDbEntity
  8
33
  6
Continuous
 62
     7
370
    15
100
AcDbLine
 10
1021.549030144008
 20
1851.400744667932
 30
0.0
 11
1021.549030144008
 21
1854.163108796907
 31
0.0
  0
ARC
  5
36E
330
A
100
AcDbEntity
  8
33
  6
Continuous
 62
     7
370
    15
100
AcDbCircle
 10
1003.049030144008
 20
1860.163108796907
 30
0.0
 40
1.5
100
AcDbArc
 50
180.0
 51
270.0
  0
ARC
  5
36F
330
A
100
AcDbEntity
  8
33
  6
Continuous
 62
     7
370
    15
100
AcDbCircle
 10
1003.049030144008
 20
1882.163108796907
 30
0.0
 40
1.5
100
AcDbArc
 50
90.0
 51
180.0
  0
ARC
  5
370
330
A
100
AcDbEntity
  8
33
  6
Continuous
 62
     7
370
    15
100
AcDbCircle
 10
1070.049030144008
 20
1882.163108796907
 30
0.0
 40
1.5
100
AcDbArc
 50
0.0
 51
90.0
  0
ARC
  5
371
330
A
100
AcDbEntity
  8
33
  6
Continuous
 62
     7
370
    15
100
AcDbCircle
 10
1070.049030144008
 20
1860.163108796907
 30
0.0
 40
1.5
100
AcDbArc
 50
270.0
 51
0.0
  0
LINE
  5
372
330
A
100
AcDbEntity
  8
33
  6
Continuous
 62
     7
370
    15
100
AcDbLine
 10
866.2811730011544
 20
1883.663108796907
 30
0.0
 11
1026.549030144008
 21
1883.663108796907
 31
0.0
  0
LINE
  5
373
330
A
100
AcDbEntity
  8
33
  6
Continuous
 62
     7
370
    15
100
AcDbLine
 10
1012.049030144008
 20
1861.163108796907
 30
0.0
 11
1019.049030144008
 21
1861.163108796907
 31
0.0
  0
LINE
  5
374
330
A
100
AcDbEntity
  8
33
  6
Continuous
 62
     7
370
    15
100
AcDbLine
 10
1061.049030144008
 20
1861.163108796907
 30
0.0
 11
1036.549030144008
 21
1861.163108796907
 31
0.0
  0
LINE
  5
375
330
A
100
AcDbEntity
  8
33
  6
Continuous
 62
     7
370
    15
100
AcDbLine
 10
1022.049030144008
 20
1858.663108796907
 30
0.0
 11
1026.549030144008
 21
1858.663108796907
 31
0.0
  0
ARC
  5
376
330
A
100
AcDbEntity
  8
33
  6
Continuous
 62
     7
370
    15
100
AcDbCircle
 10
1012.049030144008
 20
1860.663108796907
 30
0.0
 40
0.5
100
AcDbArc
 50
90.0
 51
180.0
  0
ARC
  5
377
330
A
100
AcDbEntity
  8
33
  6
Continuous
 62
     7
370
    15
100
AcDbCircle
 10
1012.049030144008
 20
1859.163108796907
 30
0.0
 40
0.5
100
AcDbArc
 50
180.0
 51
270.0
  0
ARC
  5
378
330
A
100
AcDbEntity
  8
33
  6
Continuous
 62
     7
370
    15
100
AcDbCircle
 10
1061.049030144008
 20
1860.663108796907
 30
0.0
 40
0.5
100
AcDbArc
 50
0.0
 51
90.0
  0
ARC
  5
379
330
A
100
AcDbEntity
  8
33
  6
Continuous
 62
     7
370
    15
100
AcDbCircle
 10
1061.049030144008
 20
1859.163108796907
 30
0.0
 40
0.5
100
AcDbArc
 50
270.0
 51
0.0
  0
ARC
  5
37A
330
A
100
AcDbEntity
  8
33
  6
Continuous
 62
     7
370
    15
100
AcDbCircle
 10
1022.049030144008
 20
1855.163108796907
 30
0.0
 40
0.5
100
AcDbArc
 50
180.0
 51
270.0
  0
ARC
  5
37B
330
A
100
AcDbEntity
  8
33
  6
Continuous
 62
     7
370
    15
100
AcDbCircle
 10
1022.049030144008
 20
1858.163108796907
 30
0.0
 40
0.5
100
AcDbArc
 50
90.0
 51
180.0
  0
ARC
  5
37C
330
A
100
AcDbEntity
  8
33
  6
Continuous
 62
     7
370
    15
100
AcDbCircle
 10
1051.049030144008
 20
1858.163108796907
 30
0.0
 40
0.5
100
AcDbArc
 50
0.0
 51
90.0
  0
ARC
  5
37D
330
A
100
AcDbEntity
  8
33
  6
Continuous
 62
     7
370
    15
100
AcDbCircle
 10
1051.049030144008
 20
1855.163108796907
 30
0.0
 40
0.5
100
AcDbArc
 50
270.0
 51
0.0
  0
ARC
  5
37E
330
A
100
AcDbEntity
  8
33
  6
Continuous
 62
     7
370
    15
100
AcDbCircle
 10
1022.049030144008
 20
1854.163108796907
 30
0.0
 40
0.5
100
AcDbArc
 50
90.0
 51
180.0
  0
ARC
  5
37F
330
A
100
AcDbEntity
  8
33
  6
Continuous
 62
     7
370
    15
100
AcDbCircle
 10
1051.049030144008
 20
1854.163108796907
 30
0.0
 40
0.5
100
AcDbArc
 50
0.0
 51
90.0
  0
LINE
  5
380
330
A
100
AcDbEntity
  8
33
  6
Continuous
 62
     7
370
    15
100
AcDbLine
 10
1012.049030144008
 20
1858.663108796907
 30
0.0
 11
1026.549030144008
 21
1858.663108796907
 31
0.0
  0
LINE
  5
381
330
A
100
AcDbEntity
  8
33
  6
Continuous
 62
     7
370
    15
100
AcDbLine
 10
1048.502966291284
 20
1858.663108796907
 30
0.0
 11
1061.049030144008
 21
1858.663108796907
 31
0.0
  0
LINE
  5
382
330
A
100
AcDbEntity
  8
33
  6
Continuous
 62
     7
370
    15
100
AcDbLine
 10
1003.001444832649
 20
1858.663108796907
 30
0.0
 11
1008.049030144008
 21
1858.663108796907
 31
0.0
  0
ARC
  5
383
330
A
100
AcDbEntity
  8
33
  6
Continuous
 62
     7
370
    15
100
AcDbCircle
 10
1063.549030144008
 20
1860.663108796906
 30
0.0
 40
0.5
100
AcDbArc
 50
0.0
 51
90.0
  0
ARC
  5
384
330
A
100
AcDbEntity
  8
33
  6
Continuous
 62
     7
370
    15
100
AcDbCircle
 10
1064.549030144008
 20
1859.163108796907
 30
0.0
 40
0.5
100
AcDbArc
 50
180.0
 51
270.0
  0
ARC
  5
385
330
A
100
AcDbEntity
  8
33
  6
Continuous
 62
     7
370
    15
100
AcDbCircle
 10
1008.549030144008
 20
1859.163108796907
 30
0.0
 40
0.5
100
AcDbArc
 50
270.0
 51
0.0
  0
ARC
  5
386
330
A
100
AcDbEntity
  8
33
  6
Continuous
 62
     7
370
    15
100
AcDbCircle
 10
1009.549030144008
 20
1860.663108796907
 30
0.0
 40
0.5
100
AcDbArc
 50
90.0
 51
180.0
  0
LINE
  5
387
330
A
100
AcDbEntity
  8
33
  6
Continuous
 62
     7
370
    15
100
AcDbLine
 10
939.0775414698559
 20
1858.663108796907
 30
0.0
 11
998.7427200412843
 21
1858.663108796907
 31
0.0
  0
LINE
  5
388
330
A
100
AcDbEntity
  8
33
  6
Continuous
 62
     7
370
    15
100
AcDbLine
 10
945.4056441484269
 20
1824.808689154049
 30
0.0
 11
945.4056441484269
 21
1858.663108796907
 31
0.0
  0
LINE
  5
389
330
A
100
AcDbEntity
  8
33
  6
Continuous
 62
     7
370
    15
100
AcDbLine
 10
945.4056441484269
 20
1858.663108796907
 30
0.0
 11
950.5820250504774
 21
1839.344592271126
 31
0.0
  0
LINE
  5
38A
330
A
100
AcDbEntity
  8
33
  6
Continuous
 62
     7
370
    15
100
AcDbLine
 10
945.4056441484269
 20
1858.663108796907
 30
0.0
 11
940.2292632463764
 21
1839.344592271126
 31
0.0
  0
LINE
  5
38B
330
A
100
AcDbEntity
  8
33
  6
Continuous
 62
     7
370
    15
100
AcDbLine
 10
1056.666677710289
 20
1858.663108796907
 30
0.0
 11
1089.095038105644
 21
1786.009503138388
 31
0.0
  0
LINE
  5
38C
330
A
100
AcDbEntity
  8
33
  6
Continuous
 62
     7
370
    15
100
AcDbLine
 10
1056.666677710289
 20
1858.663108796907
 30
0.0
 11
1069.26751642156
 21
1843.131886572866
 31
0.0
  0
LINE
  5
38D
330
A
100
AcDbEntity
  8
33
  6
Continuous
 62
     7
370
    15
100
AcDbLine
 10
1056.666677710289
 20
1858.663108796907
 30
0.0
 11
1059.813713031219
 21
1838.912256443431
 31
0.0
  0
CIRCLE
  5
38E
330
A
100
AcDbEntity
  8
33
  6
Continuous
 62
     7
370
    15
100
AcDbCircle
 10
1099.284662404167
 20
1763.180321009915
 30
0.0
 40
25.0
  0
MTEXT
  5
38F
330
A
100
AcDbEntity
  8
33
 62
     7
100
AcDbMText
 10
1099.284642474319
 20
1763.18030606253
 30
0.0
 40
20.0
 41
0.0
 71
     5
 72
     1
  1
6
  7
ＭＳ ゴシック
 73
     1
 44
0.7828267384257846
1001
ACAD
1000
MTEXTBEGIN
1070
    73
1070
     1
1070
    44
1040
0.7828267384257846
1070
    74
1070
     0
1000
MTEXTEND
  0
LINE
  5
390
330
A
100
AcDbEntity
  8
33
  6
Continuous
 62
     7
370
    15
100
AcDbLine
 10
1001.549030144008
 20
1865.734418899631
 30
0.0
 11
1019.477720041284
 21
1883.663108796907
 31
0.0
  0
LINE
  5
391
330
A
100
AcDbEntity
  8
33
  6
Continuous
 62
     7
370
    15
100
AcDbLine
 10
1001.549030144008
 20
1870.684166367936
 30
0.0
 11
1014.527972572978
 21
1883.663108796907
 31
0.0
  0
LINE
  5
392
330
A
100
AcDbEntity
  8
33
  6
Continuous
 62
     7
370
    15
100
AcDbLine
 10
1001.549030144008
 20
1875.633913836242
 30
0.0
 11
1009.578225104672
 21
1883.663108796907
 31
0.0
  0
LINE
  5
393
330
A
100
AcDbEntity
  8
33
  6
Continuous
 62
     7
370
    15
100
AcDbLine
 10
1001.549030144008
 20
1880.583661304548
 30
0.0
 11
1004.628477636367
 21
1883.663108796907
 31
0.0
  0
LINE
  5
394
330
A
100
AcDbEntity
  8
33
  6
Continuous
 62
     7
370
    15
100
AcDbLine
 10
1001.549030144008
 20
1860.784671431325
 30
0.0
 11
1024.42746750959
 21
1883.663108796907
 31
0.0
  0
LINE
  5
395
330
A
100
AcDbEntity
  8
33
  6
Continuous
 62
     7
370
    15
100
AcDbLine
 10
1004.377214977896
 20
1858.663108796907
 30
0.0
 11
1026.549030144008
 21
1880.834923963019
 31
0.0
  0
LINE
  5
396
330
A
100
AcDbEntity
  8
33
  6
Continuous
 62
     7
370
    15
100
AcDbLine
 10
1011.826962446201
 20
1861.163108796907
 30
0.0
 11
1026.549030144008
 21
1875.885176494713
 31
0.0
  0
LINE
  5
397
330
A
100
AcDbEntity
  8
33
  6
Continuous
 62
     7
370
    15
100
AcDbLine
 10
1016.776709914508
 20
1861.163108796907
 30
0.0
 11
1026.549030144008
 21
1870.935429026407
 31
0.0
  0
LINE
  5
398
330
A
100
AcDbEntity
  8
33
  6
Continuous
 62
     7
370
    15
100
AcDbLine
 10
1021.726457382813
 20
1861.163108796907
 30
0.0
 11
1026.549030144008
 21
1865.985681558102
 31
0.0
  0
LINE
  5
399
330
A
100
AcDbEntity
  8
33
  6
Continuous
 62
     7
370
    15
100
AcDbLine
 10
1046.146246826998
 20
1861.163108796907
 30
0.0
 11
1068.646246826999
 21
1883.663108796907
 31
0.0
  0
LINE
  5
39A
330
A
100
AcDbEntity
  8
33
  6
Continuous
 62
     7
370
    15
100
AcDbLine
 10
1041.196499358692
 20
1861.163108796907
 30
0.0
 11
1063.696499358693
 21
1883.663108796907
 31
0.0
  0
LINE
  5
39B
330
A
100
AcDbEntity
  8
33
  6
Continuous
 62
     7
370
    15
100
AcDbLine
 10
1036.549030144008
 20
1861.465387050528
 30
0.0
 11
1058.746751890387
 21
1883.663108796907
 31
0.0
  0
LINE
  5
39C
330
A
100
AcDbEntity
  8
33
  6
Continuous
 62
     7
370
    15
100
AcDbLine
 10
1036.549030144008
 20
1866.415134518834
 30
0.0
 11
1053.797004422081
 21
1883.663108796907
 31
0.0
  0
LINE
  5
39D
330
A
100
AcDbEntity
  8
33
  6
Continuous
 62
     7
370
    15
100
AcDbLine
 10
1036.549030144008
 20
1871.36488198714
 30
0.0
 11
1048.847256953775
 21
1883.663108796907
 31
0.0
  0
LINE
  5
39E
330
A
100
AcDbEntity
  8
33
  6
Continuous
 62
     7
370
    15
100
AcDbLine
 10
1036.549030144008
 20
1876.314629455446
 30
0.0
 11
1043.897509485469
 21
1883.663108796907
 31
0.0
  0
LINE
  5
39F
330
A
100
AcDbEntity
  8
33
  6
Continuous
 62
     7
370
    15
100
AcDbLine
 10
1036.549030144008
 20
1881.264376923752
 30
0.0
 11
1038.947762017163
 21
1883.663108796907
 31
0.0
  0
LINE
  5
3A0
330
A
100
AcDbEntity
  8
33
  6
Continuous
 62
     7
370
    15
100
AcDbLine
 10
1051.095994295303
 20
1861.163108796907
 30
0.0
 11
1071.549030144008
 21
1881.616144645611
 31
0.0
  0
LINE
  5
3A1
330
A
100
AcDbEntity
  8
33
  6
Continuous
 62
     7
370
    15
100
AcDbLine
 10
1056.04574176361
 20
1861.163108796907
 30
0.0
 11
1071.549030144008
 21
1876.666397177305
 31
0.0
  0
LINE
  5
3A2
330
A
100
AcDbEntity
  8
33
  6
Continuous
 62
     7
370
    15
100
AcDbLine
 10
1060.995489231916
 20
1861.163108796906
 30
0.0
 11
1071.549030144008
 21
1871.716649708999
 31
0.0
  0
LINE
  5
3A3
330
A
100
AcDbEntity
  8
33
  6
Continuous
 62
     7
370
    15
100
AcDbLine
 10
1064.049030144008
 20
1859.266902240693
 30
0.0
 11
1071.549030144008
 21
1866.766902240693
 31
0.0
  0
LINE
  5
3A4
330
A
100
AcDbEntity
  8
33
  6
Continuous
 62
     7
370
    15
100
AcDbLine
 10
1068.394984168527
 20
1858.663108796907
 30
0.0
 11
1071.549030144008
 21
1861.817154772387
 31
0.0
  0
LINE
  5
3A5
330
A
100
AcDbEntity
  8
33
  6
Continuous
 62
     7
370
    15
100
AcDbLine
 10
1036.549030144008
 20
1924.663108796907
 30
0.0
 11
1028.549030144008
 21
1924.663108796907
 31
0.0
  0
LINE
  5
3A6
330
A
100
AcDbEntity
  8
33
  6
Continuous
 62
     7
370
    15
100
AcDbLine
 10
1044.549030144008
 20
1924.663108796907
 30
0.0
 11
1036.549030144008
 21
1924.663108796907
 31
0.0
  0
LINE
  5
3A7
330
A
100
AcDbEntity
  8
33
  6
Continuous
 62
     7
370
    15
100
AcDbLine
 10
1044.549030144008
 20
1924.663108796907
 30
0.0
 11
1044.549030144008
 21
1915.663108796907
 31
0.0
  0
LINE
  5
3A8
330
A
100
AcDbEntity
  8
33
  6
Continuous
 62
     7
370
    15
100
AcDbLine
 10
1046.549030144008
 20
1922.663108796907
 30
0.0
 11
1046.549030144008
 21
1914.578580735683
 31
0.0
  0
LINE
  5
3A9
330
A
100
AcDbEntity
  8
33
  6
Continuous
 62
     7
370
    15
100
AcDbLine
 10
1026.549030144008
 20
1922.663108796907
 30
0.0
 11
1026.549030144008
 21
1912.430634307111
 31
0.0
  0
LINE
  5
3AA
330
A
100
AcDbEntity
  8
33
  6
Continuous
 62
     7
370
    15
100
AcDbLine
 10
1028.549030144008
 20
1924.663108796907
 30
0.0
 11
1028.549030144008
 21
1915.663108796907
 31
0.0
  0
LINE
  5
3AB
330
A
100
AcDbEntity
  8
33
  6
Continuous
 62
     7
370
    15
100
AcDbLine
 10
1036.549030144008
 20
1922.663108796907
 30
0.0
 11
1026.549030144008
 21
1922.663108796907
 31
0.0
  0
LINE
  5
3AC
330
A
100
AcDbEntity
  8
33
  6
Continuous
 62
     7
370
    15
100
AcDbLine
 10
1044.549030144008
 20
1924.663108796907
 30
0.0
 11
1046.549030144008
 21
1922.663108796907
 31
0.0
  0
LINE
  5
3AD
330
A
100
AcDbEntity
  8
33
  6
Continuous
 62
     7
370
    15
100
AcDbLine
 10
1028.549030144008
 20
1924.663108796907
 30
0.0
 11
1026.549030144008
 21
1922.663108796907
 31
0.0
  0
LINE
  5
3AE
330
A
100
AcDbEntity
  8
33
  6
Continuous
 62
     7
370
    15
100
AcDbLine
 10
1046.549030144008
 20
1922.663108796907
 30
0.0
 11
1036.549030144008
 21
1922.663108796907
 31
0.0
  0
LINE
  5
3AF
330
A
100
AcDbEntity
  8
33
  6
Continuous
 62
     7
370
    15
100
AcDbLine
 10
1272.888315858294
 20
2037.663108796907
 30
0.0
 11
1276.787018396787
 21
2025.003289873802
 31
0.0
  0
LINE
  5
3B0
330
A
100
AcDbEntity
  8
33
  6
Continuous
 62
     7
370
    15
100
AcDbLine
 10
1276.787018396787
 20
2025.003289873802
 30
0.0
 11
1272.931105495912
 21
2011.507594720741
 31
0.0
  0
LINE
  5
3B1
330
A
100
AcDbEntity
  8
33
  6
Continuous
 62
     7
370
    15
100
AcDbLine
 10
1272.931105495912
 20
2011.507594720741
 30
0.0
 11
1272.888315858294
 21
1997.663108796907
 31
0.0
  0
LINE
  5
3B2
330
A
100
AcDbEntity
  8
33
  6
Continuous
 62
     7
370
    15
100
AcDbLine
 10
1275.032273612713
 20
1912.14525165405
 30
0.0
 11
1273.069952184141
 21
1898.899582011192
 31
0.0
  0
LINE
  5
3B3
330
A
100
AcDbEntity
  8
33
  6
Continuous
 62
     7
370
    15
100
AcDbLine
 10
1273.069952184141
 20
1898.899582011192
 30
0.0
 11
1272.888315858294
 21
1887.663108796907
 31
0.0
  0
LINE
  5
3B4
330
A
100
AcDbEntity
  8
33
  6
Continuous
 62
     7
370
    15
100
AcDbLine
 10
1272.888315858294
 20
1887.663108796907
 30
0.0
 11
1272.888315858294
 21
1883.663108796907
 31
0.0
  0
LINE
  5
3B5
330
A
100
AcDbEntity
  8
33
  6
Continuous
 62
     7
370
    15
100
AcDbLine
 10
1272.888315858294
 20
1883.663108796907
 30
0.0
 11
1274.54169325557
 21
1873.389403439764
 31
0.0
  0
LINE
  5
3B6
330
A
100
AcDbEntity
  8
33
  6
Continuous
 62
     7
370
    15
100
AcDbLine
 10
1274.54169325557
 20
1873.389403439764
 30
0.0
 11
1272.579371826998
 21
1862.433108796906
 31
0.0
  0
LINE
  5
3B7
330
A
100
AcDbEntity
  8
33
  6
Continuous
 62
     7
370
    15
100
AcDbLine
 10
869.0814477198586
 20
1912.14525165405
 30
0.0
 11
866.4296620055727
 21
1898.727215939764
 31
0.0
  0
LINE
  5
3B8
330
A
100
AcDbEntity
  8
33
  6
Continuous
 62
     7
370
    15
100
AcDbLine
 10
866.4296620055727
 20
1898.727215939764
 30
0.0
 11
866.2811730011544
 21
1887.663108796907
 31
0.0
  0
LINE
  5
3B9
330
A
100
AcDbEntity
  8
33
  6
Continuous
 62
     7
370
    15
100
AcDbLine
 10
866.2811730011544
 20
1887.663108796907
 30
0.0
 11
866.2811730011544
 21
1883.663108796907
 31
0.0
  0
LINE
  5
3BA
330
A
100
AcDbEntity
  8
33
  6
Continuous
 62
     7
370
    15
100
AcDbLine
 10
866.2811730011544
 20
1883.663108796907
 30
0.0
 11
867.3135905770012
 21
1873.977215939764
 31
0.0
  0
LINE
  5
3BB
330
A
100
AcDbEntity
  8
33
  6
Continuous
 62
     7
370
    15
100
AcDbLine
 10
867.3135905770012
 20
1873.977215939764
 30
0.0
 11
863.7778762912875
 21
1862.433108796906
 31
0.0
  0
MTEXT
  5
3BC
330
A
100
AcDbEntity
  8
33
 62
     7
100
AcDbMText
 10
899.4384066427391
 20
754.4308920672874
 30
0.0
 40
22.66742134094251
 41
0.0
 71
     5
 72
     1
  1
\U+8868\U+793a\U+5916\U+516c\U+5dee\U+306f\U+3000\U+00b1\U+ff11\U+ff0e0\U+3068\U+3059\U+308b\U+3002
  7
ＭＳ ゴシック
 73
     1
 44
0.7828267384257846
1001
ACAD
1000
MTEXTBEGIN
1070
    73
1070
     1
1070
    44
1040
0.7828267384257846
1070
    74
1070
     0
1000
MTEXTEND
  0
MTEXT
  5
3BD
330
A
100
AcDbEntity
  8
33
 62
     7
100
AcDbMText
 10
995.1708814996461
 20
808.1313620379905
 30
0.0
 40
22.66742134094251
 41
0.0
 71
     5
 72
     1
  1
\U+8868\U+9762\U+4ed5\U+69d8\U+306f\U+3001\U+ff22\U+ff21\U+6750\U+3092\U+30d7\U+30ec\U+30b9\U+3057\U+305f\U+307e\U+307e\U+3068\U+3059\U+308b\U+3002
  7
ＭＳ ゴシック
 73
     1
 44
0.7828267384257846
1001
ACAD
1000
MTEXTBEGIN
1070
    73
1070
     1
1070
    44
1040
0.7828267384257846
1070
    74
1070
     0
1000
MTEXTEND
  0
LINE
  5
3BE
330
A
100
AcDbEntity
  8
49
  6
Continuous
 62
     7
370
    15
100
AcDbLine
 10
1806.298272177059
 20
1865.765918399598
 30
0.0
 11
1736.298272177058
 21
1935.765918399598
 31
0.0
  0
LINE
  5
3BF
330
A
100
AcDbEntity
  8
49
  6
Continuous
 62
     7
370
    15
100
AcDbLine
 10
1820.440407800789
 20
1865.765918399598
 30
0.0
 11
1750.440407800789
 21
1935.765918399598
 31
0.0
  0
LINE
  5
3C0
330
A
100
AcDbEntity
  8
49
  6
Continuous
 62
     7
370
    15
100
AcDbLine
 10
1834.58254342452
 20
1865.765918399598
 30
0.0
 11
1764.58254342452
 21
1935.765918399598
 31
0.0
  0
LINE
  5
3C1
330
A
100
AcDbEntity
  8
49
  6
Continuous
 62
     7
370
    15
100
AcDbLine
 10
1848.724679048251
 20
1865.765918399598
 30
0.0
 11
1778.724679048251
 21
1935.765918399598
 31
0.0
  0
LINE
  5
3C2
330
A
100
AcDbEntity
  8
49
  6
Continuous
 62
     7
370
    15
100
AcDbLine
 10
1862.866814671982
 20
1865.765918399598
 30
0.0
 11
1792.866814671982
 21
1935.765918399598
 31
0.0
  0
LINE
  5
3C3
330
A
100
AcDbEntity
  8
49
  6
Continuous
 62
     7
370
    15
100
AcDbLine
 10
1877.008950295713
 20
1865.765918399598
 30
0.0
 11
1807.008950295713
 21
1935.765918399598
 31
0.0
  0
LINE
  5
3C4
330
A
100
AcDbEntity
  8
49
  6
Continuous
 62
     7
370
    15
100
AcDbLine
 10
1891.151085919444
 20
1865.765918399598
 30
0.0
 11
1821.151085919444
 21
1935.765918399598
 31
0.0
  0
LINE
  5
3C5
330
A
100
AcDbEntity
  8
49
  6
Continuous
 62
     7
370
    15
100
AcDbLine
 10
1905.293221543175
 20
1865.765918399598
 30
0.0
 11
1835.293221543174
 21
1935.765918399598
 31
0.0
  0
LINE
  5
3C6
330
A
100
AcDbEntity
  8
49
  6
Continuous
 62
     7
370
    15
100
AcDbLine
 10
1919.435357166906
 20
1865.765918399598
 30
0.0
 11
1849.435357166906
 21
1935.765918399598
 31
0.0
  0
LINE
  5
3C7
330
A
100
AcDbEntity
  8
49
  6
Continuous
 62
     7
370
    15
100
AcDbLine
 10
1933.577492790637
 20
1865.765918399598
 30
0.0
 11
1915.45161519112
 21
1883.891795999115
 31
0.0
  0
LINE
  5
3C8
330
A
100
AcDbEntity
  8
49
  6
Continuous
 62
     7
370
    15
100
AcDbLine
 10
1947.719628414368
 20
1865.765918399598
 30
0.0
 11
1931.8896156542
 21
1881.595931159765
 31
0.0
  0
LINE
  5
3C9
330
A
100
AcDbEntity
  8
49
  6
Continuous
 62
     7
370
    15
100
AcDbLine
 10
1961.861764038099
 20
1865.765918399598
 30
0.0
 11
1940.662862391712
 21
1886.964820045984
 31
0.0
  0
LINE
  5
3CA
330
A
100
AcDbEntity
  8
49
  6
Continuous
 62
     7
370
    15
100
AcDbLine
 10
1966.187722177058
 20
1875.582095884369
 30
0.0
 11
1945.642396376948
 21
1896.127421684479
 31
0.0
  0
LINE
  5
3CB
330
A
100
AcDbEntity
  8
49
  6
Continuous
 62
     7
370
    15
100
AcDbLine
 10
1966.187722177058
 20
1889.7242315081
 30
0.0
 11
1920.146035285561
 21
1935.765918399598
 31
0.0
  0
LINE
  5
3CC
330
A
100
AcDbEntity
  8
49
  6
Continuous
 62
     7
370
    15
100
AcDbLine
 10
1966.187722177058
 20
1903.866367131831
 30
0.0
 11
1934.288170909292
 21
1935.765918399598
 31
0.0
  0
LINE
  5
3CD
330
A
100
AcDbEntity
  8
49
  6
Continuous
 62
     7
370
    15
100
AcDbLine
 10
1966.187722177058
 20
1918.008502755562
 30
0.0
 11
1948.430306533022
 21
1935.765918399598
 31
0.0
  0
LINE
  5
3CE
330
A
100
AcDbEntity
  8
49
  6
Continuous
 62
     7
370
    15
100
AcDbLine
 10
1966.187722177058
 20
1932.150638379292
 30
0.0
 11
1962.572442156754
 21
1935.765918399598
 31
0.0
  0
LINE
  5
3CF
330
A
100
AcDbEntity
  8
49
  6
Continuous
 62
     7
370
    15
100
AcDbLine
 10
1792.156136553327
 20
1865.765918399598
 30
0.0
 11
1726.187722177058
 21
1931.734332775866
 31
0.0
  0
LINE
  5
3D0
330
A
100
AcDbEntity
  8
49
  6
Continuous
 62
     7
370
    15
100
AcDbLine
 10
1778.014000929597
 20
1865.765918399598
 30
0.0
 11
1726.187722177058
 21
1917.592197152136
 31
0.0
  0
LINE
  5
3D1
330
A
100
AcDbEntity
  8
49
  6
Continuous
 62
     7
370
    15
100
AcDbLine
 10
1763.871865305866
 20
1865.765918399598
 30
0.0
 11
1726.187722177058
 21
1903.450061528405
 31
0.0
  0
LINE
  5
3D2
330
A
100
AcDbEntity
  8
49
  6
Continuous
 62
     7
370
    15
100
AcDbLine
 10
1749.729729682135
 20
1865.765918399598
 30
0.0
 11
1726.187722177058
 21
1889.307925904673
 31
0.0
  0
LINE
  5
3D3
330
A
100
AcDbEntity
  8
49
  6
Continuous
 62
     7
370
    15
100
AcDbLine
 10
1735.587594058404
 20
1865.765918399598
 30
0.0
 11
1726.187722177058
 21
1875.165790280943
 31
0.0
  0
LINE
  5
3D4
330
A
100
AcDbEntity
  8
49
  6
Continuous
 62
     7
370
    15
100
AcDbLine
 10
1912.386623823444
 20
1915.241058614251
 30
0.0
 11
1891.861764038099
 21
1935.765918399598
 31
0.0
  0
LINE
  5
3D5
330
A
100
AcDbEntity
  8
49
  6
Continuous
 62
     7
370
    15
100
AcDbLine
 10
1907.017734937226
 20
1906.467811876739
 30
0.0
 11
1877.719628414368
 21
1935.765918399598
 31
0.0
  0
LINE
  5
3D6
330
A
100
AcDbEntity
  8
49
  6
Continuous
 62
     7
370
    15
100
AcDbLine
 10
1909.313599776575
 20
1890.029811413658
 30
0.0
 11
1863.577492790637
 21
1935.765918399598
 31
0.0
  0
LINE
  5
3D7
330
A
100
AcDbEntity
  8
49
  6
Continuous
 62
     7
370
    15
100
AcDbLine
 10
2509.706941412266
 20
1976.59326001765
 30
0.0
 11
2500.687632891344
 21
1968.608954113883
 31
0.0
  0
LINE
  5
3D8
330
A
100
AcDbEntity
  8
49
  6
Continuous
 62
     7
370
    15
100
AcDbLine
 10
1887.03677670512
 20
2033.422698399597
 30
0.0
 11
1919.850680959383
 21
1919.735417829089
 31
0.0
  0
LINE
  5
3D9
330
A
100
AcDbEntity
  8
49
  6
Continuous
 62
     7
370
    15
100
AcDbLine
 10
1919.850680959383
 20
1919.735417829089
 30
0.0
 11
1909.520048193649
 21
1936.86077991751
 31
0.0
  0
LINE
  5
3DA
330
A
100
AcDbEntity
  8
49
  6
Continuous
 62
     7
370
    15
100
AcDbLine
 10
1919.850680959383
 20
1919.735417829089
 30
0.0
 11
1919.4667715913
 21
1939.731732829536
 31
0.0
  0
LINE
  5
3DB
330
A
100
AcDbEntity
  8
49
  6
Continuous
 62
     7
370
    15
100
AcDbLine
 10
1726.187722177058
 20
1992.966206971026
 30
0.0
 11
1966.187722177058
 21
1992.966206971026
 31
0.0
  0
LINE
  5
3DC
330
A
100
AcDbEntity
  8
49
  6
Continuous
 62
     7
370
    15
100
AcDbLine
 10
1726.187722177058
 20
1992.966206971026
 30
0.0
 11
1745.50623870284
 21
1998.142587873076
 31
0.0
  0
LINE
  5
3DD
330
A
100
AcDbEntity
  8
49
  6
Continuous
 62
     7
370
    15
100
AcDbLine
 10
1726.187722177058
 20
1992.966206971026
 30
0.0
 11
1745.50623870284
 21
1987.789826068976
 31
0.0
  0
LINE
  5
3DE
330
A
100
AcDbEntity
  8
49
  6
Continuous
 62
     7
370
    15
100
AcDbLine
 10
1966.187722177058
 20
1992.966206971026
 30
0.0
 11
1946.869205651277
 21
1987.789826068976
 31
0.0
  0
LINE
  5
3DF
330
A
100
AcDbEntity
  8
49
  6
Continuous
 62
     7
370
    15
100
AcDbLine
 10
1966.187722177058
 20
1992.966206971026
 30
0.0
 11
1946.869205651277
 21
1998.142587873076
 31
0.0
  0
LINE
  5
3E0
330
A
100
AcDbEntity
  8
49
  6
Continuous
 62
     7
370
    15
100
AcDbLine
 10
1966.187722177058
 20
1940.765918399598
 30
0.0
 11
1966.187722177058
 21
1997.966206971026
 31
0.0
  0
LINE
  5
3E1
330
A
100
AcDbEntity
  8
49
  6
Continuous
 62
     7
370
    15
100
AcDbLine
 10
1726.187722177058
 20
1940.765918399598
 30
0.0
 11
1726.187722177058
 21
1997.966206971026
 31
0.0
  0
MTEXT
  5
3E2
330
A
100
AcDbEntity
  8
49
 62
     7
100
AcDbMText
 10
1846.187765773599
 20
2017.966200905178
 30
0.0
 40
20.0
 41
0.0
 71
     2
 72
     1
  1
230
  7
ＭＳ ゴシック
 73
     1
 44
0.7828267384257846
1001
ACAD
1000
MTEXTBEGIN
1070
    73
1070
     1
1070
    44
1040
0.7828267384257846
1070
    74
1070
     0
1000
MTEXTEND
  0
LINE
  5
3E3
330
A
100
AcDbEntity
  8
49
  6
Continuous
 62
     7
370
    15
100
AcDbLine
 10
2725.040480467875
 20
1934.765918399597
 30
0.0
 11
2858.040480467875
 21
1934.765918399597
 31
0.0
  0
ARC
  5
3E4
330
A
100
AcDbEntity
  8
49
  6
Continuous
 62
     7
370
    15
100
AcDbCircle
 10
2858.040480467875
 20
1892.765918399598
 30
0.0
 40
42.0
100
AcDbArc
 50
0.0
 51
90.0
  0
LINE
  5
3E5
330
A
100
AcDbEntity
  8
49
  6
Continuous
 62
     7
370
    15
100
AcDbLine
 10
2725.040480467875
 20
1931.765918399598
 30
0.0
 11
2725.040480467875
 21
1744.909783195516
 31
0.0
  0
LINE
  5
3E6
330
A
100
AcDbEntity
  8
49
  6
Continuous
 62
     7
370
    15
100
AcDbLine
 10
2725.040480467875
 20
1934.765918399597
 30
0.0
 11
2725.040480467875
 21
1931.765918399598
 31
0.0
  0
LINE
  5
3E7
330
A
100
AcDbEntity
  8
49
  6
Continuous
 62
     7
370
    15
100
AcDbLine
 10
2897.040480467875
 20
1892.765918399598
 30
0.0
 11
2900.040480467875
 21
1892.765918399598
 31
0.0
  0
LINE
  5
3E8
330
A
100
AcDbEntity
  8
49
  6
Continuous
 62
     7
370
    15
100
AcDbLine
 10
2725.040480467875
 20
1412.765918399597
 30
0.0
 11
2725.040480467875
 21
1480.360670586186
 31
0.0
  0
LINE
  5
3E9
330
A
100
AcDbEntity
  8
49
  6
Continuous
 62
     7
370
    15
100
AcDbLine
 10
2725.040480467875
 20
1409.765918399598
 30
0.0
 11
2819.237811462773
 21
1409.765918399598
 31
0.0
  0
LINE
  5
3EA
330
A
100
AcDbEntity
  8
49
  6
Continuous
 62
     7
370
    15
100
AcDbLine
 10
2819.237811462773
 20
1409.765918399598
 30
0.0
 11
2840.484003052378
 21
1409.765918399598
 31
0.0
  0
ARC
  5
3EB
330
A
100
AcDbEntity
  8
49
  6
Continuous
 62
     7
370
    15
100
AcDbCircle
 10
2840.484003052378
 20
1451.765918399598
 30
0.0
 40
42.0
100
AcDbArc
 50
270.0
 51
356.0884281874709
  0
LINE
  5
3EC
330
A
100
AcDbEntity
  8
49
  6
Continuous
 62
     7
370
    15
100
AcDbLine
 10
2882.386164963609
 20
1448.90081331165
 30
0.0
 11
2899.768601045613
 21
1703.118941010944
 31
0.0
  0
LINE
  5
3ED
330
A
100
AcDbEntity
  8
49
  6
Continuous
 62
     7
370
    15
100
AcDbLine
 10
2725.040480467875
 20
1409.765918399598
 30
0.0
 11
2725.040480467875
 21
1412.765918399597
 31
0.0
  0
LINE
  5
3EE
330
A
100
AcDbEntity
  8
49
  6
Continuous
 62
     7
370
    15
100
AcDbLine
 10
2899.768601045613
 20
1703.118941010944
 30
0.0
 11
2896.778159528387
 21
1703.361178324363
 31
0.0
  0
CIRCLE
  5
3EF
330
A
100
AcDbEntity
  8
49
  6
Continuous
 62
     7
370
    15
100
AcDbCircle
 10
2867.011940927059
 20
2066.438590593475
 30
0.0
 40
25.0
  0
MTEXT
  5
3F0
330
A
100
AcDbEntity
  8
49
 62
     7
100
AcDbMText
 10
2867.011923488443
 20
2066.438613014553
 30
0.0
 40
20.0
 41
0.0
 71
     5
 72
     1
  1
1
  7
ＭＳ ゴシック
 73
     1
 44
0.7828267384257846
1001
ACAD
1000
MTEXTBEGIN
1070
    73
1070
     1
1070
    44
1040
0.7828267384257846
1070
    74
1070
     0
1000
MTEXTEND
  0
LINE
  5
3F1
330
A
100
AcDbEntity
  8
49
  6
Continuous
 62
     7
370
    15
100
AcDbLine
 10
2859.483656728631
 20
2042.599023965122
 30
0.0
 11
2824.972718988283
 21
1894.572359726128
 31
0.0
  0
LINE
  5
3F2
330
A
100
AcDbEntity
  8
49
  6
Continuous
 62
     7
370
    15
100
AcDbLine
 10
2824.972718988283
 20
1894.572359726128
 30
0.0
 11
2824.317819972367
 21
1914.561634532358
 31
0.0
  0
LINE
  5
3F3
330
A
100
AcDbEntity
  8
49
  6
Continuous
 62
     7
370
    15
100
AcDbLine
 10
2824.972718988283
 20
1894.572359726128
 30
0.0
 11
2834.400197206701
 21
1912.211029019508
 31
0.0
  0
LINE
  5
3F4
330
A
100
AcDbEntity
  8
49
  6
Continuous
 62
     7
370
    15
100
AcDbLine
 10
1705.187722177059
 20
1222.698156920006
 30
0.0
 11
1705.187722177059
 21
1105.118481675246
 31
0.0
  0
ARC
  5
3F5
330
A
100
AcDbEntity
  8
49
  6
Continuous
 62
     7
370
    15
100
AcDbCircle
 10
1747.187722177059
 20
1105.118481675246
 30
0.0
 40
42.0
100
AcDbArc
 50
180.0
 51
266.5206996278421
  0
LINE
  5
3F6
330
A
100
AcDbEntity
  8
49
  6
Continuous
 62
     7
370
    15
100
AcDbLine
 10
1744.638829001447
 20
1063.19589655005
 30
0.0
 11
1995.115557672617
 21
1047.966911446843
 31
0.0
  0
LINE
  5
3F7
330
A
100
AcDbEntity
  8
49
  6
Continuous
 62
     7
370
    15
100
AcDbLine
 10
1705.187722177059
 20
1222.698156920006
 30
0.0
 11
1708.187722177058
 21
1222.698156920006
 31
0.0
  0
LINE
  5
3F8
330
A
100
AcDbEntity
  8
49
  6
Continuous
 62
     7
370
    15
100
AcDbLine
 10
1643.144329319916
 20
1076.846355261842
 30
0.0
 11
1643.144329319916
 21
1169.599400542454
 31
0.0
  0
LINE
  5
3F9
330
A
100
AcDbEntity
  8
49
  6
Continuous
 62
     7
370
    15
100
AcDbLine
 10
1643.144329319916
 20
1169.599400542454
 30
0.0
 11
1705.187722177059
 21
1191.078864828169
 31
0.0
  0
LINE
  5
3FA
330
A
100
AcDbEntity
  8
49
  6
Continuous
 62
     7
370
    15
100
AcDbLine
 10
1705.187722177059
 20
1191.078864828169
 30
0.0
 11
1688.625710770176
 21
1179.867273587033
 31
0.0
  0
LINE
  5
3FB
330
A
100
AcDbEntity
  8
49
  6
Continuous
 62
     7
370
    15
100
AcDbLine
 10
1705.187722177059
 20
1191.078864828169
 30
0.0
 11
1685.238803940363
 21
1189.650347699939
 31
0.0
  0
LINE
  5
3FC
330
A
100
AcDbEntity
  8
49
  6
Continuous
 62
     7
370
    15
100
AcDbLine
 10
1995.365861147072
 20
1050.957232840616
 30
0.0
 11
1995.115557672617
 21
1047.966911446843
 31
0.0
  0
LINE
  5
3FD
330
A
100
AcDbEntity
  8
49
  6
Continuous
 62
     7
370
    15
100
AcDbLine
 10
2475.187722177059
 20
1222.698156920006
 30
0.0
 11
2475.187722177059
 21
1218.226644828169
 31
0.0
  0
ARC
  5
3FE
330
A
100
AcDbEntity
  8
49
  6
Continuous
 62
     7
370
    15
100
AcDbCircle
 10
2433.187722177058
 20
1105.118481675246
 30
0.0
 40
42.00000000000001
100
AcDbArc
 50
273.4793003721581
 51
0.0
  0
LINE
  5
3FF
330
A
100
AcDbEntity
  8
49
  6
Continuous
 62
     7
370
    15
100
AcDbLine
 10
2435.73661535267
 20
1063.19589655005
 30
0.0
 11
2184.929084243397
 21
1047.946798658607
 31
0.0
  0
LINE
  5
400
330
A
100
AcDbEntity
  8
49
  6
Continuous
 62
     7
370
    15
100
AcDbLine
 10
2475.187722177059
 20
1222.698156920006
 30
0.0
 11
2472.187722177059
 21
1222.698156920006
 31
0.0
  0
LINE
  5
401
330
A
100
AcDbEntity
  8
49
  6
Continuous
 62
     7
370
    15
100
AcDbLine
 10
2184.776001889661
 20
1050.943031096519
 30
0.0
 11
2184.929084243397
 21
1047.946798658607
 31
0.0
  0
LINE
  5
402
330
A
100
AcDbEntity
  8
49
  6
Continuous
 62
     7
370
    15
100
AcDbLine
 10
2475.187722177059
 20
1213.438005072437
 30
0.0
 11
2475.187722177059
 21
1181.958308767574
 31
0.0
  0
LINE
  5
403
330
A
100
AcDbEntity
  8
49
  6
Continuous
 62
     7
370
    15
100
AcDbLine
 10
2472.187722177059
 20
1216.938005072436
 30
0.0
 11
2472.187722177059
 21
1232.698156920006
 31
0.0
  0
LINE
  5
404
330
A
100
AcDbEntity
  8
49
  6
Continuous
 62
     7
370
    15
100
AcDbLine
 10
2475.187722177059
 20
1176.58333822467
 30
0.0
 11
2475.187722177059
 21
1105.118481675246
 31
0.0
  0
LINE
  5
405
330
A
100
AcDbEntity
  8
49
  6
Continuous
 62
     7
370
    15
100
AcDbLine
 10
2695.040480467875
 20
1709.68556125674
 30
0.0
 11
2695.040480467875
 21
1724.838622481231
 31
0.0
  0
LINE
  5
406
330
A
100
AcDbEntity
  8
49
  6
Continuous
 62
     7
370
    15
100
AcDbLine
 10
2712.040480467875
 20
1744.909783195516
 30
0.0
 11
2712.040480467875
 21
1843.765918399597
 31
0.0
  0
LINE
  5
407
330
A
100
AcDbEntity
  8
49
  6
Continuous
 62
     7
370
    15
100
AcDbLine
 10
2725.040480467875
 20
1724.009502583271
 30
0.0
 11
2725.040480467875
 21
1480.360670586186
 31
0.0
  0
CIRCLE
  5
408
330
A
100
AcDbEntity
  8
49
  6
Continuous
 62
     7
370
    15
100
AcDbCircle
 10
1725.218972177058
 20
2075.935561256741
 30
0.0
 40
25.0
  0
MTEXT
  5
409
330
A
100
AcDbEntity
  8
49
 62
     7
100
AcDbMText
 10
1725.219015773599
 20
2075.935561256741
 30
0.0
 40
20.0
 41
0.0
 71
     5
 72
     1
  1
4
  7
ＭＳ ゴシック
 73
     1
 44
0.7828267384257846
1001
ACAD
1000
MTEXTBEGIN
1070
    73
1070
     1
1070
    44
1040
0.7828267384257846
1070
    74
1070
     0
1000
MTEXTEND
  0
LINE
  5
40A
330
A
100
AcDbEntity
  8
49
  6
Continuous
 62
     7
370
    15
100
AcDbLine
 10
1734.134531832488
 20
2052.579345894861
 30
0.0
 11
1786.957797022728
 21
1913.39066480139
 31
0.0
  0
LINE
  5
40B
330
A
100
AcDbEntity
  8
49
  6
Continuous
 62
     7
370
    15
100
AcDbLine
 10
1786.957797022728
 20
1913.39066480139
 30
0.0
 11
1775.263691628906
 21
1929.615580796185
 31
0.0
  0
LINE
  5
40C
330
A
100
AcDbEntity
  8
49
  6
Continuous
 62
     7
370
    15
100
AcDbLine
 10
1786.957797022728
 20
1913.39066480139
 30
0.0
 11
1784.942862674543
 21
1933.288906924062
 31
0.0
  0
LINE
  5
40D
330
A
100
AcDbEntity
  8
49
  6
Continuous
 62
     7
370
    15
100
AcDbLine
 10
2472.187722177059
 20
1178.458308767575
 30
0.0
 11
2472.187722177059
 21
1218.226644828169
 31
0.0
  0
LINE
  5
40E
330
A
100
AcDbEntity
  8
49
  6
Continuous
 62
     7
370
    15
100
AcDbLine
 10
2475.187722177059
 20
1176.58333822467
 30
0.0
 11
2475.187722177059
 21
1218.46902204619
 31
0.0
  0
LINE
  5
40F
330
A
100
AcDbEntity
  8
49
  6
Continuous
 62
     7
370
    15
100
AcDbLine
 10
2712.040480467875
 20
1724.009502583271
 30
0.0
 11
2712.040480467875
 21
1744.909783195516
 31
0.0
  0
LINE
  5
410
330
A
100
AcDbEntity
  8
49
  6
Continuous
 62
     7
370
    15
100
AcDbLine
 10
2725.040480467875
 20
1724.009502583271
 30
0.0
 11
2725.040480467875
 21
1744.909783195516
 31
0.0
  0
LINE
  5
411
330
A
100
AcDbEntity
  8
49
  6
Continuous
 62
     7
370
    15
100
AcDbLine
 10
2214.187722177058
 20
1865.765918399598
 30
0.0
 11
2214.187722177058
 21
1935.765918399598
 31
0.0
  0
LINE
  5
412
330
A
100
AcDbEntity
  8
49
  6
Continuous
 62
     7
370
    15
100
AcDbLine
 10
2214.187722177058
 20
1935.765918399598
 30
0.0
 11
2454.187722177059
 21
1935.765918399598
 31
0.0
  0
LINE
  5
413
330
A
100
AcDbEntity
  8
49
  6
Continuous
 62
     7
370
    15
100
AcDbLine
 10
2454.187722177059
 20
1935.765918399598
 30
0.0
 11
2454.187722177059
 21
1865.765918399598
 31
0.0
  0
LINE
  5
414
330
A
100
AcDbEntity
  8
49
  6
Continuous
 62
     7
370
    15
100
AcDbLine
 10
2454.187722177059
 20
1865.765918399598
 30
0.0
 11
2214.187722177058
 21
1865.765918399598
 31
0.0
  0
LINE
  5
415
330
A
100
AcDbEntity
  8
49
  6
Continuous
 62
     7
370
    15
100
AcDbLine
 10
2374.077172177059
 20
1865.765918399598
 30
0.0
 11
2444.077172177059
 21
1935.765918399598
 31
0.0
  0
LINE
  5
416
330
A
100
AcDbEntity
  8
49
  6
Continuous
 62
     7
370
    15
100
AcDbLine
 10
2359.935036553328
 20
1865.765918399598
 30
0.0
 11
2429.935036553328
 21
1935.765918399598
 31
0.0
  0
LINE
  5
417
330
A
100
AcDbEntity
  8
49
  6
Continuous
 62
     7
370
    15
100
AcDbLine
 10
2345.792900929597
 20
1865.765918399598
 30
0.0
 11
2415.792900929597
 21
1935.765918399598
 31
0.0
  0
LINE
  5
418
330
A
100
AcDbEntity
  8
49
  6
Continuous
 62
     7
370
    15
100
AcDbLine
 10
2331.650765305866
 20
1865.765918399598
 30
0.0
 11
2401.650765305866
 21
1935.765918399598
 31
0.0
  0
LINE
  5
419
330
A
100
AcDbEntity
  8
49
  6
Continuous
 62
     7
370
    15
100
AcDbLine
 10
2317.508629682135
 20
1865.765918399598
 30
0.0
 11
2387.508629682135
 21
1935.765918399598
 31
0.0
  0
LINE
  5
41A
330
A
100
AcDbEntity
  8
49
  6
Continuous
 62
     7
370
    15
100
AcDbLine
 10
2303.366494058404
 20
1865.765918399598
 30
0.0
 11
2373.366494058404
 21
1935.765918399598
 31
0.0
  0
LINE
  5
41B
330
A
100
AcDbEntity
  8
49
  6
Continuous
 62
     7
370
    15
100
AcDbLine
 10
2289.224358434673
 20
1865.765918399598
 30
0.0
 11
2359.224358434673
 21
1935.765918399598
 31
0.0
  0
LINE
  5
41C
330
A
100
AcDbEntity
  8
49
  6
Continuous
 62
     7
370
    15
100
AcDbLine
 10
2275.082222810942
 20
1865.765918399598
 30
0.0
 11
2345.082222810942
 21
1935.765918399598
 31
0.0
  0
LINE
  5
41D
330
A
100
AcDbEntity
  8
49
  6
Continuous
 62
     7
370
    15
100
AcDbLine
 10
2260.94008718721
 20
1865.765918399598
 30
0.0
 11
2330.94008718721
 21
1935.765918399598
 31
0.0
  0
LINE
  5
41E
330
A
100
AcDbEntity
  8
49
  6
Continuous
 62
     7
370
    15
100
AcDbLine
 10
2246.79795156348
 20
1865.765918399598
 30
0.0
 11
2264.923829162997
 21
1883.891795999115
 31
0.0
  0
LINE
  5
41F
330
A
100
AcDbEntity
  8
49
  6
Continuous
 62
     7
370
    15
100
AcDbLine
 10
2232.655815939749
 20
1865.765918399598
 30
0.0
 11
2248.485828699917
 21
1881.595931159765
 31
0.0
  0
LINE
  5
420
330
A
100
AcDbEntity
  8
49
  6
Continuous
 62
     7
370
    15
100
AcDbLine
 10
2218.513680316018
 20
1865.765918399598
 30
0.0
 11
2239.712581962404
 21
1886.964820045984
 31
0.0
  0
LINE
  5
421
330
A
100
AcDbEntity
  8
49
  6
Continuous
 62
     7
370
    15
100
AcDbLine
 10
2214.187722177058
 20
1875.582095884369
 30
0.0
 11
2234.733047977169
 21
1896.127421684479
 31
0.0
  0
LINE
  5
422
330
A
100
AcDbEntity
  8
49
  6
Continuous
 62
     7
370
    15
100
AcDbLine
 10
2214.187722177058
 20
1889.7242315081
 30
0.0
 11
2260.229409068557
 21
1935.765918399598
 31
0.0
  0
LINE
  5
423
330
A
100
AcDbEntity
  8
49
  6
Continuous
 62
     7
370
    15
100
AcDbLine
 10
2214.187722177058
 20
1903.866367131831
 30
0.0
 11
2246.087273444826
 21
1935.765918399598
 31
0.0
  0
LINE
  5
424
330
A
100
AcDbEntity
  8
49
  6
Continuous
 62
     7
370
    15
100
AcDbLine
 10
2214.187722177058
 20
1918.008502755562
 30
0.0
 11
2231.945137821094
 21
1935.765918399598
 31
0.0
  0
LINE
  5
425
330
A
100
AcDbEntity
  8
49
  6
Continuous
 62
     7
370
    15
100
AcDbLine
 10
2214.187722177058
 20
1932.150638379292
 30
0.0
 11
2217.803002197364
 21
1935.765918399598
 31
0.0
  0
LINE
  5
426
330
A
100
AcDbEntity
  8
49
  6
Continuous
 62
     7
370
    15
100
AcDbLine
 10
2388.21930780079
 20
1865.765918399598
 30
0.0
 11
2454.187722177059
 21
1931.734332775866
 31
0.0
  0
LINE
  5
427
330
A
100
AcDbEntity
  8
49
  6
Continuous
 62
     7
370
    15
100
AcDbLine
 10
2402.36144342452
 20
1865.765918399598
 30
0.0
 11
2454.187722177059
 21
1917.592197152136
 31
0.0
  0
LINE
  5
428
330
A
100
AcDbEntity
  8
49
  6
Continuous
 62
     7
370
    15
100
AcDbLine
 10
2416.503579048252
 20
1865.765918399598
 30
0.0
 11
2454.187722177059
 21
1903.450061528405
 31
0.0
  0
LINE
  5
429
330
A
100
AcDbEntity
  8
49
  6
Continuous
 62
     7
370
    15
100
AcDbLine
 10
2430.645714671982
 20
1865.765918399598
 30
0.0
 11
2454.187722177059
 21
1889.307925904673
 31
0.0
  0
LINE
  5
42A
330
A
100
AcDbEntity
  8
49
  6
Continuous
 62
     7
370
    15
100
AcDbLine
 10
2444.787850295714
 20
1865.765918399598
 30
0.0
 11
2454.187722177059
 21
1875.165790280943
 31
0.0
  0
LINE
  5
42B
330
A
100
AcDbEntity
  8
49
  6
Continuous
 62
     7
370
    15
100
AcDbLine
 10
2267.988820530672
 20
1915.241058614251
 30
0.0
 11
2288.513680316019
 21
1935.765918399598
 31
0.0
  0
LINE
  5
42C
330
A
100
AcDbEntity
  8
49
  6
Continuous
 62
     7
370
    15
100
AcDbLine
 10
2273.357709416891
 20
1906.467811876739
 30
0.0
 11
2302.655815939749
 21
1935.765918399598
 31
0.0
  0
LINE
  5
42D
330
A
100
AcDbEntity
  8
49
  6
Continuous
 62
     7
370
    15
100
AcDbLine
 10
2271.061844577541
 20
1890.029811413658
 30
0.0
 11
2316.797951563481
 21
1935.765918399598
 31
0.0
  0
LINE
  5
42E
330
A
100
AcDbEntity
  8
49
  6
Continuous
 62
     7
370
    15
100
AcDbLine
 10
2214.187722177058
 20
1992.966206971026
 30
0.0
 11
2454.187722177059
 21
1992.966206971026
 31
0.0
  0
LINE
  5
42F
330
A
100
AcDbEntity
  8
49
  6
Continuous
 62
     7
370
    15
100
AcDbLine
 10
2214.187722177058
 20
1992.966206971026
 30
0.0
 11
2233.50623870284
 21
1998.142587873076
 31
0.0
  0
LINE
  5
430
330
A
100
AcDbEntity
  8
49
  6
Continuous
 62
     7
370
    15
100
AcDbLine
 10
2214.187722177058
 20
1992.966206971026
 30
0.0
 11
2233.50623870284
 21
1987.789826068976
 31
0.0
  0
LINE
  5
431
330
A
100
AcDbEntity
  8
49
  6
Continuous
 62
     7
370
    15
100
AcDbLine
 10
2454.187722177059
 20
1992.966206971026
 30
0.0
 11
2434.869205651278
 21
1987.789826068976
 31
0.0
  0
LINE
  5
432
330
A
100
AcDbEntity
  8
49
  6
Continuous
 62
     7
370
    15
100
AcDbLine
 10
2454.187722177059
 20
1992.966206971026
 30
0.0
 11
2434.869205651278
 21
1998.142587873076
 31
0.0
  0
LINE
  5
433
330
A
100
AcDbEntity
  8
49
  6
Continuous
 62
     7
370
    15
100
AcDbLine
 10
2214.187722177058
 20
1940.765918399598
 30
0.0
 11
2214.187722177058
 21
1997.966206971026
 31
0.0
  0
LINE
  5
434
330
A
100
AcDbEntity
  8
49
  6
Continuous
 62
     7
370
    15
100
AcDbLine
 10
2454.187722177059
 20
1940.765918399598
 30
0.0
 11
2454.187722177059
 21
1997.966206971026
 31
0.0
  0
MTEXT
  5
435
330
A
100
AcDbEntity
  8
49
 62
     7
100
AcDbMText
 10
2334.187704738443
 20
2017.966200905178
 30
0.0
 40
20.0
 41
0.0
 71
     2
 72
     1
  1
230
  7
ＭＳ ゴシック
 73
     1
 44
0.7828267384257846
1001
ACAD
1000
MTEXTBEGIN
1070
    73
1070
     1
1070
    44
1040
0.7828267384257846
1070
    74
1070
     0
1000
MTEXTEND
  0
LINE
  5
436
330
A
100
AcDbEntity
  8
49
  6
Continuous
 62
     7
370
    15
100
AcDbLine
 10
2239.712581962404
 20
1886.964820045984
 30
0.0
 11
2267.988820530672
 21
1915.241058614251
 31
0.0
  0
LINE
  5
437
330
A
100
AcDbEntity
  8
49
  6
Continuous
 62
     7
370
    15
100
AcDbLine
 10
2248.485828699917
 20
1881.595931159765
 30
0.0
 11
2273.357709416891
 21
1906.467811876739
 31
0.0
  0
LINE
  5
438
330
A
100
AcDbEntity
  8
49
  6
Continuous
 62
     7
370
    15
100
AcDbLine
 10
2234.733047977169
 20
1896.127421684479
 30
0.0
 11
2272.556629319916
 21
1935.765918399598
 31
0.0
  0
LINE
  5
439
330
A
100
AcDbEntity
  8
49
  6
Continuous
 62
     7
370
    15
100
AcDbLine
 10
2272.556629319916
 20
1935.765918399598
 30
0.0
 11
2422.606277689022
 21
1947.765918399598
 31
0.0
  0
LINE
  5
43A
330
A
100
AcDbEntity
  8
49
  6
Continuous
 62
     7
370
    15
100
AcDbLine
 10
1812.231025748487
 20
1164.144064276316
 30
0.0
 11
1945.589462564502
 21
1164.144064276316
 31
0.0
  0
MTEXT
  5
43B
330
A
100
AcDbEntity
  8
49
 62
     7
100
AcDbMText
 10
1883.475668602139
 20
1189.431441383693
 30
0.0
 40
20.0
 41
0.0
 71
     2
 72
     1
  1
\U+30e9\U+30c3\U+30af\U+30d0\U+30fc\U+53d6\U+4ed8
  7
ＭＳ ゴシック
 11
1.0
 21
0.0000000001745329
 31
0.0
 73
     1
 44
0.7828267384257846
1001
ACAD
1000
MTEXTBEGIN
1070
    73
1070
     1
1070
    44
1040
0.7828267384257846
1070
    74
1070
     0
1000
MTEXTEND
  0
MTEXT
  5
43C
330
A
100
AcDbEntity
  8
49
 62
     7
100
AcDbMText
 10
1549.502890285317
 20
1147.01710422549
 30
0.0
 40
20.0
 41
0.0
 71
     2
 72
     1
  1
200
  7
ＭＳ ゴシック
 11
0.0
 21
1.0
 31
0.0
 73
     1
 44
0.7828267384257846
1001
ACAD
1000
MTEXTBEGIN
1070
    73
1070
     1
1070
    44
1040
0.7828267384257846
1070
    74
1070
     0
1000
MTEXTEND
  0
LINE
  5
43D
330
A
100
AcDbEntity
  8
49
  6
Continuous
 62
     7
370
    15
100
AcDbLine
 10
1639.732365034201
 20
1401.765918399599
 30
0.0
 11
1639.732365034201
 21
1947.765918399598
 31
0.0
  0
LINE
  5
43E
330
A
100
AcDbEntity
  8
49
  6
Continuous
 62
     7
370
    15
100
AcDbLine
 10
1639.732365034201
 20
1401.765918399599
 30
0.0
 11
1634.555984132151
 21
1421.08443492538
 31
0.0
  0
LINE
  5
43F
330
A
100
AcDbEntity
  8
49
  6
Continuous
 62
     7
370
    15
100
AcDbLine
 10
1639.732365034201
 20
1401.765918399599
 30
0.0
 11
1644.908745936251
 21
1421.08443492538
 31
0.0
  0
LINE
  5
440
330
A
100
AcDbEntity
  8
49
  6
Continuous
 62
     7
370
    15
100
AcDbLine
 10
1639.732365034201
 20
1947.765918399598
 30
0.0
 11
1644.908745936251
 21
1928.447401873816
 31
0.0
  0
LINE
  5
441
330
A
100
AcDbEntity
  8
49
  6
Continuous
 62
     7
370
    15
100
AcDbLine
 10
1639.732365034201
 20
1947.765918399598
 30
0.0
 11
1634.555984132151
 21
1928.447401873816
 31
0.0
  0
LINE
  5
442
330
A
100
AcDbEntity
  8
49
  6
Continuous
 62
     7
370
    15
100
AcDbLine
 10
2085.187722177058
 20
1401.765918399599
 30
0.0
 11
1634.732365034201
 21
1401.765918399599
 31
0.0
  0
LINE
  5
443
330
A
100
AcDbEntity
  8
49
  6
Continuous
 62
     7
370
    15
100
AcDbLine
 10
1752.769166665095
 20
1947.765918399598
 30
0.0
 11
1634.732365034201
 21
1947.765918399598
 31
0.0
  0
MTEXT
  5
444
330
A
100
AcDbEntity
  8
49
 62
     7
100
AcDbMText
 10
1614.732382472817
 20
1674.765944557522
 30
0.0
 40
20.0
 41
0.0
 71
     2
 72
     1
  1
546
  7
ＭＳ ゴシック
 11
0.0
 21
1.0
 31
0.0
 73
     1
 44
0.7828267384257846
1001
ACAD
1000
MTEXTBEGIN
1070
    73
1070
     1
1070
    44
1040
0.7828267384257846
1070
    74
1070
     0
1000
MTEXTEND
  0
LINE
  5
445
330
A
100
AcDbEntity
  8
49
  6
Continuous
 62
     7
370
    15
100
AcDbLine
 10
1875.893436462773
 20
1900.765918399597
 30
0.0
 11
1875.893436462773
 21
1947.765918399598
 31
0.0
  0
LINE
  5
446
330
A
100
AcDbEntity
  8
49
  6
Continuous
 62
     7
370
    15
100
AcDbLine
 10
1888.756599728079
 20
1900.765918399597
 30
0.0
 11
1870.893436462772
 21
1900.765918399597
 31
0.0
  0
LINE
  5
447
330
A
100
AcDbEntity
  8
49
  6
Continuous
 62
     7
370
    15
100
AcDbLine
 10
1875.893436462773
 20
1881.023567856269
 30
0.0
 11
1875.893436462773
 21
1900.765918399597
 31
0.0
  0
LINE
  5
448
330
A
100
AcDbEntity
  8
49
  6
Continuous
 62
     7
370
    15
100
AcDbLine
 10
1875.893436462773
 20
1900.765918399597
 30
0.0
 11
1881.069817364823
 21
1881.447401873816
 31
0.0
  0
LINE
  5
449
330
A
100
AcDbEntity
  8
49
  6
Continuous
 62
     7
370
    15
100
AcDbLine
 10
1875.893436462773
 20
1900.765918399597
 30
0.0
 11
1870.717055560722
 21
1881.447401873816
 31
0.0
  0
LINE
  5
44A
330
A
100
AcDbEntity
  8
49
  6
Continuous
 62
     7
370
    15
100
AcDbLine
 10
1875.893436462773
 20
1947.765918399598
 30
0.0
 11
1875.893436462773
 21
1977.765918399597
 31
0.0
  0
LINE
  5
44B
330
A
100
AcDbEntity
  8
49
  6
Continuous
 62
     7
370
    15
100
AcDbLine
 10
1875.893436462773
 20
1947.765918399598
 30
0.0
 11
1870.717055560722
 21
1967.084434925379
 31
0.0
  0
LINE
  5
44C
330
A
100
AcDbEntity
  8
49
  6
Continuous
 62
     7
370
    15
100
AcDbLine
 10
1875.893436462773
 20
1947.765918399598
 30
0.0
 11
1881.069817364823
 21
1967.084434925379
 31
0.0
  0
MTEXT
  5
44D
330
A
100
AcDbEntity
  8
49
 62
     7
100
AcDbMText
 10
1850.18514126188
 20
1922.721327858303
 30
0.0
 40
20.0
 41
0.0
 71
     2
 72
     1
  1
47
  7
ＭＳ ゴシック
 11
0.0
 21
1.0
 31
0.0
 73
     1
 44
0.7828267384257846
1001
ACAD
1000
MTEXTBEGIN
1070
    73
1070
     1
1070
    44
1040
0.7828267384257846
1070
    74
1070
     0
1000
MTEXTEND
  0
LINE
  5
44E
330
A
100
AcDbEntity
  8
49
  6
Continuous
 62
     7
370
    15
100
AcDbLine
 10
1898.577492790637
 20
1900.765918399597
 30
0.0
 11
1884.435357166905
 21
1900.765918399597
 31
0.0
  0
LINE
  5
44F
330
A
100
AcDbEntity
  8
33
  6
Continuous
 62
     7
370
    15
100
AcDbLine
 10
1036.549030144008
 20
1915.663108796907
 30
0.0
 11
1046.549030144008
 21
1915.663108796907
 31
0.0
  0
LINE
  5
450
330
A
100
AcDbEntity
  8
49
  6
Continuous
 62
     7
370
    15
100
AcDbLine
 10
2010.687722177058
 20
1044.698156920006
 30
0.0
 11
2010.687722177058
 21
1042.698156920006
 31
0.0
  0
LINE
  5
451
330
A
100
AcDbEntity
  8
49
  6
Continuous
 62
     7
370
    15
100
AcDbLine
 10
2010.687722177058
 20
1042.698156920006
 30
0.0
 11
2010.687722177058
 21
1044.698156920006
 31
0.0
  0
LINE
  5
452
330
A
100
AcDbEntity
  8
49
  6
Continuous
 62
     7
370
    15
100
AcDbLine
 10
2169.687722177059
 20
1042.698156920006
 30
0.0
 11
2169.687722177059
 21
1044.698156920006
 31
0.0
  0
LINE
  5
453
330
A
100
AcDbEntity
  8
49
  6
Continuous
 62
     7
370
    15
100
AcDbLine
 10
2536.156950493385
 20
1944.056575287353
 30
0.0
 11
2536.156950493385
 21
1878.07762120572
 31
0.0
  0
LINE
  5
454
330
A
100
AcDbEntity
  8
49
  6
Continuous
 62
     7
370
    15
100
AcDbLine
 10
2428.912632891344
 20
1992.966206971026
 30
0.0
 11
2268.002275748487
 21
1992.966206971026
 31
0.0
  0
LINE
  5
455
330
A
100
AcDbEntity
  8
49
  6
Continuous
 62
     7
370
    15
100
AcDbLine
 10
2980.926732290033
 20
1587.265918399598
 30
0.0
 11
2886.733908156802
 21
1587.265918399598
 31
0.0
  0
POLYLINE
  5
457
330
A
100
AcDbEntity
  8
0
  6
Continuous
 62
     7
370
     5
100
AcDb2dPolyline
 66
     1
 10
0.0
 20
0.0
 30
0.0
 70
     1
 75
     5
  0
VERTEX
  5
458
330
457
100
AcDbEntity
  8
0
  6
Continuous
 62
     7
370
     5
100
AcDbVertex
100
AcDb2dVertex
 10
618.3037936056297
 20
2339.685561256741
 30
0.0
  0
VERTEX
  5
459
330
457
100
AcDbEntity
  8
0
  6
Continuous
 62
     7
370
     5
100
AcDbVertex
100
AcDb2dVertex
 10
3237.30379360563
 20
2339.685561256741
 30
0.0
  0
VERTEX
  5
45A
330
457
100
AcDbEntity
  8
0
  6
Continuous
 62
     7
370
     5
100
AcDbVertex
100
AcDb2dVertex
 10
3237.30379360563
 20
544.6855612567405
 30
0.0
  0
VERTEX
  5
45B
330
457
100
AcDbEntity
  8
0
  6
Continuous
 62
     7
370
     5
100
AcDbVertex
100
AcDb2dVertex
 10
618.3037936056297
 20
544.6855612567405
 30
0.0
  0
SEQEND
  5
45C
330
457
100
AcDbEntity
  8
0
  6
Continuous
 62
     7
370
     5
  0
LINE
  5
4E8
330
A
100
AcDbEntity
  8
0
  6
Continuous
 62
     7
370
     5
100
AcDbLine
 10
3237.30379360563
 20
719.6855612567405
 30
0.0
 11
3237.30379360563
 21
634.6855612567406
 31
0.0
  0
LINE
  5
4E9
330
A
100
AcDbEntity
  8
0
100
AcDbLine
 10
2537.30379360563
 20
674.6855612567405
 30
0.0
 11
3237.30379360563
 21
674.6855612567405
 31
0.0
  0
LINE
  5
4EA
330
A
100
AcDbEntity
  8
0
100
AcDbLine
 10
2537.30379360563
 20
739.6855612567406
 30
0.0
 11
3237.30379360563
 21
739.6855612567406
 31
0.0
  0
LINE
  5
4EB
330
A
100
AcDbEntity
  8
0
100
AcDbLine
 10
2537.30379360563
 20
609.6855612567406
 30
0.0
 11
3237.30379360563
 21
609.6855612567406
 31
0.0
  0
LINE
  5
4EC
330
A
100
AcDbEntity
  8
0
100
AcDbLine
 10
2537.30379360563
 20
544.6855612567405
 30
0.0
 11
2537.30379360563
 21
739.6855612567406
 31
0.0
  0
MTEXT
  5
4ED
102
{ACAD_XDICTIONARY
360
50F
102
}
330
A
100
AcDbEntity
  8
実形
100
AcDbMText
 10
2668.897654244997
 20
603.4284233881416
 30
0.0
 40
25.0
 41
612.2988505747127
 71
     1
 72
     5
  1
{\fArial|b0|i0|c0|p32;\H1.8x; e\H0.7778x;-KITCHEN \H0.3428x;U-ARCHITECTURE WORKS}
 73
     1
 44
1.0
1001
ACAD
1000
MTEXTBEGIN
1070
    73
1070
     1
1070
    44
1040
1.0
1070
    74
1070
     0
1000
MTEXTEND
  0
LINE
  5
4EE
330
A
100
AcDbEntity
  8
0
100
AcDbLine
 10
2657.30379360563
 20
609.6855612567406
 30
0.0
 11
3237.30379360563
 21
609.6855612567406
 31
0.0
  0
LINE
  5
4EF
330
A
100
AcDbEntity
  8
0
100
AcDbLine
 10
2657.30379360563
 20
609.6855612567406
 30
0.0
 11
2657.30379360563
 21
739.6855612567406
 31
0.0
  0
TEXT
  5
4F0
330
A
100
AcDbEntity
  8
実形
100
AcDbText
 10
2559.970460272297
 20
624.6855612567405
 30
0.0
 40
35.0
  1
尺度
 72
     4
 11
2597.30379360563
 21
642.1855612567405
 31
0.0
100
AcDbText
  0
TEXT
  5
4F1
330
A
100
AcDbEntity
  8
実形
100
AcDbText
 10
2559.970460272297
 20
689.6855612567406
 30
0.0
 40
35.0
  1
品番
 72
     4
 11
2597.30379360563
 21
707.1855612567405
 31
0.0
100
AcDbText
  0
TEXT
  5
4F2
330
A
100
AcDbEntity
  8
0
100
AcDbText
 10
2894.220460272297
 20
624.6855612567405
 30
0.0
 40
35.0
  1
1：10
 72
     4
 11
2947.30379360563
 21
642.1855612567405
 31
0.0
100
AcDbText
  0
LINE
  5
4F3
330
A
100
AcDbEntity
  8
0
100
AcDbLine
 10
3237.30379360563
 20
674.6855612567405
 30
0.0
 11
3237.30379360563
 21
739.6855612567406
 31
0.0
  0
LINE
  5
4F4
330
A
100
AcDbEntity
  8
0
100
AcDbLine
 10
3237.30379360563
 20
544.6855612567405
 30
0.0
 11
3237.30379360563
 21
609.6855612567406
 31
0.0
  0
LINE
  5
4F5
330
A
100
AcDbEntity
  8
Cen
100
AcDbLine
 10
3237.30379360563
 20
609.6855612567406
 30
0.0
 11
3237.30379360563
 21
674.6855612567405
 31
0.0
  0
TEXT
  5
4F6
330
A
100
AcDbEntity
  8
0
100
AcDbText
 10
728.0974600310064
 20
615.0059189214687
 30
0.0
 40
30.0
  1
※実寸には製造上の誤差が多少生ずる場合があります。シンクの穴あけ加工は現物合わせにてお願いします。
100
AcDbText
  0
ENDSEC
  0
SECTION
  2
OBJECTS
  0
DICTIONARY
  5
19
330
0
100
AcDbDictionary
281
     1
  3
ACAD_COLOR
350
473
  3
ACAD_GROUP
350
1A
  3
ACAD_LAYOUT
350
1E
  3
ACAD_MATERIAL
350
472
  3
ACAD_MLINESTYLE
350
1B
  3
ACAD_PLOTSETTINGS
350
22
  3
ACAD_PLOTSTYLENAME
350
1F
  3
ACAD_WIPEOUT_VARS
350
23
  3
ACDBHEADERROUNDTRIPXREC
350
506
  3
AcDbVariableDictionary
350
496
  3
DWGPROPS
350
505
  0
DICTIONARY
  5
50F
330
4ED
100
AcDbDictionary
280
     1
281
     1
  3
ACAD_MTEXT_RT
360
510
  0
DICTIONARY
  5
473
102
{ACAD_REACTORS
330
19
102
}
330
19
100
AcDbDictionary
281
     1
  0
DICTIONARY
  5
1A
102
{ACAD_REACTORS
330
19
102
}
330
19
100
AcDbDictionary
281
     1
  0
DICTIONARY
  5
1E
102
{ACAD_REACTORS
330
19
102
}
330
19
100
AcDbDictionary
281
     1
  3
Layout1
350
21
  3
Model
350
20
  0
DICTIONARY
  5
472
102
{ACAD_REACTORS
330
19
102
}
330
19
100
AcDbDictionary
281
     1
  0
DICTIONARY
  5
1B
102
{ACAD_REACTORS
330
19
102
}
330
19
100
AcDbDictionary
281
     1
  3
Standard
350
1C
  0
DICTIONARY
  5
22
102
{ACAD_REACTORS
330
19
102
}
330
19
100
AcDbDictionary
281
     1
  0
ACDBDICTIONARYWDFLT
  5
1F
102
{ACAD_REACTORS
330
19
102
}
330
19
100
AcDbDictionary
281
     1
  3
Normal
350
1D
100
AcDbDictionaryWithDefault
340
1D
  0
WIPEOUTVARIABLES
  5
23
330
19
100
AcDbWipeoutVariables
 70
     1
  0
DICTIONARY
  5
506
102
{ACAD_REACTORS
330
19
102
}
330
19
100
AcDbDictionary
281
     1
  3
COLORDICT
350
508
  3
MATERIALDICT
350
507
  0
DICTIONARY
  5
496
102
{ACAD_REACTORS
330
19
102
}
330
19
100
AcDbDictionary
281
     1
  3
DIMASSOC
350
497
  3
PROJECTNAME
350
498
  0
XRECORD
  5
505
102
{ACAD_REACTORS
330
19
102
}
330
19
100
AcDbXrecord
280
     1
  1
DWGPROPS COOKIE
  2

  3

  4

  6

  7

  8
山崎　広絵
  9

300
=
301
=
302
=
303
=
304
=
305
=
306
=
307
=
308
=
309
=
 40
0.0106763425925926
 41
2453801.912376111
 42
2453839.599457269
  1

 90
        0
  0
XRECORD
  5
510
102
{ACAD_REACTORS
330
50F
102
}
330
50F
100
AcDbXrecord
280
     1
 40
239804.0
  1
\pl25;{\fArial|b0|i0|c0|p32;\H1.8x;e\H0.7778x;-KITCHEN \H0.3428x;U-ARCHITECTURE WORKS}
  0
LAYOUT
  5
21
102
{ACAD_XDICTIONARY
360
50B
102
}
102
{ACAD_REACTORS
330
1E
102
}
330
1E
100
AcDbPlotSettings
  1

  2

  4

  6

 40
0.0
 41
0.0
 42
0.0
 43
0.0
 44
0.0
 45
0.0
 46
0.0
 47
0.0
 48
0.0
 49
0.0
140
0.0
141
0.0
142
1.0
143
1.0
 70
     0
 72
     0
 73
     0
 74
     0
  7

 75
     0
147
1.0
148
0.0
149
0.0
100
AcDbLayout
  1
Layout1
 70
     0
 71
     1
 10
0.0
 20
0.0
 11
12.0
 21
9.0
 12
0.0
 22
0.0
 32
0.0
 14
1.000000000000000E+20
 24
1.000000000000000E+20
 34
1.000000000000000E+20
 15
-1.000000000000000E+20
 25
-1.000000000000000E+20
 35
-1.000000000000000E+20
146
0.0
 13
0.0
 23
0.0
 33
0.0
 16
1.0
 26
0.0
 36
0.0
 17
0.0
 27
1.0
 37
0.0
 76
     0
330
B
  0
LAYOUT
  5
20
102
{ACAD_XDICTIONARY
360
509
102
}
102
{ACAD_REACTORS
330
1E
102
}
330
1E
100
AcDbPlotSettings
  1

  2
Adobe PDF
  4
A4
  6

 40
3.174999952316282
 41
3.174999952316282
 42
3.175003051757812
 43
3.17498779296875
 44
209.9098358154297
 45
297.0318298339844
 46
0.0
 47
0.0
 48
0.0
 49
0.0
140
0.0
141
0.0
142
1.0
143
1.0
 70
 11264
 72
     1
 73
     1
 74
     0
  7

 75
     0
147
1.0
148
306.8699715653711
149
1337.222627416833
100
AcDbLayout
  1
Model
 70
     0
 71
     0
 10
0.0
 20
0.0
 11
0.0
 21
0.0
 12
0.0
 22
0.0
 32
0.0
 14
0.0
 24
0.0
 34
0.0
 15
0.0
 25
0.0
 35
0.0
146
0.0
 13
0.0
 23
0.0
 33
0.0
 16
0.0
 26
0.0
 36
0.0
 17
0.0
 27
0.0
 37
0.0
 76
     0
330
A
  0
MLINESTYLE
  5
1C
102
{ACAD_REACTORS
330
1B
102
}
330
1B
100
AcDbMlineStyle
  2
STANDARD
 70
     0
  3

 62
     0
 51
90.0
 52
90.0
 71
     2
 49
0.5
 62
   256
  6
BYLAYER
 49
-0.5
 62
   256
  6
BYLAYER
  0
ACDBPLACEHOLDER
  5
1D
102
{ACAD_REACTORS
330
1F
102
}
330
1F
  0
XRECORD
  5
508
102
{ACAD_REACTORS
330
506
102
}
330
506
100
AcDbXrecord
280
     1
340
473
  0
XRECORD
  5
507
102
{ACAD_REACTORS
330
506
102
}
330
506
100
AcDbXrecord
280
     1
340
472
  0
DICTIONARYVAR
  5
497
102
{ACAD_REACTORS
330
496
102
}
330
496
100
DictionaryVariables
280
     0
  1
1
  0
DICTIONARYVAR
  5
498
102
{ACAD_REACTORS
330
496
102
}
330
496
100
DictionaryVariables
280
     0
  1

  0
DICTIONARY
  5
50B
330
21
100
AcDbDictionary
280
     1
281
     1
  3
ACAD_XREC_ROUNDTRIP
360
50C
  0
DICTIONARY
  5
509
330
20
100
AcDbDictionary
280
     1
281
     1
  3
ACAD_XREC_ROUNDTRIP
360
50A
  0
XRECORD
  5
50C
102
{ACAD_REACTORS
330
50B
102
}
330
50B
100
AcDbXrecord
280
     1
102
SHADEPLOT
 70
     0
102
SHADEPLOTRESLEVEL
 70
     2
102
SHADEPLOTCUSTOMDPI
 70
   300
  0
XRECORD
  5
50A
102
{ACAD_REACTORS
330
509
102
}
330
509
100
AcDbXrecord
280
     1
102
SHADEPLOT
 70
     0
102
SHADEPLOTRESLEVEL
 70
     2
102
SHADEPLOTCUSTOMDPI
 70
   300
  0
ENDSEC
  0
EOF
