  0
SECTION
  2
HEADER
  9
$ACADVER
  1
AC1015
  9
$ACADMAINTVER
 70
               6
  9
$DWGCODEPAGE
  3
ANSI_932
  9
$INSBASE
 10
0.0
 20
0.0
 30
0.0
  9
$EXTMIN
 10
144.41682912081569
 20
-482.6614600990016
 30
0.0
  9
$EXTMAX
 10
2817.0148400287435
 20
1311.6695205447836
 30
0.0
  9
$LIMMIN
 10
0.0
 20
0.0
  9
$LIMMAX
 10
0.0
 20
0.0
  9
$ORTHOMODE
 70
               0
  9
$REGENMODE
 70
               1
  9
$FILLMODE
 70
               1
  9
$QTEXTMODE
 70
               0
  9
$MIRRTEXT
 70
               1
  9
$LTSCALE
 40
127.0
  9
$ATTMODE
 70
               1
  9
$TEXTSIZE
 40
0.2
  9
$TRACEWID
 40
1.0
  9
$TEXTSTYLE
  7
Standard
  9
$CLAYER
  8
0
  9
$CELTYPE
  6
Continuous
  9
$CECOLOR
 62
             256
  9
$CELTSCALE
 40
1.0
  9
$DISPSILH
 70
               0
  9
$DIMSCALE
 40
1.0
  9
$DIMASZ
 40
0.18
  9
$DIMEXO
 40
0.0625
  9
$DIMDLI
 40
0.38
  9
$DIMRND
 40
0.0
  9
$DIMDLE
 40
0.0
  9
$DIMEXE
 40
0.18
  9
$DIMTP
 40
0.0
  9
$DIMTM
 40
0.0
  9
$DIMTXT
 40
0.18
  9
$DIMCEN
 40
0.09
  9
$DIMTSZ
 40
0.0
  9
$DIMTOL
 70
               0
  9
$DIMLIM
 70
               0
  9
$DIMTIH
 70
               1
  9
$DIMTOH
 70
               1
  9
$DIMSE1
 70
               0
  9
$DIMSE2
 70
               0
  9
$DIMTAD
 70
               0
  9
$DIMZIN
 70
               0
  9
$DIMBLK
  1

  9
$DIMASO
 70
               1
  9
$DIMSHO
 70
               1
  9
$DIMPOST
  1

  9
$DIMAPOST
  1

  9
$DIMALT
 70
               0
  9
$DIMALTD
 70
               2
  9
$DIMALTF
 40
25.399999999999999
  9
$DIMLFAC
 40
1.0
  9
$DIMTOFL
 70
               0
  9
$DIMTVP
 40
0.0
  9
$DIMTIX
 70
               0
  9
$DIMSOXD
 70
               0
  9
$DIMSAH
 70
               0
  9
$DIMBLK1
  1

  9
$DIMBLK2
  1

  9
$DIMSTYLE
  2
Standard
  9
$DIMCLRD
 70
               0
  9
$DIMCLRE
 70
               0
  9
$DIMCLRT
 70
               0
  9
$DIMTFAC
 40
1.0
  9
$DIMGAP
 40
0.09
  9
$DIMJUST
 70
               0
  9
$DIMSD1
 70
               0
  9
$DIMSD2
 70
               0
  9
$DIMTOLJ
 70
               1
  9
$DIMTZIN
 70
               0
  9
$DIMALTZ
 70
               0
  9
$DIMALTTZ
 70
               0
  9
$DIMUPT
 70
               0
  9
$DIMDEC
 70
               4
  9
$DIMTDEC
 70
               4
  9
$DIMALTU
 70
               2
  9
$DIMALTTD
 70
               2
  9
$DIMTXSTY
  7
Standard
  9
$DIMAUNIT
 70
               0
  9
$DIMADEC
 70
               0
  9
$DIMALTRND
 40
0.0
  9
$DIMAZIN
 70
               0
  9
$DIMDSEP
 70
               0
  9
$DIMATFIT
 70
               3
  9
$DIMFRAC
 70
               0
  9
$DIMLDRBLK
  1

  9
$DIMLUNIT
 70
               2
  9
$DIMLWD
 70
               0
  9
$DIMLWE
 70
               0
  9
$DIMTMOVE
 70
               0
  9
$LUNITS
 70
               2
  9
$LUPREC
 70
               4
  9
$SKETCHINC
 40
0.1
  9
$FILLETRAD
 40
0.0
  9
$AUNITS
 70
               0
  9
$AUPREC
 70
               0
  9
$MENU
  1
acad
  9
$ELEVATION
 40
0.0
  9
$PELEVATION
 40
0.0
  9
$THICKNESS
 40
0.0
  9
$LIMCHECK
 70
               0
  9
$CHAMFERA
 40
0.0
  9
$CHAMFERB
 40
0.0
  9
$CHAMFERC
 40
0.0
  9
$CHAMFERD
 40
0.0
  9
$SKPOLY
 70
               0
  9
$TDCREATE
 40
2454815.696678241
  9
$TDUCREATE
 40
0.000000000
  9
$TDUPDATE
 40
2454815.696678241
  9
$TDUUPDATE
 40
0.000000000
  9
$TDINDWG
 40
0.0000000000
  9
$TDUSRTIMER
 40
0.0000000000
  9
$USRTIMER
 70
               1
  9
$ANGBASE
 50
0.0
  9
$ANGDIR
 70
               0
  9
$PDMODE
 70
               1
  9
$PDSIZE
 40
-2.0
  9
$PLINEWID
 40
0.0
  9
$SPLFRAME
 70
               0
  9
$SPLINETYPE
 70
               6
  9
$SPLINESEGS
 70
               8
  9
$HANDSEED
  5
320
  9
$SURFTAB1
 70
               6
  9
$SURFTAB2
 70
               6
  9
$SURFTYPE
 70
               6
  9
$SURFU
 70
               6
  9
$SURFV
 70
               6
  9
$UCSBASE
  2

  9
$UCSNAME
  2

  9
$UCSORG
 10
0.0
 20
0.0
 30
0.0
  9
$UCSXDIR
 10
1.0
 20
0.0
 30
0.0
  9
$UCSYDIR
 10
0.0
 20
1.0
 30
0.0
  9
$UCSORTHOREF
  2

  9
$UCSORTHOVIEW
 70
               0
  9
$UCSORGTOP
 10
0.0
 20
0.0
 30
0.0
  9
$UCSORGBOTTOM
 10
0.0
 20
0.0
 30
0.0
  9
$UCSORGLEFT
 10
0.0
 20
0.0
 30
0.0
  9
$UCSORGRIGHT
 10
0.0
 20
0.0
 30
0.0
  9
$UCSORGFRONT
 10
0.0
 20
0.0
 30
0.0
  9
$UCSORGBACK
 10
0.0
 20
0.0
 30
0.0
  9
$PUCSBASE
  2

  9
$PUCSNAME
  2

  9
$PUCSORG
 10
0.0
 20
0.0
 30
0.0
  9
$PUCSXDIR
 10
1.0
 20
0.0
 30
0.0
  9
$PUCSYDIR
 10
0.0
 20
1.0
 30
0.0
  9
$PUCSORTHOREF
  2

  9
$PUCSORTHOVIEW
 70
               0
  9
$PUCSORGTOP
 10
0.0
 20
0.0
 30
0.0
  9
$PUCSORGBOTTOM
 10
0.0
 20
0.0
 30
0.0
  9
$PUCSORGLEFT
 10
0.0
 20
0.0
 30
0.0
  9
$PUCSORGRIGHT
 10
0.0
 20
0.0
 30
0.0
  9
$PUCSORGFRONT
 10
0.0
 20
0.0
 30
0.0
  9
$PUCSORGBACK
 10
0.0
 20
0.0
 30
0.0
  9
$USERI1
 70
               0
  9
$USERI2
 70
               0
  9
$USERI3
 70
               0
  9
$USERI4
 70
               0
  9
$USERI5
 70
               0
  9
$USERR1
 40
0.0
  9
$USERR2
 40
0.0
  9
$USERR3
 40
0.0
  9
$USERR4
 40
0.0
  9
$USERR5
 40
0.0
  9
$WORLDVIEW
 70
               1
  9
$SHADEDGE
 70
               3
  9
$SHADEDIF
 70
              70
  9
$TILEMODE
 70
               1
  9
$MAXACTVP
 70
              16
  9
$PINSBASE
 10
0.0
 20
0.0
 30
0.0
  9
$PLIMCHECK
 70
               0
  9
$PEXTMIN
 10
1.0000000000000000E+20
 20
1.0000000000000000E+20
 30
1.0000000000000000E+20
  9
$PEXTMAX
 10
-1.0000000000000000E+20
 20
-1.0000000000000000E+20
 30
-1.0000000000000000E+20
  9
$PLIMMIN
 10
0.0
 20
0.0
  9
$PLIMMAX
 10
12.0
 20
9.0
  9
$UNITMODE
 70
               0
  9
$VISRETAIN
 70
               0
  9
$PLINEGEN
 70
               1
  9
$PSLTSCALE
 70
               0
  9
$TREEDEPTH
 70
            3020
  9
$CMLSTYLE
  2
Standard
  9
$CMLJUST
 70
               0
  9
$CMLSCALE
 40
1.0
  9
$PROXYGRAPHICS
 70
               0
  9
$MEASUREMENT
 70
               1
  9
$CELWEIGHT
370
               0
  9
$ENDCAPS
280
               0
  9
$JOINSTYLE
280
               0
  9
$LWDISPLAY
290
               1
  9
$INSUNITS
 70
               4
  9
$HYPERLINKBASE
  1

  9
$STYLESHEET
  1

  9
$XEDIT
290
               1
  9
$CEPSNTYPE
380
               0
  9
$PSTYLEMODE
290
               1
  9
$FINGERPRINTGUID
  2

  9
$VERSIONGUID
  2

  9
$EXTNAMES
290
               1
  9
$PSVPSCALE
 40
0.0
  0
ENDSEC
  0
SECTION
  2
CLASSES
  0
CLASS
  1
LWPOLYLINE
  2
AcDbPolyline
  3
AutoCAD 2000
 90
    32768
280
               0
281
               1
  0
CLASS
  1
IMAGE
  2
AcDbRasterImage
  3
ISM
 90
    32895
280
               0
281
               1
  0
CLASS
  1
OLE2FRAME
  2
AcDbOle2Frame
  3
AutoCAD 2000
 90
    32768
280
               0
281
               1
  0
CLASS
  1
HATCH
  2
AcDbHatch
  3
AutoCAD 2000
 90
    32768
280
               0
281
               1
  0
CLASS
  1
DICTIONARYVAR
  2
AcDbDictionaryVar
  3
AutoCAD 2000
 90
    32768
280
               0
281
               0
  0
CLASS
  1
RASTERVARIABLES
  2
AcDbRasterVariables
  3
ISM
 90
    32768
280
               0
281
               0
  0
CLASS
  1
IMAGEDEF
  2
AcDbRasterImageDef
  3
ISM
 90
    32768
280
               0
281
               0
  0
CLASS
  1
IMAGEDEF_REACTOR
  2
AcDbRasterImageDefReactor
  3
ISM
 90
    32769
280
               0
281
               0
  0
CLASS
  1
IDBUFFER
  2
AcDbIdBuffer
  3
AutoCAD 2000
 90
    32768
280
               0
281
               0
  0
CLASS
  1
SPATIAL_FILTER
  2
AcDbSpatialFilter
  3
AutoCAD 2000
 90
    32768
280
               0
281
               0
  0
CLASS
  1
XRECORD
  2
AcDbXrecord
  3
AutoCAD 2000
 90
    32768
280
               0
281
               0
  0
CLASS
  1
SORTENTSTABLE
  2
AcDbSortentsTable
  3
AutoCAD 2000
 90
    32768
280
               0
281
               0
  0
CLASS
  1
LAYER_INDEX
  2
AcDbLayerIndex
  3
AutoCAD 2000
 90
    32768
280
               0
281
               0
  0
CLASS
  1
SPATIAL_INDEX
  2
AcDbSpatialIndex
  3
AutoCAD 2000
 90
    32768
280
               0
281
               0
  0
CLASS
  1
OBJECT_PTR
  2
CAseDLPNTableRecord
  3
"ASE-LPNTableRecord"
 90
    32769
280
               0
281
               0
  0
CLASS
  1
LAYOUT
  2
AcDbLayout
  3
AutoCAD 2000
 90
        0
280
               0
281
               0
  0
CLASS
  1
PLOTSETTINGS
  2
AcDbPlotSettings
  3
AutoCAD 2000
 90
    32768
280
               0
281
               0
  0
CLASS
  1
ACDBDICTIONARYWDFLT
  2
AcDbDictionaryWithDefault
  3
AutoCAD 2000
 90
        0
280
               0
281
               0
  0
CLASS
  1
ACDBPLACEHOLDER
  2
AcDbPlaceHolder
  3
AutoCAD 2000
 90
        0
280
               0
281
               0
  0
CLASS
  1
VBA_PROJECT
  2
AcDbVbaProject
  3
acadvba
 90
    32768
280
               0
281
               0
  0
CLASS
  1
WIPEOUT
  2
AcDbWipeout
  3
WipeOut|AutoCAD Express Tool|expresstools@autodesk.com
 90
    32895
280
               0
281
               1
  0
CLASS
  1
WIPEOUTVARIABLES
  2
AcDbWipeoutVariables
  3
WipeOut|AutoCAD Express Tool|expresstools@autodesk.com
 90
        0
280
               0
281
               0
  0
CLASS
  1
RTEXT
  2
RText
  3
RText|AutoCAD Express Tool|expresstools@autodesk.com
 90
    32768
280
               0
281
               1
  0
CLASS
  1
ARCALIGNEDTEXT
  2
AcDbArcAlignedText
  3
ATEXT|AutoCAD Express Tool|expresstools@autodesk.com
 90
    32768
280
               0
281
               1
  0
ENDSEC
  0
SECTION
  2
TABLES
  0
TABLE
  2
VPORT
  5
7
100
AcDbSymbolTable
 70
               1
  0
VPORT
  5
15
100
AcDbSymbolTableRecord
100
AcDbViewportTableRecord
  2
*ACTIVE
 70
               0
 10
0.0
 20
0.0
 11
1.0
 21
1.0
 12
1480.7158345747796
 22
414.50403022289095
 13
0.0
 23
0.0
 14
1.0
 24
1.0
 15
0.0
 25
0.0
 16
0.0
 26
0.0
 36
1.0
 17
0.0
 27
0.0
 37
0.0
 40
1794.3309806437851
 41
0.688564
 42
50.0
 43
0.0
 44
0.0
 50
0.0
 51
0.0
 71
               0
 72
             100
 73
               1
 74
               1
 75
               0
 76
               0
 77
               0
 78
               0
281
               0
 65
               0
110
0.0
120
0.0
130
0.0
111
1.0
121
0.0
131
0.0
112
0.0
122
1.0
132
0.0
345
0
346
0
 79
               0
146
0.0
  0
ENDTAB
  0
TABLE
  2
LTYPE
  5
4
100
AcDbSymbolTable
 70
              13
  0
LTYPE
  5
11
100
AcDbSymbolTableRecord
100
AcDbLinetypeTableRecord
  2
ByBlock
 70
              64
  3

 72
              65
 73
               0
 40
0.0
  0
LTYPE
  5
12
100
AcDbSymbolTableRecord
100
AcDbLinetypeTableRecord
  2
ByLayer
 70
              64
  3

 72
              65
 73
               0
 40
0.0
  0
LTYPE
  5
13
100
AcDbSymbolTableRecord
100
AcDbLinetypeTableRecord
  2
Continuous
 70
              64
  3
Solid line
 72
              65
 73
               0
 40
0.0
  0
LTYPE
  5
25
100
AcDbSymbolTableRecord
100
AcDbLinetypeTableRecord
  2
STYLE_01
 70
               0
  3

 72
              65
 73
               2
 40
0.8858267716535434
 49
0.5905511811023623
 74
               0
 49
-0.2952755905511811
 74
               0
  0
LTYPE
  5
26
100
AcDbSymbolTableRecord
100
AcDbLinetypeTableRecord
  2
STYLE_02
 70
               0
  3

 72
              65
 73
               2
 40
0.4429133858267717
 49
0.2952755905511811
 74
               0
 49
-0.1476377952755906
 74
               0
  0
LTYPE
  5
27
100
AcDbSymbolTableRecord
100
AcDbLinetypeTableRecord
  2
STYLE_03
 70
               0
  3

 72
              65
 73
               2
 40
0.2952755905511811
 49
0.0002
 74
               0
 49
-0.2950755905511812
 74
               0
  0
LTYPE
  5
28
100
AcDbSymbolTableRecord
100
AcDbLinetypeTableRecord
  2
STYLE_04
 70
               0
  3

 72
              65
 73
               4
 40
1.1811023622047245
 49
0.5905511811023623
 74
               0
 49
-0.2952755905511811
 74
               0
 49
0.0002
 74
               0
 49
-0.2950755905511812
 74
               0
  0
LTYPE
  5
29
100
AcDbSymbolTableRecord
100
AcDbLinetypeTableRecord
  2
STYLE_05
 70
               0
  3

 72
              65
 73
               6
 40
1.4763779527559056
 49
0.5905511811023623
 74
               0
 49
-0.2952755905511811
 74
               0
 49
0.0002
 74
               0
 49
-0.2950755905511812
 74
               0
 49
0.0002
 74
               0
 49
-0.295075590551181
 74
               0
  0
LTYPE
  5
2A
100
AcDbSymbolTableRecord
100
AcDbLinetypeTableRecord
  2
STYLE_06
 70
               0
  3

 72
              65
 73
               4
 40
0.416656494140625
 49
0.25
 74
               0
 49
-0.08331298828125
 74
               0
 49
0.02777099609375
 74
               0
 49
-0.055572509765625
 74
               0
  0
LTYPE
  5
2B
100
AcDbSymbolTableRecord
100
AcDbLinetypeTableRecord
  2
STYLE_07
 70
               0
  3

 72
              65
 73
               6
 40
0.75
 49
0.25
 74
               0
 49
-0.08331298828125
 74
               0
 49
0.25
 74
               0
 49
-0.083343505859375
 74
               0
 49
0.02777099609375
 74
               0
 49
-0.055572509765625
 74
               0
  0
LTYPE
  5
2C
100
AcDbSymbolTableRecord
100
AcDbLinetypeTableRecord
  2
STYLE_08
 70
               0
  3

 72
              65
 73
               6
 40
0.5
 49
0.25
 74
               0
 49
-0.08331298828125
 74
               0
 49
0.02777099609375
 74
               0
 49
-0.055572509765625
 74
               0
 49
0.02777099609375
 74
               0
 49
-0.055572509765625
 74
               0
  0
LTYPE
  5
2D
100
AcDbSymbolTableRecord
100
AcDbLinetypeTableRecord
  2
STYLE_09
 70
               0
  3

 72
              65
 73
               4
 40
2.0
 49
1.5
 74
               0
 49
-0.111114501953125
 74
               0
 49
0.27777099609375
 74
               0
 49
-0.111114501953125
 74
               0
  0
LTYPE
  5
2E
100
AcDbSymbolTableRecord
100
AcDbLinetypeTableRecord
  2
STYLE_10
 70
               0
  3

 72
              65
 73
               6
 40
2.375
 49
1.5
 74
               0
 49
-0.111114501953125
 74
               0
 49
0.27777099609375
 74
               0
 49
-0.111114501953125
 74
               0
 49
0.25
 74
               0
 49
-0.125
 74
               0
  0
ENDTAB
  0
TABLE
  2
LAYER
  5
2
100
AcDbSymbolTable
 70
               6
  0
LAYER
  5
14
100
AcDbSymbolTableRecord
100
AcDbLayerTableRecord
  2
0
 70
               0
 62
               7
  6
Continuous
290
               1
370
              18
390
1D
  0
LAYER
  5
2F
100
AcDbSymbolTableRecord
100
AcDbLayerTableRecord
  2
Defpoints
 70
               0
 62
               7
  6
Continuous
290
               0
370
              -3
390
1D
  0
LAYER
  5
30
100
AcDbSymbolTableRecord
100
AcDbLayerTableRecord
  2
一般
 70
               0
 62
               7
  6
Continuous
290
               1
370
               5
390
1D
  0
LAYER
  5
31
100
AcDbSymbolTableRecord
100
AcDbLayerTableRecord
  2
寸法
 70
               0
 62
               7
  6
Continuous
290
               1
370
               5
390
1D
  0
LAYER
  5
32
100
AcDbSymbolTableRecord
100
AcDbLayerTableRecord
  2
1
 70
               0
 62
               7
  6
Continuous
290
               1
370
              18
390
1D
  0
LAYER
  5
33
100
AcDbSymbolTableRecord
100
AcDbLayerTableRecord
  2
2
 70
               0
 62
               7
  6
Continuous
290
               1
370
              18
390
1D
  0
ENDTAB
  0
TABLE
  2
STYLE
  5
3
100
AcDbSymbolTable
 70
               2
  0
STYLE
  5
17
100
AcDbSymbolTableRecord
100
AcDbTextStyleTableRecord
  2
Standard
 70
               0
 40
0.0
 41
1.0
 50
0.0
 71
               0
 42
0.0
  3
txt
  4
BIGFONT.SHX
  0
STYLE
  5
24
100
AcDbSymbolTableRecord
100
AcDbTextStyleTableRecord
  2
ＭＳ Ｐゴシック
 70
               0
 40
0.0
 41
1.0
 50
0.0
 71
               0
 42
0.0
  3
ＭＳ Ｐゴシック
  4

1001
ACAD
1000
ＭＳ Ｐゴシック
1071
        0
  0
ENDTAB
  0
TABLE
  2
VIEW
  5
5
100
AcDbSymbolTable
 70
               0
  0
ENDTAB
  0
TABLE
  2
UCS
  5
6
100
AcDbSymbolTable
 70
               0
  0
ENDTAB
  0
TABLE
  2
APPID
  5
8
100
AcDbSymbolTable
 70
               1
  0
APPID
  5
16
100
AcDbSymbolTableRecord
100
AcDbRegAppTableRecord
  2
ACAD
 70
               0
  0
ENDTAB
  0
TABLE
  2
DIMSTYLE
  5
9
100
AcDbSymbolTable
 70
               1
100
AcDbDimStyleTable
 71
               0
  0
DIMSTYLE
105
18
100
AcDbSymbolTableRecord
100
AcDbDimStyleTableRecord
  2
Standard
 70
               0
  3

  4

 40
1.0
 41
0.18
 42
0.0625
 43
0.38
 44
0.18
 45
0.0
 46
0.0
 47
0.0
 48
0.0
 71
               0
 72
               0
 73
               1
 74
               1
 75
               0
 76
               0
 77
               0
 78
               0
 79
               0
140
0.18
141
0.09
142
0.0
143
25.399999999999999
144
1.0
145
0.0
146
1.0
147
0.09
148
0.0
170
               0
171
               2
172
               0
173
               0
174
               0
175
               0
176
               0
177
               0
178
               0
179
               0
271
               4
272
               4
273
               2
274
               2
275
               0
276
               0
277
               2
278
              46
279
               0
280
               0
281
               0
282
               0
283
               1
284
               0
285
               0
286
               0
288
               0
340
17
341
0
342
0
343
0
344
0
371
              -2
372
              -2
  0
ENDTAB
  0
TABLE
  2
BLOCK_RECORD
  5
1
100
AcDbSymbolTable
 70
               0
  0
BLOCK_RECORD
  5
A
100
AcDbSymbolTableRecord
100
AcDbBlockTableRecord
  2
*MODEL_SPACE
340
20
  0
BLOCK_RECORD
  5
B
100
AcDbSymbolTableRecord
100
AcDbBlockTableRecord
  2
*PAPER_SPACE
340
21
  0
ENDTAB
  0
ENDSEC
  0
SECTION
  2
BLOCKS
  0
BLOCK
  5
D
100
AcDbEntity
  8
0
100
AcDbBlockBegin
  2
*MODEL_SPACE
 70
               0
 10
0.0
 20
0.0
 30
0.0
  3
*MODEL_SPACE
  1

  0
ENDBLK
  5
E
100
AcDbEntity
  8
0
100
AcDbBlockEnd
  0
BLOCK
  5
F
100
AcDbEntity
 67
               1
  8
0
100
AcDbBlockBegin
  2
*PAPER_SPACE
 70
               0
 10
0.0
 20
0.0
 30
0.0
  3
*PAPER_SPACE
  1

  0
ENDBLK
  5
10
100
AcDbEntity
 67
               1
  8
0
100
AcDbBlockEnd
  0
ENDSEC
  0
SECTION
  2
ENTITIES
  0
LINE
  5
34
100
AcDbEntity
  8
1
  6
STYLE_04
100
AcDbLine
 10
1183.3551277892529
 20
923.31709457594513
 30
0.0
 11
1183.3551277892529
 21
363.31709457594468
 31
0.0
  0
LINE
  5
35
100
AcDbEntity
  8
1
  6
STYLE_04
100
AcDbLine
 10
658.35512778925295
 20
608.31709457594445
 30
0.0
 11
1720.3301277892529
 21
608.31709457594445
 31
0.0
  0
LINE
  5
36
100
AcDbEntity
  8
1
  6
Continuous
100
AcDbLine
 10
1688.3551277892529
 20
37.184126903710194
 30
0.0
 11
1676.3551277892529
 21
37.184126903710194
 31
0.0
  0
LINE
  5
37
100
AcDbEntity
  8
1
  6
Continuous
100
AcDbLine
 10
691.35512778925295
 20
34.184126903710194
 30
0.0
 11
691.35512778925295
 21
30.184126903710194
 31
0.0
  0
LINE
  5
38
100
AcDbEntity
  8
1
  6
Continuous
100
AcDbLine
 10
694.35512778925295
 20
21.184126903710194
 30
0.0
 11
705.35512778925295
 21
21.184126903710194
 31
0.0
  0
LINE
  5
39
100
AcDbEntity
  8
1
  6
Continuous
100
AcDbLine
 10
708.35512778925295
 20
18.184126903710194
 30
0.0
 11
708.35512778925295
 21
-118.96340418568195
 31
0.0
  0
LINE
  5
3A
100
AcDbEntity
  8
1
  6
Continuous
100
AcDbLine
 10
1092.8551277892529
 20
-162.81587309629538
 30
0.0
 11
1273.8551277892529
 21
-162.81587309629538
 31
0.0
  0
LINE
  5
3B
100
AcDbEntity
  8
1
  6
Continuous
100
AcDbLine
 10
1658.3551277892529
 20
-118.96340418568195
 30
0.0
 11
1658.3551277892529
 21
18.184126903710194
 31
0.0
  0
LINE
  5
3C
100
AcDbEntity
  8
1
  6
Continuous
100
AcDbLine
 10
1661.3551277892529
 20
21.184126903710194
 30
0.0
 11
1672.3551277892529
 21
21.184126903710194
 31
0.0
  0
LINE
  5
3D
100
AcDbEntity
  8
1
  6
Continuous
100
AcDbLine
 10
1675.3551277892529
 20
30.184126903710194
 30
0.0
 11
1675.3551277892529
 21
34.184126903710194
 31
0.0
  0
LINE
  5
3E
100
AcDbEntity
  8
1
  6
STYLE_04
100
AcDbLine
 10
1183.3551277892529
 20
62.287698332281593
 30
0.0
 11
1183.3551277892529
 21
-205.01230166772382
 31
0.0
  0
LINE
  5
3F
100
AcDbEntity
  8
1
  6
STYLE_03
100
AcDbLine
 10
954.83226771375212
 20
37.184126903710194
 30
0.0
 11
954.83226771375212
 21
-157.43136620128223
 31
0.0
  0
LINE
  5
40
100
AcDbEntity
  8
1
  6
STYLE_03
100
AcDbLine
 10
1413.413098421106
 20
37.184126903710194
 30
0.0
 11
1413.413098421106
 21
-157.37147892340056
 31
0.0
  0
LINE
  5
41
100
AcDbEntity
  8
1
  6
STYLE_03
100
AcDbLine
 10
696.35512778925295
 20
27.184126903710194
 30
0.0
 11
1047.8551277892529
 21
27.184126903710194
 31
0.0
  0
LINE
  5
42
100
AcDbEntity
  8
1
  6
Continuous
100
AcDbLine
 10
1092.8551277892529
 20
-162.81587309629538
 30
0.0
 11
1092.8551277892529
 21
-169.81587309629538
 31
0.0
  0
LINE
  5
43
100
AcDbEntity
  8
1
  6
Continuous
100
AcDbLine
 10
1092.8551277892529
 20
-169.81587309629538
 30
0.0
 11
1273.8551277892529
 21
-169.81587309629538
 31
0.0
  0
LINE
  5
44
100
AcDbEntity
  8
1
  6
Continuous
100
AcDbLine
 10
1273.8551277892529
 20
-169.81587309629538
 30
0.0
 11
1273.8551277892529
 21
-162.81587309629538
 31
0.0
  0
LINE
  5
45
100
AcDbEntity
  8
1
  6
Continuous
100
AcDbLine
 10
1629.524589323556
 20
-148.9406015149824
 30
0.0
 11
1273.8551277892529
 21
-162.81587309629538
 31
0.0
  0
LINE
  5
46
100
AcDbEntity
  8
1
  6
Continuous
100
AcDbLine
 10
737.18566625494987
 20
-148.9406015149824
 30
0.0
 11
1092.8551277892529
 21
-162.81587309629538
 31
0.0
  0
ARC
  5
47
100
AcDbEntity
  8
1
  6
Continuous
100
AcDbCircle
 10
738.35512778925295
 20
-118.96340418568195
 30
0.0
 40
30.0
100
AcDbArc
 50
180.0
 51
267.76592693255867
  0
ARC
  5
48
100
AcDbEntity
  8
1
  6
Continuous
100
AcDbCircle
 10
1628.3551277892529
 20
-118.96340418568195
 30
0.0
 40
30.000000000000991
100
AcDbArc
 50
272.23407306744093
 51
0.0
  0
LINE
  5
49
100
AcDbEntity
  8
1
  6
Continuous
100
AcDbLine
 10
690.35512778925295
 20
37.184126903710194
 30
0.0
 11
678.35512778925295
 21
37.184126903710194
 31
0.0
  0
ARC
  5
4A
100
AcDbEntity
  8
1
  6
Continuous
100
AcDbCircle
 10
688.35512778925295
 20
34.184126903710194
 30
0.0
 40
3.0
100
AcDbArc
 50
0.0
 51
90.0
  0
ARC
  5
4B
100
AcDbEntity
  8
1
  6
Continuous
100
AcDbCircle
 10
694.35512778925295
 20
24.184126903710194
 30
0.0
 40
3.0
100
AcDbArc
 50
180.0
 51
270.0
  0
ARC
  5
4C
100
AcDbEntity
  8
1
  6
Continuous
100
AcDbCircle
 10
705.35512778925295
 20
18.184126903710194
 30
0.0
 40
3.0
100
AcDbArc
 50
0.0
 51
90.0
  0
ARC
  5
4D
100
AcDbEntity
  8
1
  6
STYLE_03
100
AcDbCircle
 10
694.35512778925295
 20
30.184126903710194
 30
0.0
 40
3.0
100
AcDbArc
 50
180.0
 51
270.0
  0
LINE
  5
4E
100
AcDbEntity
  8
1
  6
Continuous
100
AcDbLine
 10
691.35512778925295
 20
30.184126903710194
 30
0.0
 11
691.35512778925295
 21
34.184126903710194
 31
0.0
  0
ARC
  5
4F
100
AcDbEntity
  8
1
  6
STYLE_03
100
AcDbCircle
 10
1672.3551277892529
 20
30.184126903710194
 30
0.0
 40
3.0
100
AcDbArc
 50
270.0
 51
0.0
  0
ARC
  5
50
100
AcDbEntity
  8
1
  6
Continuous
100
AcDbCircle
 10
1678.3551277892529
 20
34.184126903710194
 30
0.0
 40
3.0
100
AcDbArc
 50
90.0
 51
180.0
  0
ARC
  5
51
100
AcDbEntity
  8
1
  6
Continuous
100
AcDbCircle
 10
1672.3551277892529
 20
24.184126903710194
 30
0.0
 40
3.0
100
AcDbArc
 50
270.0
 51
0.0
  0
ARC
  5
52
100
AcDbEntity
  8
1
  6
Continuous
100
AcDbCircle
 10
1661.3551277892529
 20
18.184126903710194
 30
0.0
 40
3.0
100
AcDbArc
 50
90.0
 51
180.0
  0
LINE
  5
53
100
AcDbEntity
  8
1
  6
Continuous
100
AcDbLine
 10
678.35512778925295
 20
37.184126903710194
 30
0.0
 11
1676.3551277892529
 21
37.184126903710194
 31
0.0
  0
LINE
  5
54
100
AcDbEntity
  8
1
  6
Continuous
100
AcDbLine
 10
705.35512778925295
 20
21.184126903710194
 30
0.0
 11
1050.8551277892529
 21
21.184126903710194
 31
0.0
  0
LINE
  5
55
100
AcDbEntity
  8
1
  6
Continuous
100
AcDbLine
 10
678.35512778925295
 20
34.684126903710194
 30
0.0
 11
688.35512778925295
 21
34.684126903710194
 31
0.0
  0
ARC
  5
56
100
AcDbEntity
  8
1
  6
Continuous
100
AcDbCircle
 10
688.35512778925295
 20
34.184126903710194
 30
0.0
 40
0.5
100
AcDbArc
 50
0.0
 51
90.0
  0
LINE
  5
57
100
AcDbEntity
  8
1
  6
Continuous
100
AcDbLine
 10
688.85512778925295
 20
34.184126903710194
 30
0.0
 11
688.85512778925295
 21
24.184126903710194
 31
0.0
  0
ARC
  5
58
100
AcDbEntity
  8
1
  6
Continuous
100
AcDbCircle
 10
694.35512778925295
 20
24.184126903710194
 30
0.0
 40
5.5
100
AcDbArc
 50
180.0
 51
270.0
  0
LINE
  5
59
100
AcDbEntity
  8
1
  6
Continuous
100
AcDbLine
 10
694.35512778925295
 20
18.684126903710194
 30
0.0
 11
705.35512778925295
 21
18.684126903710194
 31
0.0
  0
ARC
  5
5A
100
AcDbEntity
  8
1
  6
Continuous
100
AcDbCircle
 10
705.35512778925295
 20
18.184126903710194
 30
0.0
 40
0.5
100
AcDbArc
 50
0.0
 51
90.0
  0
LINE
  5
5B
100
AcDbEntity
  8
1
  6
Continuous
100
AcDbLine
 10
705.85512778925295
 20
18.184126903710194
 30
0.0
 11
705.85512778925295
 21
-118.96340418568195
 31
0.0
  0
ARC
  5
5C
100
AcDbEntity
  8
1
  6
Continuous
100
AcDbCircle
 10
738.35512778925295
 20
-118.96340418568195
 30
0.0
 40
32.5
100
AcDbArc
 50
180.0
 51
267.7659269325593
  0
LINE
  5
5D
100
AcDbEntity
  8
1
  6
Continuous
100
AcDbLine
 10
737.0882111270912
 20
-151.43870129242453
 30
0.0
 11
1090.3551277892534
 21
-165.22024550551293
 31
0.0
  0
LINE
  5
5E
100
AcDbEntity
  8
1
  6
Continuous
100
AcDbLine
 10
1090.3551277892534
 20
-165.22024550551293
 30
0.0
 11
1090.3551277892529
 21
-172.31587309629538
 31
0.0
  0
LINE
  5
5F
100
AcDbEntity
  8
1
  6
Continuous
100
AcDbLine
 10
1090.3551277892529
 20
-172.31587309629538
 30
0.0
 11
1276.3551277892529
 21
-172.31587309629538
 31
0.0
  0
LINE
  5
60
100
AcDbEntity
  8
1
  6
Continuous
100
AcDbLine
 10
1276.3551277892529
 20
-172.31587309629538
 30
0.0
 11
1276.3551277892529
 21
-165.22024550551293
 31
0.0
  0
LINE
  5
61
100
AcDbEntity
  8
1
  6
Continuous
100
AcDbLine
 10
1276.3551277892529
 20
-165.22024550551293
 30
0.0
 11
1629.6220444514149
 21
-151.43870129242407
 31
0.0
  0
ARC
  5
62
100
AcDbEntity
  8
1
  6
Continuous
100
AcDbCircle
 10
1628.3551277892529
 20
-118.96340418568195
 30
0.0
 40
32.500000000001002
100
AcDbArc
 50
272.2340730674411
 51
0.0
  0
LINE
  5
63
100
AcDbEntity
  8
1
  6
Continuous
100
AcDbLine
 10
1660.8551277892529
 20
-118.96340418568195
 30
0.0
 11
1660.8551277892529
 21
18.184126903710194
 31
0.0
  0
ARC
  5
64
100
AcDbEntity
  8
1
  6
Continuous
100
AcDbCircle
 10
1661.3551277892529
 20
18.184126903710194
 30
0.0
 40
0.5
100
AcDbArc
 50
90.0
 51
180.0
  0
LINE
  5
65
100
AcDbEntity
  8
1
  6
Continuous
100
AcDbLine
 10
1661.3551277892529
 20
18.684126903710194
 30
0.0
 11
1672.3551277892529
 21
18.684126903710194
 31
0.0
  0
ARC
  5
66
100
AcDbEntity
  8
1
  6
Continuous
100
AcDbCircle
 10
1672.3551277892529
 20
24.184126903710194
 30
0.0
 40
5.5
100
AcDbArc
 50
270.0
 51
0.0
  0
LINE
  5
67
100
AcDbEntity
  8
1
  6
Continuous
100
AcDbLine
 10
1677.8551277892529
 20
24.184126903710194
 30
0.0
 11
1677.8551277892529
 21
34.184126903710194
 31
0.0
  0
ARC
  5
68
100
AcDbEntity
  8
1
  6
Continuous
100
AcDbCircle
 10
1678.3551277892529
 20
34.184126903710194
 30
0.0
 40
0.5
100
AcDbArc
 50
90.0
 51
180.0
  0
LINE
  5
69
100
AcDbEntity
  8
1
  6
Continuous
100
AcDbLine
 10
1678.3551277892529
 20
34.684126903710194
 30
0.0
 11
1688.3551277892529
 21
34.684126903710194
 31
0.0
  0
LINE
  5
6A
100
AcDbEntity
  8
1
  6
Continuous
100
AcDbLine
 10
678.35512778925295
 20
37.184126903710194
 30
0.0
 11
678.35512778925295
 21
34.684126903710194
 31
0.0
  0
LINE
  5
6B
100
AcDbEntity
  8
1
  6
Continuous
100
AcDbLine
 10
1688.3551277892529
 20
37.184126903710194
 30
0.0
 11
1688.3551277892529
 21
34.684126903710194
 31
0.0
  0
LINE
  5
6C
100
AcDbEntity
  8
1
  6
Continuous
100
AcDbLine
 10
1933.5336992178245
 20
383.31709457594457
 30
0.0
 11
1933.5336992178245
 21
395.31709457594513
 31
0.0
  0
LINE
  5
6D
100
AcDbEntity
  8
1
  6
Continuous
100
AcDbLine
 10
1936.0336992178245
 20
383.31709457594457
 30
0.0
 11
1936.0336992178238
 21
391.81709457594457
 31
0.0
  0
LINE
  5
6E
100
AcDbEntity
  8
1
  6
Continuous
100
AcDbLine
 10
1937.0336992178238
 20
893.31709457594513
 30
0.0
 11
1940.5336992178238
 21
893.31709457594513
 31
0.0
  0
LINE
  5
6F
100
AcDbEntity
  8
1
  6
Continuous
100
AcDbLine
 10
2022.6950347186539
 20
875.81709457594513
 30
0.0
 11
2101.5062849417704
 21
875.81709457594513
 31
0.0
  0
LINE
  5
70
100
AcDbEntity
  8
1
  6
Continuous
100
AcDbLine
 10
1946.5336992178229
 20
773.43184004669513
 30
0.0
 11
2101.2377994255189
 21
773.43184004669513
 31
0.0
  0
LINE
  5
71
100
AcDbEntity
  8
1
  6
Continuous
100
AcDbLine
 10
1955.0336992178238
 20
410.81709457594513
 30
0.0
 11
2088.5959399487701
 21
410.81709457594513
 31
0.0
  0
LINE
  5
72
100
AcDbEntity
  8
1
  6
Continuous
100
AcDbLine
 10
1937.5336992178245
 20
393.31709457594457
 30
0.0
 11
1949.0336992178236
 21
393.31709457594457
 31
0.0
  0
LINE
  5
73
100
AcDbEntity
  8
1
  6
STYLE_04
100
AcDbLine
 10
1918.6469007484363
 20
733.31709457594513
 30
0.0
 11
2157.0971558504771
 21
733.31709457594513
 31
0.0
  0
LINE
  5
74
100
AcDbEntity
  8
1
  6
Continuous
100
AcDbLine
 10
1933.5336992178245
 20
903.31709457594445
 30
0.0
 11
1936.0336992178245
 21
903.31709457594445
 31
0.0
  0
LINE
  5
75
100
AcDbEntity
  8
1
  6
Continuous
100
AcDbLine
 10
1933.5336992178245
 20
383.31709457594457
 30
0.0
 11
1936.0336992178245
 21
383.31709457594457
 31
0.0
  0
LINE
  5
76
100
AcDbEntity
  8
1
  6
Continuous
100
AcDbLine
 10
1952.0336992178245
 20
878.81709457594513
 30
0.0
 11
1952.0336992178245
 21
890.31709457594513
 31
0.0
  0
LINE
  5
77
100
AcDbEntity
  8
1
  6
Continuous
100
AcDbLine
 10
2133.5336992178245
 20
823.81709457594445
 30
0.0
 11
2140.5336992178245
 21
823.81709457594445
 31
0.0
  0
LINE
  5
78
100
AcDbEntity
  8
1
  6
Continuous
100
AcDbLine
 10
2140.5336992178245
 20
823.81709457594445
 30
0.0
 11
2140.5336992178245
 21
642.81709457594445
 31
0.0
  0
LINE
  5
79
100
AcDbEntity
  8
1
  6
Continuous
100
AcDbLine
 10
2140.5336992178245
 20
642.81709457594445
 30
0.0
 11
2133.5336992178245
 21
642.81709457594445
 31
0.0
  0
LINE
  5
7A
100
AcDbEntity
  8
1
  6
Continuous
100
AcDbLine
 10
2133.5336992178245
 20
823.81709457594445
 30
0.0
 11
2131.3978143283161
 21
848.86591213184522
 31
0.0
  0
ARC
  5
7B
100
AcDbEntity
  8
1
  6
Continuous
100
AcDbCircle
 10
2101.5062849417704
 20
845.81709457594513
 30
0.0
 40
29.999999999999865
100
AcDbArc
 50
4.8737583689662065
 51
90.0
  0
ARC
  5
7C
100
AcDbEntity
  8
1
  6
Continuous
100
AcDbCircle
 10
2088.5959399487701
 20
440.81709457594559
 30
0.0
 40
30.0
100
AcDbArc
 50
270.0
 51
356.30861401354889
  0
LINE
  5
7D
100
AcDbEntity
  8
1
  6
Continuous
100
AcDbLine
 10
1933.5336992178245
 20
894.31709457594445
 30
0.0
 11
1933.5336992178245
 21
903.31709457594513
 31
0.0
  0
ARC
  5
7E
100
AcDbEntity
  8
1
  6
Continuous
100
AcDbCircle
 10
1949.0336992178245
 20
890.31709457594513
 30
0.0
 40
3.0
100
AcDbArc
 50
0.0
 51
90.0
  0
LINE
  5
7F
100
AcDbEntity
  8
1
  6
Continuous
100
AcDbLine
 10
1933.5336992178245
 20
899.97584457594519
 30
0.0
 11
1933.5336992178245
 21
845.13691600451614
 31
0.0
  0
LINE
  5
80
100
AcDbEntity
  8
1
  6
Continuous
100
AcDbLine
 10
1933.5336992178245
 20
447.70495171880214
 30
0.0
 11
1933.5336992178245
 21
753.51418386165858
 31
0.0
  0
LINE
  5
81
100
AcDbEntity
  8
1
  6
Continuous
100
AcDbLine
 10
1952.0336992178238
 20
407.81709457594513
 30
0.0
 11
1952.0336992178238
 21
396.31709457594457
 31
0.0
  0
ARC
  5
82
100
AcDbEntity
  8
1
  6
Continuous
100
AcDbCircle
 10
1949.0336992178236
 20
396.31709457594457
 30
0.0
 40
3.0
100
AcDbArc
 50
270.0
 51
0.0
  0
ARC
  5
83
100
AcDbEntity
  8
1
  6
Continuous
100
AcDbCircle
 10
1955.0336992178238
 20
407.81709457594513
 30
0.0
 40
3.0
100
AcDbArc
 50
90.0
 51
180.0
  0
LINE
  5
84
100
AcDbEntity
  8
1
  6
Continuous
100
AcDbLine
 10
1933.5336992178245
 20
447.70495171880214
 30
0.0
 11
1933.5336992178245
 21
389.92822340247562
 31
0.0
  0
LINE
  5
85
100
AcDbEntity
  8
1
  6
Continuous
100
AcDbLine
 10
1933.5336992178238
 20
773.75320262707862
 30
0.0
 11
1933.5336992178245
 21
845.13691600451614
 31
0.0
  0
LINE
  5
86
100
AcDbEntity
  8
1
  6
Continuous
100
AcDbLine
 10
1933.5336992178245
 20
776.13709814737365
 30
0.0
 11
1933.5336992178245
 21
750.68631957594459
 31
0.0
  0
LINE
  5
87
100
AcDbEntity
  8
1
  6
Continuous
100
AcDbLine
 10
1943.5336992178238
 20
776.43184004669513
 30
0.0
 11
1943.5336992178245
 21
845.13691600451614
 31
0.0
  0
LINE
  5
88
100
AcDbEntity
  8
1
  6
Continuous
100
AcDbLine
 10
1943.5336992178245
 20
887.81709457594513
 30
0.0
 11
1943.5336992178245
 21
837.68452123410827
 31
0.0
  0
ARC
  5
89
100
AcDbEntity
  8
1
  6
Continuous
100
AcDbCircle
 10
1946.5336992178229
 20
776.43184004669513
 30
0.0
 40
3.0
100
AcDbArc
 50
180.0
 51
270.0
  0
LINE
  5
8A
100
AcDbEntity
  8
1
  6
Continuous
100
AcDbLine
 10
1949.0336992178245
 20
893.31709457594513
 30
0.0
 11
1939.2840579550689
 21
893.31709457594513
 31
0.0
  0
LINE
  5
8B
100
AcDbEntity
  8
1
  6
STYLE_03
100
AcDbLine
 10
1955.0336992178245
 20
875.81709457594513
 30
0.0
 11
2022.911586518826
 21
875.81709457594513
 31
0.0
  0
ARC
  5
8C
100
AcDbEntity
  8
1
  6
STYLE_03
100
AcDbCircle
 10
1955.0336992178245
 20
878.81709457594513
 30
0.0
 40
3.0
100
AcDbArc
 50
180.0
 51
270.0
  0
LINE
  5
8D
100
AcDbEntity
  8
1
  6
STYLE_03
100
AcDbLine
 10
1949.5336992178245
 20
802.81709457594513
 30
0.0
 11
1949.5336992178245
 21
815.31709457594513
 31
0.0
  0
LINE
  5
8E
100
AcDbEntity
  8
1
  6
Continuous
100
AcDbLine
 10
1949.5336992178245
 20
770.75320262707862
 30
0.0
 11
1949.5336992178245
 21
401.31709457594445
 31
0.0
  0
LINE
  5
8F
100
AcDbEntity
  8
1
  6
STYLE_03
100
AcDbLine
 10
1949.5336992178245
 20
770.75320262707862
 30
0.0
 11
1949.5336992178245
 21
802.81709457594513
 31
0.0
  0
LINE
  5
90
100
AcDbEntity
  8
1
  6
STYLE_05
100
AcDbLine
 10
2001.7256635035387
 20
410.81709457594513
 30
0.0
 11
2001.7256635035387
 21
875.81709457594513
 31
0.0
  0
LINE
  5
91
100
AcDbEntity
  8
1
  6
Continuous
100
AcDbLine
 10
2198.4972842791421
 20
504.13708527291158
 30
0.0
 11
2089.0585087689383
 21
563.06565670148314
 31
0.0
  0
CIRCLE
  5
92
100
AcDbEntity
  8
1
  6
Continuous
100
AcDbCircle
 10
2089.0585087689383
 20
563.06565670148314
 30
0.0
 40
2.5
  0
LINE
  5
93
100
AcDbEntity
  8
1
  6
Continuous
100
AcDbLine
 10
2198.5764177920037
 20
587.86034188033148
 30
0.0
 11
2198.4972842791421
 21
504.13708527291158
 31
0.0
  0
MTEXT
  5
94
100
AcDbEntity
  8
1
100
AcDbMText
 10
2175.0635314812353
 20
558.77472622031144
 30
0.0
 40
17.868020304568528
 41
0.0
 71
               2
 72
               1
  1
{\C7;\l防滴パツト}
  7
ＭＳ Ｐゴシック
 11
0.0009451557301514
 21
0.9999995533402232
 31
0.0
 73
               1
 44
0.8762322015334063
  0
MTEXT
  5
95
100
AcDbEntity
  8
1
100
AcDbMText
 10
2071.4495335841425
 20
472.2171448688938
 30
0.0
 40
19.095840867992766
 41
0.0
 71
               2
 72
               1
  1
{\C7;\lR30}
  7
ＭＳ Ｐゴシック
 11
0.7151115733742973
 21
-0.6990103272671563
 31
0.0
 73
               1
 44
0.8762322015334063
  0
LINE
  5
96
100
AcDbEntity
  8
1
  6
Continuous
100
AcDbLine
 10
2123.4115650320387
 20
763.63887146714671
 30
0.0
 11
2098.0094222440548
 21
737.81608433994313
 31
0.0
  0
LINE
  5
97
100
AcDbEntity
  8
1
  6
Continuous
100
AcDbLine
 10
2123.4115650320387
 20
763.63887146714671
 30
0.0
 11
2113.5541283938073
 21
746.23683299680476
 31
0.0
  0
LINE
  5
98
100
AcDbEntity
  8
1
  6
Continuous
100
AcDbLine
 10
2123.4115650320387
 20
763.63887146714671
 30
0.0
 11
2106.1737552519635
 21
753.49698239331212
 31
0.0
  0
MTEXT
  5
99
100
AcDbEntity
  8
1
100
AcDbMText
 10
2069.9124393711722
 20
724.9534423610512
 30
0.0
 40
19.095840867992766
 41
0.0
 71
               2
 72
               1
  1
{\C7;\lR30}
  7
ＭＳ Ｐゴシック
 11
0.7012765822409398
 21
0.7128893008037548
 31
0.0
 73
               1
 44
0.8762322015334063
  0
LINE
  5
9A
100
AcDbEntity
  8
1
  6
Continuous
100
AcDbLine
 10
2120.924361399545
 20
865.28985264151027
 30
0.0
 11
2097.8178494720851
 21
842.11827241414005
 31
0.0
  0
LINE
  5
9B
100
AcDbEntity
  8
1
  6
Continuous
100
AcDbLine
 10
2120.924361399545
 20
865.28985264151027
 30
0.0
 11
2110.9487243818157
 21
847.95530141886513
 31
0.0
  0
LINE
  5
9C
100
AcDbEntity
  8
1
  6
Continuous
100
AcDbLine
 10
2120.924361399545
 20
865.28985264151027
 30
0.0
 11
2103.6179307119364
 21
855.26550942836172
 31
0.0
  0
MTEXT
  5
9D
100
AcDbEntity
  8
1
100
AcDbMText
 10
2071.0899492194249
 20
828.34759527009703
 30
0.0
 40
19.095840867992766
 41
0.0
 71
               2
 72
               1
  1
{\C7;\lR30}
  7
ＭＳ Ｐゴシック
 11
0.7061118792057795
 21
0.7081002853017945
 31
0.0
 73
               1
 44
0.8762322015334063
  0
LINE
  5
9E
100
AcDbEntity
  8
1
  6
Continuous
100
AcDbLine
 10
1933.5336992178245
 20
908.31709457594445
 30
0.0
 11
1933.5336992178245
 21
969.63963921880202
 31
0.0
  0
LINE
  5
9F
100
AcDbEntity
  8
1
  6
Continuous
100
AcDbLine
 10
1933.5336992178245
 20
908.31709457594445
 30
0.0
 11
1933.5336992178245
 21
963.31709457594513
 31
0.0
  0
LINE
  5
A0
100
AcDbEntity
  8
1
  6
Continuous
100
AcDbLine
 10
1933.5336992178245
 20
1013.3170945759451
 30
0.0
 11
1949.5336992178245
 21
1013.3170945759451
 31
0.0
  0
LINE
  5
A1
100
AcDbEntity
  8
1
  6
Continuous
100
AcDbLine
 10
1933.5336992178245
 20
908.31709457594445
 30
0.0
 11
1933.5336992178245
 21
1018.3170945759451
 31
0.0
  0
LINE
  5
A2
100
AcDbEntity
  8
1
  6
Continuous
100
AcDbLine
 10
1903.5336992178245
 20
1013.3170945759451
 30
0.0
 11
1933.5336992178245
 21
1013.3170945759451
 31
0.0
  0
LINE
  5
A3
100
AcDbEntity
  8
1
  6
Continuous
100
AcDbLine
 10
1933.5336992178245
 20
1013.3170945759451
 30
0.0
 11
1914.2151826920428
 21
1008.1407136738948
 31
0.0
  0
LINE
  5
A4
100
AcDbEntity
  8
1
  6
Continuous
100
AcDbLine
 10
1933.5336992178245
 20
1013.3170945759451
 30
0.0
 11
1914.2151826920428
 21
1018.4934754779953
 31
0.0
  0
LINE
  5
A5
100
AcDbEntity
  8
1
  6
Continuous
100
AcDbLine
 10
1949.5336992178245
 20
1013.3170945759451
 30
0.0
 11
1979.5336992178245
 21
1013.3170945759451
 31
0.0
  0
LINE
  5
A6
100
AcDbEntity
  8
1
  6
Continuous
100
AcDbLine
 10
1949.5336992178245
 20
1013.3170945759451
 30
0.0
 11
1968.8522157436059
 21
1018.4934754779953
 31
0.0
  0
LINE
  5
A7
100
AcDbEntity
  8
1
  6
Continuous
100
AcDbLine
 10
1949.5336992178245
 20
1013.3170945759451
 30
0.0
 11
1968.8522157436059
 21
1008.1407136738948
 31
0.0
  0
MTEXT
  5
A8
100
AcDbEntity
  8
1
100
AcDbMText
 10
1938.9562020046701
 20
1039.7439378155893
 30
0.0
 40
19.095840867992766
 41
0.0
 71
               2
 72
               1
  1
{\C7;\l16}
  7
ＭＳ Ｐゴシック
 11
1.0
 21
0.0000000001745329
 31
0.0
 73
               1
 44
0.8762322015334063
  0
LINE
  5
A9
100
AcDbEntity
  8
1
  6
Continuous
100
AcDbLine
 10
1933.5336992178245
 20
301.71951804533262
 30
0.0
 11
1949.5336992178245
 21
301.71951804533262
 31
0.0
  0
LINE
  5
AA
100
AcDbEntity
  8
1
  6
Continuous
100
AcDbLine
 10
1933.5336992178245
 20
378.31709457594457
 30
0.0
 11
1933.5336992178245
 21
296.71951804533262
 31
0.0
  0
LINE
  5
AB
100
AcDbEntity
  8
1
  6
Continuous
100
AcDbLine
 10
1893.5336992178245
 20
301.71951804533262
 30
0.0
 11
1933.5336992178245
 21
301.71951804533262
 31
0.0
  0
LINE
  5
AC
100
AcDbEntity
  8
1
  6
Continuous
100
AcDbLine
 10
1933.5336992178245
 20
301.71951804533262
 30
0.0
 11
1914.2151826920428
 21
296.54313714328214
 31
0.0
  0
LINE
  5
AD
100
AcDbEntity
  8
1
  6
Continuous
100
AcDbLine
 10
1933.5336992178245
 20
301.71951804533262
 30
0.0
 11
1914.2151826920428
 21
306.8958989473831
 31
0.0
  0
MTEXT
  5
AE
100
AcDbEntity
  8
1
100
AcDbMText
 10
1913.5337166531076
 20
325.81534894840195
 30
0.0
 40
19.095840867992766
 41
0.0
 71
               2
 72
               1
  1
{\C7;\l16}
  7
ＭＳ Ｐゴシック
 11
1.0
 21
0.0000000001745329
 31
0.0
 73
               1
 44
0.8762322015334063
  0
LINE
  5
AF
100
AcDbEntity
  8
1
  6
Continuous
100
AcDbLine
 10
1949.5336992178245
 20
301.71951804533262
 30
0.0
 11
2133.5336992178236
 21
301.71951804533262
 31
0.0
  0
LINE
  5
B0
100
AcDbEntity
  8
1
  6
Continuous
100
AcDbLine
 10
1949.5336992178245
 20
301.71951804533262
 30
0.0
 11
1968.8522157436059
 21
306.8958989473831
 31
0.0
  0
LINE
  5
B1
100
AcDbEntity
  8
1
  6
Continuous
100
AcDbLine
 10
1949.5336992178245
 20
301.71951804533262
 30
0.0
 11
1968.8522157436059
 21
296.54313714328214
 31
0.0
  0
LINE
  5
B2
100
AcDbEntity
  8
1
  6
Continuous
100
AcDbLine
 10
2133.5336992178236
 20
301.71951804533262
 30
0.0
 11
2114.2151826920426
 21
296.54313714328214
 31
0.0
  0
LINE
  5
B3
100
AcDbEntity
  8
1
  6
Continuous
100
AcDbLine
 10
2133.5336992178236
 20
301.71951804533262
 30
0.0
 11
2114.2151826920426
 21
306.8958989473831
 31
0.0
  0
LINE
  5
B4
100
AcDbEntity
  8
1
  6
Continuous
100
AcDbLine
 10
2133.5336992178236
 20
590.09962008614923
 30
0.0
 11
2133.5336992178236
 21
296.71951804533262
 31
0.0
  0
MTEXT
  5
B5
100
AcDbEntity
  8
1
100
AcDbMText
 10
2041.5337166531076
 20
325.81534894840195
 30
0.0
 40
19.095840867992766
 41
0.0
 71
               2
 72
               1
  1
{\C7;\l184±2_}
  7
ＭＳ Ｐゴシック
 11
1.0
 21
0.0000000001745329
 31
0.0
 73
               1
 44
0.8762322015334063
  0
LINE
  5
B6
100
AcDbEntity
  8
1
  6
Continuous
100
AcDbLine
 10
2133.5336992178236
 20
301.71951804533262
 30
0.0
 11
2140.5336992178245
 21
301.71951804533262
 31
0.0
  0
LINE
  5
B7
100
AcDbEntity
  8
1
  6
Continuous
100
AcDbLine
 10
2140.5336992178245
 20
654.50013029023069
 30
0.0
 11
2140.5336992178245
 21
296.71951804533262
 31
0.0
  0
LINE
  5
B8
100
AcDbEntity
  8
1
  6
Continuous
100
AcDbLine
 10
2140.5336992178245
 20
301.71951804533262
 30
0.0
 11
2165.5336992178245
 21
301.71951804533262
 31
0.0
  0
LINE
  5
B9
100
AcDbEntity
  8
1
  6
Continuous
100
AcDbLine
 10
2140.5336992178245
 20
301.71951804533262
 30
0.0
 11
2159.8522157436059
 21
306.8958989473831
 31
0.0
  0
LINE
  5
BA
100
AcDbEntity
  8
1
  6
Continuous
100
AcDbLine
 10
2140.5336992178245
 20
301.71951804533262
 30
0.0
 11
2159.8522157436059
 21
296.54313714328214
 31
0.0
  0
LINE
  5
BB
100
AcDbEntity
  8
1
  6
Continuous
100
AcDbLine
 10
673.35512778925295
 20
37.184126903710194
 30
0.0
 11
613.35512778925295
 21
37.184126903710194
 31
0.0
  0
LINE
  5
BC
100
AcDbEntity
  8
1
  6
Continuous
100
AcDbLine
 10
558.35512778925295
 20
21.184126903710194
 30
0.0
 11
558.35512778925295
 21
37.184126903710194
 31
0.0
  0
LINE
  5
BD
100
AcDbEntity
  8
1
  6
Continuous
100
AcDbLine
 10
673.35512778925295
 20
37.184126903710194
 30
0.0
 11
553.35512778925295
 21
37.184126903710194
 31
0.0
  0
LINE
  5
BE
100
AcDbEntity
  8
1
  6
Continuous
100
AcDbLine
 10
558.35512778925295
 20
37.184126903710194
 30
0.0
 11
558.35512778925295
 21
77.184126903710194
 31
0.0
  0
LINE
  5
BF
100
AcDbEntity
  8
1
  6
Continuous
100
AcDbLine
 10
558.35512778925295
 20
37.184126903710194
 30
0.0
 11
553.17874688720258
 21
56.502643429491627
 31
0.0
  0
LINE
  5
C0
100
AcDbEntity
  8
1
  6
Continuous
100
AcDbLine
 10
558.35512778925295
 20
37.184126903710194
 30
0.0
 11
563.53150869130332
 21
56.502643429491627
 31
0.0
  0
MTEXT
  5
C1
100
AcDbEntity
  8
1
100
AcDbMText
 10
534.25928692126035
 20
57.184109465094139
 30
0.0
 40
19.095840867992766
 41
0.0
 71
               2
 72
               1
  1
{\C7;\l16}
  7
ＭＳ Ｐゴシック
 11
0.0
 21
1.0
 31
0.0
 73
               1
 44
0.8762322015334063
  0
LINE
  5
C2
100
AcDbEntity
  8
1
  6
Continuous
100
AcDbLine
 10
558.35512778925295
 20
-162.81587309629538
 30
0.0
 11
558.35512778925295
 21
21.184126903710194
 31
0.0
  0
LINE
  5
C3
100
AcDbEntity
  8
1
  6
Continuous
100
AcDbLine
 10
558.35512778925295
 20
-162.81587309629538
 30
0.0
 11
553.17874688720258
 21
-143.49735657051326
 31
0.0
  0
LINE
  5
C4
100
AcDbEntity
  8
1
  6
Continuous
100
AcDbLine
 10
558.35512778925295
 20
-162.81587309629538
 30
0.0
 11
563.53150869130332
 21
-143.49735657051326
 31
0.0
  0
LINE
  5
C5
100
AcDbEntity
  8
1
  6
Continuous
100
AcDbLine
 10
558.35512778925295
 20
21.184126903710194
 30
0.0
 11
563.53150869130332
 21
1.8656103779291016
 31
0.0
  0
LINE
  5
C6
100
AcDbEntity
  8
1
  6
Continuous
100
AcDbLine
 10
558.35512778925295
 20
21.184126903710194
 30
0.0
 11
553.17874688720258
 21
1.8656103779291016
 31
0.0
  0
LINE
  5
C7
100
AcDbEntity
  8
1
  6
Continuous
100
AcDbLine
 10
1087.8551277892534
 20
-162.81587309629538
 30
0.0
 11
553.35512778925295
 21
-162.81587309629538
 31
0.0
  0
MTEXT
  5
C8
100
AcDbEntity
  8
1
100
AcDbMText
 10
534.25928692126035
 20
-70.815860017330237
 30
0.0
 40
19.095840867992766
 41
0.0
 71
               2
 72
               1
  1
{\C7;\l184±2_}
  7
ＭＳ Ｐゴシック
 11
0.0
 21
1.0
 31
0.0
 73
               1
 44
0.8762322015334063
  0
LINE
  5
C9
100
AcDbEntity
  8
1
  6
Continuous
100
AcDbLine
 10
558.35512778925295
 20
-169.81587309629538
 30
0.0
 11
558.35512778925295
 21
-162.81587309629538
 31
0.0
  0
LINE
  5
CA
100
AcDbEntity
  8
1
  6
Continuous
100
AcDbLine
 10
1087.8551277892529
 20
-169.81587309629538
 30
0.0
 11
553.35512778925295
 21
-169.81587309629538
 31
0.0
  0
LINE
  5
CB
100
AcDbEntity
  8
1
  6
Continuous
100
AcDbLine
 10
558.35512778925295
 20
-194.81587309629538
 30
0.0
 11
558.35512778925295
 21
-169.81587309629538
 31
0.0
  0
LINE
  5
CC
100
AcDbEntity
  8
1
  6
Continuous
100
AcDbLine
 10
558.35512778925295
 20
-169.81587309629538
 30
0.0
 11
563.53150869130332
 21
-189.13438962207636
 31
0.0
  0
LINE
  5
CD
100
AcDbEntity
  8
1
  6
Continuous
100
AcDbLine
 10
558.35512778925295
 20
-169.81587309629538
 30
0.0
 11
553.17874688720258
 21
-189.13438962207636
 31
0.0
  0
LINE
  5
CE
100
AcDbEntity
  8
1
  6
Continuous
100
AcDbLine
 10
618.35512778925295
 20
-162.81587309629538
 30
0.0
 11
618.35512778925295
 21
-149.61628303610235
 31
0.0
  0
LINE
  5
CF
100
AcDbEntity
  8
1
  6
Continuous
100
AcDbLine
 10
1087.8551277892529
 20
-162.81587309629538
 30
0.0
 11
613.35512778925295
 21
-162.81587309629538
 31
0.0
  0
LINE
  5
D0
100
AcDbEntity
  8
1
  6
Continuous
100
AcDbLine
 10
722.55461770030342
 20
-149.61628303610235
 30
0.0
 11
613.35512778925295
 21
-149.61628303610235
 31
0.0
  0
LINE
  5
D1
100
AcDbEntity
  8
1
  6
Continuous
100
AcDbLine
 10
618.35512778925295
 20
-192.81587309629538
 30
0.0
 11
618.35512778925295
 21
-162.81587309629538
 31
0.0
  0
LINE
  5
D2
100
AcDbEntity
  8
1
  6
Continuous
100
AcDbLine
 10
618.35512778925295
 20
-162.81587309629538
 30
0.0
 11
623.53150869130332
 21
-182.13438962207636
 31
0.0
  0
LINE
  5
D3
100
AcDbEntity
  8
1
  6
Continuous
100
AcDbLine
 10
618.35512778925295
 20
-162.81587309629538
 30
0.0
 11
613.17874688720258
 21
-182.13438962207636
 31
0.0
  0
LINE
  5
D4
100
AcDbEntity
  8
1
  6
Continuous
100
AcDbLine
 10
618.35512778925295
 20
-149.61628303610235
 30
0.0
 11
618.35512778925295
 21
-143.83707845343713
 31
0.0
  0
LINE
  5
D5
100
AcDbEntity
  8
1
  6
Continuous
100
AcDbLine
 10
618.35512778925295
 20
-149.61628303610235
 30
0.0
 11
613.17874688720258
 21
-130.29776651032023
 31
0.0
  0
LINE
  5
D6
100
AcDbEntity
  8
1
  6
Continuous
100
AcDbLine
 10
618.35512778925295
 20
-149.61628303610235
 30
0.0
 11
623.53150869130332
 21
-130.29776651032023
 31
0.0
  0
MTEXT
  5
D7
100
AcDbEntity
  8
1
100
AcDbMText
 10
594.25928692126035
 20
-146.72668765405126
 30
0.0
 40
19.095840867992766
 41
0.0
 71
               2
 72
               1
  1
{\C7;\l15}
  7
ＭＳ Ｐゴシック
 11
0.0
 21
1.0
 31
0.0
 73
               1
 44
0.8762322015334063
  0
LINE
  5
D8
100
AcDbEntity
  8
1
  6
Continuous
100
AcDbLine
 10
618.35512778925295
 20
-120.97892486834201
 30
0.0
 11
618.35512778925295
 21
-143.83707845343713
 31
0.0
  0
LINE
  5
D9
100
AcDbEntity
  8
1
  6
Continuous
100
AcDbLine
 10
1651.429538098457
 20
-138.135560790574
 30
0.0
 11
1623.0964383759874
 21
-114.59404368560411
 31
0.0
  0
LINE
  5
DA
100
AcDbEntity
  8
1
  6
Continuous
100
AcDbLine
 10
1651.429538098457
 20
-138.135560790574
 30
0.0
 11
1633.2626793590669
 21
-129.77103787871272
 31
0.0
  0
LINE
  5
DB
100
AcDbEntity
  8
1
  6
Continuous
100
AcDbLine
 10
1651.429538098457
 20
-138.135560790574
 30
0.0
 11
1639.8788383791125
 21
-121.80824208867
 31
0.0
  0
MTEXT
  5
DC
100
AcDbEntity
  8
1
100
AcDbMText
 10
1607.2563769984697
 20
-91.214290531382744
 30
0.0
 40
19.095840867992766
 41
0.0
 71
               2
 72
               1
  1
{\C7;\lR30}
  7
ＭＳ Ｐゴシック
 11
0.769146909396758
 21
-0.6390720082787349
 31
0.0
 73
               1
 44
0.8762322015334063
  0
MTEXT
  5
DD
100
AcDbEntity
  8
1
100
AcDbMText
 10
755.27145181396963
 20
-89.397427339930232
 30
0.0
 40
19.095840867992766
 41
0.0
 71
               2
 72
               1
  1
{\C7;\lR30}
  7
ＭＳ Ｐゴシック
 11
0.7299703820289474
 21
0.6834787790125694
 31
0.0
 73
               1
 44
0.8762322015334063
  0
LINE
  5
DE
100
AcDbEntity
  8
1
  6
Continuous
100
AcDbLine
 10
498.35512778925295
 20
-162.81587309629538
 30
0.0
 11
498.35512778925295
 21
37.184126903710194
 31
0.0
  0
LINE
  5
DF
100
AcDbEntity
  8
1
  6
Continuous
100
AcDbLine
 10
498.35512778925295
 20
-162.81587309629538
 30
0.0
 11
493.17874688720258
 21
-143.49735657051326
 31
0.0
  0
LINE
  5
E0
100
AcDbEntity
  8
1
  6
Continuous
100
AcDbLine
 10
498.35512778925295
 20
-162.81587309629538
 30
0.0
 11
503.53150869130332
 21
-143.49735657051326
 31
0.0
  0
LINE
  5
E1
100
AcDbEntity
  8
1
  6
Continuous
100
AcDbLine
 10
498.35512778925295
 20
37.184126903710194
 30
0.0
 11
503.53150869130332
 21
17.865610377929102
 31
0.0
  0
LINE
  5
E2
100
AcDbEntity
  8
1
  6
Continuous
100
AcDbLine
 10
498.35512778925295
 20
37.184126903710194
 30
0.0
 11
493.17874688720258
 21
17.865610377929102
 31
0.0
  0
LINE
  5
E3
100
AcDbEntity
  8
1
  6
Continuous
100
AcDbLine
 10
673.35512778925295
 20
-162.81587309629538
 30
0.0
 11
493.35512778925295
 21
-162.81587309629538
 31
0.0
  0
LINE
  5
E4
100
AcDbEntity
  8
1
  6
Continuous
100
AcDbLine
 10
673.35512778925295
 20
37.184126903710194
 30
0.0
 11
493.35512778925295
 21
37.184126903710194
 31
0.0
  0
MTEXT
  5
E5
100
AcDbEntity
  8
1
100
AcDbMText
 10
474.25928692126035
 20
-62.81586001733001
 30
0.0
 40
19.095840867992766
 41
0.0
 71
               2
 72
               1
  1
{\C7;\l200±2_}
  7
ＭＳ Ｐゴシック
 11
0.0
 21
1.0
 31
0.0
 73
               1
 44
0.8762322015334063
  0
LINE
  5
E6
100
AcDbEntity
  8
1
  6
Continuous
100
AcDbLine
 10
1103.8551277892529
 20
-169.81587309629538
 30
0.0
 11
1103.8551277892529
 21
-172.31587309629538
 31
0.0
  0
LINE
  5
E7
100
AcDbEntity
  8
1
  6
Continuous
100
AcDbLine
 10
1262.8551277892529
 20
-172.31587309629538
 30
0.0
 11
1262.8551277892529
 21
-169.81587309629538
 31
0.0
  0
LINE
  5
E8
100
AcDbEntity
  8
1
  6
Continuous
100
AcDbLine
 10
1933.5336992178245
 20
908.31709457594445
 30
0.0
 11
1933.5336992178245
 21
963.31709457594513
 31
0.0
  0
LINE
  5
E9
100
AcDbEntity
  8
1
  6
Continuous
100
AcDbLine
 10
716.45601632312582
 20
-139.46776755044255
 30
0.0
 11
744.29226120701969
 21
-113.40440508513518
 31
0.0
  0
LINE
  5
EA
100
AcDbEntity
  8
1
  6
Continuous
100
AcDbLine
 10
716.45601632312582
 20
-139.46776755044255
 30
0.0
 11
727.02001471740095
 21
-122.4853667211795
 31
0.0
  0
LINE
  5
EB
100
AcDbEntity
  8
1
  6
Continuous
100
AcDbLine
 10
716.45601632312582
 20
-139.46776755044255
 30
0.0
 11
734.09590771273815
 21
-130.04257621218869
 31
0.0
  0
LINE
  5
EC
100
AcDbEntity
  8
1
  6
Continuous
100
AcDbLine
 10
2108.2615032593367
 20
421.59430550468699
 30
0.0
 11
2083.1384422405126
 21
446.15171559065868
 31
0.0
  0
LINE
  5
ED
100
AcDbEntity
  8
1
  6
Continuous
100
AcDbLine
 10
2108.2615032593367
 20
421.59430550468699
 30
0.0
 11
2090.828267330734
 21
431.39646266817147
 31
0.0
  0
LINE
  5
EE
100
AcDbEntity
  8
1
  6
Continuous
100
AcDbLine
 10
2108.2615032593367
 20
421.59430550468699
 30
0.0
 11
2098.0649566567413
 21
438.79984058445405
 31
0.0
  0
LINE
  5
EF
100
AcDbEntity
  8
1
  6
Continuous
100
AcDbLine
 10
2198.5738462739114
 20
594.91171010072605
 30
0.0
 11
2198.5738462739114
 21
584.16346825215726
 31
0.0
  0
MTEXT
  5
F0
100
AcDbEntity
  8
1
100
AcDbMText
 10
530.8692112376666
 20
-181.03573916772382
 30
0.0
 40
19.095840867992766
 41
0.0
 71
               2
 72
               1
  1
{\C7;\l7}
  7
ＭＳ Ｐゴシック
 11
0.0
 21
1.0
 31
0.0
 73
               1
 44
0.8762322015334063
  0
LINE
  5
F1
100
AcDbEntity
  8
1
  6
Continuous
100
AcDbLine
 10
558.35512778925295
 20
-202.02904273915226
 30
0.0
 11
558.35512778925295
 21
-192.0848463105807
 31
0.0
  0
MTEXT
  5
F2
100
AcDbEntity
  8
1
100
AcDbMText
 10
2153.1108650906076
 20
326.11191877262092
 30
0.0
 40
19.095840867992766
 41
0.0
 71
               2
 72
               1
  1
{\C7;\l7}
  7
ＭＳ Ｐゴシック
 11
1.0
 21
0.0000000001745329
 31
0.0
 73
               1
 44
0.8762322015334063
  0
LINE
  5
F3
100
AcDbEntity
  8
1
  6
Continuous
100
AcDbLine
 10
2171.9364224321098
 20
301.71951804533262
 30
0.0
 11
2165.5336992178245
 21
301.71951804533262
 31
0.0
  0
LINE
  5
F4
100
AcDbEntity
  8
1
  6
STYLE_05
100
AcDbLine
 10
1660.8551277892529
 20
-31.815873096290829
 30
0.0
 11
705.85512778925295
 21
-31.815873096290829
 31
0.0
  0
LINE
  5
F5
100
AcDbEntity
  8
1
  6
Continuous
100
AcDbLine
 10
672.98360993211008
 20
21.184126903710194
 30
0.0
 11
575.85753850353922
 21
21.184126903710194
 31
0.0
  0
LINE
  5
F6
100
AcDbEntity
  8
1
  6
Continuous
100
AcDbLine
 10
673.35512778925295
 20
21.184126903710194
 30
0.0
 11
672.12094525463181
 21
21.184126903710194
 31
0.0
  0
LINE
  5
F7
100
AcDbEntity
  8
1
  6
Continuous
100
AcDbLine
 10
1949.5336992178245
 20
1018.3170945759451
 30
0.0
 11
1949.5336992178245
 21
908.31709457594445
 31
0.0
  0
LINE
  5
F8
100
AcDbEntity
  8
1
  6
Continuous
100
AcDbLine
 10
1949.5336992178238
 20
296.71951804533262
 30
0.0
 11
1949.5336992178238
 21
378.31709457594457
 31
0.0
  0
LINE
  5
F9
100
AcDbEntity
  8
1
  6
Continuous
100
AcDbLine
 10
551.01030636068117
 20
21.184126903710194
 30
0.0
 11
575.85753850353922
 21
21.184126903710194
 31
0.0
  0
LINE
  5
FA
100
AcDbEntity
  8
1
  6
Continuous
100
AcDbLine
 10
694.35512778925295
 20
27.184126903710194
 30
0.0
 11
1050.8551277892529
 21
27.184126903710194
 31
0.0
  0
ARC
  5
FB
100
AcDbEntity
  8
1
  6
Continuous
100
AcDbCircle
 10
694.35512778925295
 20
30.184126903710194
 30
0.0
 40
3.0
100
AcDbArc
 50
180.0
 51
270.0
  0
ARC
  5
FC
100
AcDbEntity
  8
1
  6
Continuous
100
AcDbCircle
 10
1672.3551277892529
 20
30.184126903710194
 30
0.0
 40
3.0
100
AcDbArc
 50
270.0
 51
0.0
  0
LINE
  5
FD
100
AcDbEntity
  8
1
  6
Continuous
100
AcDbLine
 10
1675.3551277892529
 20
24.184126903710194
 30
0.0
 11
1675.3551277892529
 21
34.184126903710194
 31
0.0
  0
LINE
  5
FE
100
AcDbEntity
  8
1
  6
Continuous
100
AcDbLine
 10
691.35512778925295
 20
30.184126903710194
 30
0.0
 11
691.35512778925295
 21
24.184126903710194
 31
0.0
  0
LINE
  5
FF
100
AcDbEntity
  8
1
  6
Continuous
100
AcDbLine
 10
1050.8551277892529
 20
27.184126903710194
 30
0.0
 11
1318.8551277892529
 21
27.184126903710194
 31
0.0
  0
LINE
  5
100
100
AcDbEntity
  8
1
  6
Continuous
100
AcDbLine
 10
1050.8551277892529
 20
21.184126903710194
 30
0.0
 11
1318.8551277892529
 21
21.184126903710194
 31
0.0
  0
LINE
  5
101
100
AcDbEntity
  8
1
  6
Continuous
100
AcDbLine
 10
1318.8551277892529
 20
21.184126903710194
 30
0.0
 11
1670.3551277892529
 21
21.184126903710194
 31
0.0
  0
LINE
  5
102
100
AcDbEntity
  8
1
  6
Continuous
100
AcDbLine
 10
1318.8551277892529
 20
27.184126903710194
 30
0.0
 11
1672.3551277892529
 21
27.184126903710194
 31
0.0
  0
LINE
  5
103
100
AcDbEntity
  8
1
  6
Continuous
100
AcDbLine
 10
2028.6478733249671
 20
875.81709457594513
 30
0.0
 11
1955.0336992178245
 21
875.81709457594513
 31
0.0
  0
LINE
  5
104
100
AcDbEntity
  8
1
  6
Continuous
100
AcDbLine
 10
1949.5336992178245
 20
770.75320262707862
 30
0.0
 11
1949.5336992178245
 21
815.31709457594513
 31
0.0
  0
ARC
  5
105
100
AcDbEntity
  8
1
  6
Continuous
100
AcDbCircle
 10
1955.0336992178245
 20
878.81709457594513
 30
0.0
 40
3.0
100
AcDbArc
 50
180.00000000000432
 51
269.99999999999562
  0
LINE
  5
106
100
AcDbEntity
  8
1
  6
Continuous
100
AcDbLine
 10
1949.5336992178245
 20
815.31709457594513
 30
0.0
 11
1949.5336992178245
 21
879.31709457594513
 31
0.0
  0
LINE
  5
107
100
AcDbEntity
  8
1
  6
Continuous
100
AcDbLine
 10
1936.0336992178245
 20
894.31709457594513
 30
0.0
 11
1936.0336992178245
 21
903.31709457594513
 31
0.0
  0
LINE
  5
108
100
AcDbEntity
  8
1
  6
Continuous
100
AcDbLine
 10
1734.1531188606814
 20
27.184126903710194
 30
0.0
 11
1734.1531188606814
 21
37.184126903710194
 31
0.0
  0
LINE
  5
109
100
AcDbEntity
  8
1
  6
Continuous
100
AcDbLine
 10
1675.3551277892529
 20
27.184126903710194
 30
0.0
 11
1739.1531188606814
 21
27.184126903710194
 31
0.0
  0
LINE
  5
10A
100
AcDbEntity
  8
1
  6
Continuous
100
AcDbLine
 10
1693.3551277892529
 20
37.184126903710194
 30
0.0
 11
1739.1531188606814
 21
37.184126903710194
 31
0.0
  0
LINE
  5
10B
100
AcDbEntity
  8
1
  6
Continuous
100
AcDbLine
 10
1734.1531188606814
 20
37.184126903710194
 30
0.0
 11
1734.1531188606814
 21
77.184126903710194
 31
0.0
  0
LINE
  5
10C
100
AcDbEntity
  8
1
  6
Continuous
100
AcDbLine
 10
1734.1531188606814
 20
37.184126903710194
 30
0.0
 11
1728.976737958631
 21
56.502643429491627
 31
0.0
  0
LINE
  5
10D
100
AcDbEntity
  8
1
  6
Continuous
100
AcDbLine
 10
1734.1531188606814
 20
37.184126903710194
 30
0.0
 11
1739.329499762732
 21
56.502643429491627
 31
0.0
  0
MTEXT
  5
10E
100
AcDbEntity
  8
1
100
AcDbMText
 10
1710.0572605540726
 20
57.184109465094139
 30
0.0
 40
19.095840867992766
 41
0.0
 71
               2
 72
               1
  1
{\C7;\l10}
  7
ＭＳ Ｐゴシック
 11
0.0
 21
1.0
 31
0.0
 73
               1
 44
0.8762322015334063
  0
LINE
  5
10F
100
AcDbEntity
  8
1
  6
Continuous
100
AcDbLine
 10
1734.1531188606814
 20
21.184126903710194
 30
0.0
 11
1734.1531188606814
 21
27.184126903710194
 31
0.0
  0
CIRCLE
  5
110
100
AcDbEntity
  8
1
  6
Continuous
100
AcDbCircle
 10
1734.1531188606814
 20
27.184126903710194
 30
0.0
 40
2.5
  0
LINE
  5
111
100
AcDbEntity
  8
1
  6
Continuous
100
AcDbLine
 10
1675.3551277892529
 20
21.184126903710194
 30
0.0
 11
1739.1531188606814
 21
21.184126903710194
 31
0.0
  0
LINE
  5
112
100
AcDbEntity
  8
1
  6
Continuous
100
AcDbLine
 10
1734.1531188606814
 20
-3.8158730962899199
 30
0.0
 11
1734.1531188606814
 21
21.184126903710194
 31
0.0
  0
LINE
  5
113
100
AcDbEntity
  8
1
  6
Continuous
100
AcDbLine
 10
1734.1531188606814
 20
21.184126903710194
 30
0.0
 11
1739.329499762732
 21
1.8656103779291016
 31
0.0
  0
LINE
  5
114
100
AcDbEntity
  8
1
  6
Continuous
100
AcDbLine
 10
1734.1531188606814
 20
21.184126903710194
 30
0.0
 11
1728.976737958631
 21
1.8656103779291016
 31
0.0
  0
MTEXT
  5
115
100
AcDbEntity
  8
1
100
AcDbMText
 10
1710.0572605540726
 20
8.6841399826720362
 30
0.0
 40
19.095840867992766
 41
0.0
 71
               2
 72
               1
  1
{\C7;\l6}
  7
ＭＳ Ｐゴシック
 11
0.0
 21
1.0
 31
0.0
 73
               1
 44
0.8762322015334063
  0
LINE
  5
116
100
AcDbEntity
  8
1
  6
Continuous
100
AcDbLine
 10
1734.1531188606814
 20
-10.327033810575699
 30
0.0
 11
1734.1531188606814
 21
-3.8158730962899199
 31
0.0
  0
LINE
  5
117
100
AcDbEntity
  8
1
  6
Continuous
100
AcDbLine
 10
1933.5336992178245
 20
900.81709457594445
 30
0.0
 11
1933.5336992178238
 21
891.81709457594513
 31
0.0
  0
LINE
  5
118
100
AcDbEntity
  8
1
  6
Continuous
100
AcDbLine
 10
1936.5336992178238
 20
890.81709457594513
 30
0.0
 11
1940.5336992178238
 21
890.81709457594513
 31
0.0
  0
LINE
  5
119
100
AcDbEntity
  8
1
  6
Continuous
100
AcDbLine
 10
1940.5336992178238
 20
890.81709457594513
 30
0.0
 11
1948.5336992178245
 21
890.81709457594513
 31
0.0
  0
LINE
  5
11A
100
AcDbEntity
  8
1
  6
Continuous
100
AcDbLine
 10
1949.5336992178245
 20
889.81709457594513
 30
0.0
 11
1949.5336992178245
 21
878.81709457594513
 31
0.0
  0
ARC
  5
11B
100
AcDbEntity
  8
1
  6
Continuous
100
AcDbCircle
 10
1955.0336992178245
 20
878.81709457594513
 30
0.0
 40
5.5
100
AcDbArc
 50
180.0
 51
270.0
  0
LINE
  5
11C
100
AcDbEntity
  8
1
  6
Continuous
100
AcDbLine
 10
1955.0336992178245
 20
873.31709457594513
 30
0.0
 11
2028.6478733249671
 21
873.31709457594513
 31
0.0
  0
LINE
  5
11D
100
AcDbEntity
  8
1
  6
Continuous
100
AcDbLine
 10
2028.6478733249671
 20
873.31709457594513
 30
0.0
 11
2101.5062849417704
 21
873.31709457594513
 31
0.0
  0
ARC
  5
11E
100
AcDbEntity
  8
1
  6
Continuous
100
AcDbCircle
 10
2101.5062849417704
 20
845.81709457594513
 30
0.0
 40
27.500000000000103
100
AcDbArc
 50
4.8737583689662056
 51
90.0
  0
LINE
  5
11F
100
AcDbEntity
  8
1
  6
Continuous
100
AcDbLine
 10
2128.9068535461038
 20
848.65351066885376
 30
0.0
 11
2131.2377994255203
 21
821.317094575944
 31
0.0
  0
LINE
  5
120
100
AcDbEntity
  8
1
  6
Continuous
100
AcDbLine
 10
2131.2377994255194
 20
821.31709457594445
 30
0.0
 11
2138.033699217825
 21
821.31709457594445
 31
0.0
  0
LINE
  5
121
100
AcDbEntity
  8
1
  6
Continuous
100
AcDbLine
 10
2138.033699217825
 20
821.31709457594445
 30
0.0
 11
2138.0336992178245
 21
645.31709457594445
 31
0.0
  0
LINE
  5
122
100
AcDbEntity
  8
1
  6
Continuous
100
AcDbLine
 10
2138.0336992178245
 20
645.31709457594445
 30
0.0
 11
2131.1897920295969
 21
645.317094575944
 31
0.0
  0
ARC
  5
123
100
AcDbEntity
  8
1
  6
Continuous
100
AcDbCircle
 10
2088.5959399487701
 20
440.81709457594559
 30
0.0
 40
27.5
100
AcDbArc
 50
270.0
 51
356.30861401354906
  0
LINE
  5
124
100
AcDbEntity
  8
1
  6
Continuous
100
AcDbLine
 10
2088.5959399487701
 20
413.31709457594513
 30
0.0
 11
1955.0336992178238
 21
413.31709457594513
 31
0.0
  0
ARC
  5
125
100
AcDbEntity
  8
1
  6
Continuous
100
AcDbCircle
 10
1955.0336992178238
 20
407.81709457594513
 30
0.0
 40
5.5
100
AcDbArc
 50
90.0
 51
180.0
  0
LINE
  5
126
100
AcDbEntity
  8
1
  6
Continuous
100
AcDbLine
 10
1949.5336992178238
 20
407.81709457594559
 30
0.0
 11
1949.5336992178236
 21
397.31709457594457
 31
0.0
  0
LINE
  5
127
100
AcDbEntity
  8
1
  6
Continuous
100
AcDbLine
 10
1948.0336992178236
 20
395.81709457594457
 30
0.0
 11
1936.5336992178245
 21
395.81709457594457
 31
0.0
  0
LINE
  5
128
100
AcDbEntity
  8
1
  6
Continuous
100
AcDbLine
 10
1933.5336992178245
 20
397.81709457594513
 30
0.0
 11
1933.5336992178245
 21
383.31709457594457
 31
0.0
  0
ARC
  5
129
100
AcDbEntity
  8
1
  6
Continuous
100
AcDbCircle
 10
1940.5336992178238
 20
887.81709457594513
 30
0.0
 40
3.0
100
AcDbArc
 50
0.0
 51
90.0
  0
ARC
  5
12A
100
AcDbEntity
  8
1
  6
Continuous
100
AcDbCircle
 10
1948.5336992178245
 20
889.81709457594513
 30
0.0
 40
1.0
100
AcDbArc
 50
0.0
 51
90.0
  0
ARC
  5
12B
100
AcDbEntity
  8
1
  6
Continuous
100
AcDbCircle
 10
1936.5336992178238
 20
893.81709457594513
 30
0.0
 40
3.0
100
AcDbArc
 50
180.0
 51
270.0
  0
ARC
  5
12C
100
AcDbEntity
  8
1
  6
Continuous
100
AcDbCircle
 10
1937.0336992178238
 20
894.31709457594513
 30
0.0
 40
1.0
100
AcDbArc
 50
180.0
 51
270.0
  0
LINE
  5
12D
100
AcDbEntity
  8
1
  6
Continuous
100
AcDbLine
 10
1933.5336992178238
 20
896.31709457594445
 30
0.0
 11
1933.5336992178238
 21
889.78093186867466
 31
0.0
  0
ARC
  5
12E
100
AcDbEntity
  8
1
  6
Continuous
100
AcDbCircle
 10
1948.0336992178236
 20
397.31709457594457
 30
0.0
 40
1.5
100
AcDbArc
 50
270.0
 51
0.0
  0
ARC
  5
12F
100
AcDbEntity
  8
1
  6
Continuous
100
AcDbCircle
 10
1936.5336992178245
 20
392.81709457594457
 30
0.0
 40
3.0
100
AcDbArc
 50
90.0
 51
180.0
  0
ARC
  5
130
100
AcDbEntity
  8
1
  6
Continuous
100
AcDbCircle
 10
1937.5336992178245
 20
391.81709457594457
 30
0.0
 40
1.5
100
AcDbArc
 50
90.0
 51
180.0
  0
LINE
  5
131
100
AcDbEntity
  8
1
  6
Continuous
100
AcDbLine
 10
2131.2377994255194
 20
645.317094575944
 30
0.0
 11
2131.2377994255194
 21
737.75320262707817
 31
0.0
  0
ARC
  5
132
100
AcDbEntity
  8
1
  6
Continuous
100
AcDbCircle
 10
2101.2377994255189
 20
743.43184004669513
 30
0.0
 40
30.0
100
AcDbArc
 50
0.0
 51
90.0
  0
LINE
  5
133
100
AcDbEntity
  8
1
  6
Continuous
100
AcDbLine
 10
2131.2377994255194
 20
720.53233692288325
 30
0.0
 11
2131.2377994255194
 21
821.31709457594445
 31
0.0
  0
LINE
  5
134
100
AcDbEntity
  8
1
  6
STYLE_03
100
AcDbLine
 10
919.35512778925295
 20
27.184126903710194
 30
0.0
 11
919.35512778925295
 21
-46.151178476636346
 31
0.0
  0
LINE
  5
135
100
AcDbEntity
  8
1
  6
STYLE_03
100
AcDbLine
 10
852.35512778925295
 20
-57.815873096291739
 30
0.0
 11
852.35512778925295
 21
-62.815873096291966
 31
0.0
  0
LINE
  5
136
100
AcDbEntity
  8
1
  6
STYLE_03
100
AcDbLine
 10
798.35512778925295
 20
-57.815873096291739
 30
0.0
 11
852.35512778925295
 21
-57.815873096291739
 31
0.0
  0
LINE
  5
137
100
AcDbEntity
  8
1
  6
STYLE_03
100
AcDbLine
 10
798.35512778925295
 20
-62.815873096291966
 30
0.0
 11
852.35512778925295
 21
-62.815873096291966
 31
0.0
  0
LINE
  5
138
100
AcDbEntity
  8
1
  6
STYLE_03
100
AcDbLine
 10
852.35512778925295
 20
-57.815873096291739
 30
0.0
 11
909.64631172529107
 21
-56.146938173397643
 31
0.0
  0
ARC
  5
139
100
AcDbEntity
  8
1
  6
STYLE_03
100
AcDbCircle
 10
909.35512778925295
 20
-46.151178476636346
 30
0.0
 40
10.000000000000208
100
AcDbArc
 50
271.66859691159647
 51
0.0
  0
LINE
  5
13A
100
AcDbEntity
  8
1
  6
STYLE_03
100
AcDbLine
 10
731.35512778925295
 20
27.184126903710194
 30
0.0
 11
731.35512778925295
 21
-46.151178476636346
 31
0.0
  0
LINE
  5
13B
100
AcDbEntity
  8
1
  6
STYLE_03
100
AcDbLine
 10
798.35512778925295
 20
-57.815873096291739
 30
0.0
 11
798.35512778925295
 21
-62.815873096291966
 31
0.0
  0
LINE
  5
13C
100
AcDbEntity
  8
1
  6
STYLE_03
100
AcDbLine
 10
852.35512778925295
 20
-57.815873096291739
 30
0.0
 11
798.35512778925295
 21
-57.815873096291739
 31
0.0
  0
LINE
  5
13D
100
AcDbEntity
  8
1
  6
STYLE_03
100
AcDbLine
 10
852.35512778925295
 20
-62.815873096291966
 30
0.0
 11
798.35512778925295
 21
-62.815873096291966
 31
0.0
  0
LINE
  5
13E
100
AcDbEntity
  8
1
  6
STYLE_03
100
AcDbLine
 10
798.35512778925295
 20
-57.815873096291739
 30
0.0
 11
741.06394385321528
 21
-56.146938173397643
 31
0.0
  0
ARC
  5
13F
100
AcDbEntity
  8
1
  6
STYLE_03
100
AcDbCircle
 10
741.35512778925295
 20
-46.151178476636346
 30
0.0
 40
10.0
100
AcDbArc
 50
180.0
 51
268.33140308840353
  0
LINE
  5
140
100
AcDbEntity
  8
1
  6
Continuous
100
AcDbLine
 10
618.35512778925295
 20
27.184126903710194
 30
0.0
 11
618.35512778925295
 21
37.184126903710194
 31
0.0
  0
LINE
  5
141
100
AcDbEntity
  8
1
  6
Continuous
100
AcDbLine
 10
673.35512778925295
 20
37.184126903710194
 30
0.0
 11
613.35512778925295
 21
37.184126903710194
 31
0.0
  0
LINE
  5
142
100
AcDbEntity
  8
1
  6
Continuous
100
AcDbLine
 10
618.35512778925295
 20
37.184126903710194
 30
0.0
 11
618.35512778925295
 21
77.184126903710194
 31
0.0
  0
LINE
  5
143
100
AcDbEntity
  8
1
  6
Continuous
100
AcDbLine
 10
618.35512778925295
 20
37.184126903710194
 30
0.0
 11
613.17874688720258
 21
56.502643429491627
 31
0.0
  0
LINE
  5
144
100
AcDbEntity
  8
1
  6
Continuous
100
AcDbLine
 10
618.35512778925295
 20
37.184126903710194
 30
0.0
 11
623.53150869130332
 21
56.502643429491627
 31
0.0
  0
MTEXT
  5
145
100
AcDbEntity
  8
1
100
AcDbMText
 10
594.25928692126035
 20
57.184109465094139
 30
0.0
 40
19.095840867992766
 41
0.0
 71
               2
 72
               1
  1
{\C7;\l10}
  7
ＭＳ Ｐゴシック
 11
0.0
 21
1.0
 31
0.0
 73
               1
 44
0.8762322015334063
  0
LINE
  5
146
100
AcDbEntity
  8
1
  6
Continuous
100
AcDbLine
 10
613.35512778925295
 20
27.184126903710194
 30
0.0
 11
673.35512778925295
 21
27.184126903710194
 31
0.0
  0
LINE
  5
147
100
AcDbEntity
  8
1
  6
Continuous
100
AcDbLine
 10
1577.2416595305215
 20
903.31709457594513
 30
0.0
 11
1593.3551277892529
 21
903.31709457594513
 31
0.0
  0
LINE
  5
148
100
AcDbEntity
  8
1
  6
Continuous
100
AcDbLine
 10
1688.3551277892529
 20
808.31709457594513
 30
0.0
 11
1688.3551277892529
 21
478.31709457594445
 31
0.0
  0
LINE
  5
149
100
AcDbEntity
  8
1
  6
Continuous
100
AcDbLine
 10
1593.3551277892529
 20
383.31709457594457
 30
0.0
 11
773.35512778925295
 21
383.31709457594457
 31
0.0
  0
LINE
  5
14A
100
AcDbEntity
  8
1
  6
Continuous
100
AcDbLine
 10
678.35512778925295
 20
478.31709457594445
 30
0.0
 11
678.35512778925295
 21
808.31709457594513
 31
0.0
  0
ARC
  5
14B
100
AcDbEntity
  8
1
  6
Continuous
100
AcDbCircle
 10
1183.3551277892529
 20
12413.317094575945
 30
0.0
 40
12000.0
100
AcDbArc
 50
268.12100659474805
 51
271.878993405252
  0
ARC
  5
14C
100
AcDbEntity
  8
1
  6
Continuous
100
AcDbCircle
 10
2208.3551277892529
 20
608.31709457594445
 30
0.0
 40
1500.0000000000002
100
AcDbArc
 50
176.72614540009801
 51
184.38582205921497
  0
ARC
  5
14D
100
AcDbEntity
  8
1
  6
Continuous
100
AcDbCircle
 10
1183.3551277892529
 20
645.81709457594445
 30
0.0
 40
244.99999999999986
100
AcDbArc
 50
44.887279032715064
 51
57.260772965054038
  0
ARC
  5
14E
100
AcDbEntity
  8
1
  6
Continuous
100
AcDbCircle
 10
1183.3551277892529
 20
643.31709457594445
 30
0.0
 40
229.99999999999994
100
AcDbArc
 50
44.29202217453701
 51
54.824211987372955
  0
ARC
  5
14F
100
AcDbEntity
  8
1
  6
Continuous
100
AcDbCircle
 10
773.35512778925295
 20
808.31709457594513
 30
0.0
 40
95.0
100
AcDbArc
 50
90.0
 51
180.0
  0
ARC
  5
150
100
AcDbEntity
  8
1
  6
Continuous
100
AcDbCircle
 10
773.35512778925295
 20
478.31709457594445
 30
0.0
 40
95.0
100
AcDbArc
 50
180.0
 51
270.0
  0
ARC
  5
151
100
AcDbEntity
  8
1
  6
Continuous
100
AcDbCircle
 10
1593.3551277892529
 20
478.31709457594445
 30
0.0
 40
95.0
100
AcDbArc
 50
270.0
 51
0.0
  0
ARC
  5
152
100
AcDbEntity
  8
1
  6
Continuous
100
AcDbCircle
 10
1593.3551277892529
 20
808.31709457594513
 30
0.0
 40
95.0
100
AcDbArc
 50
0.0
 51
90.0
  0
ARC
  5
153
100
AcDbEntity
  8
1
  6
Continuous
100
AcDbCircle
 10
792.51330532835345
 20
499.72642384130506
 30
0.0
 40
79.999999999999716
100
AcDbArc
 50
184.38582205921495
 51
268.12100659474282
  0
ARC
  5
154
100
AcDbEntity
  8
1
  6
Continuous
100
AcDbCircle
 10
1574.1969502501524
 20
499.72642384130552
 30
0.0
 40
79.999999999999986
100
AcDbArc
 50
271.87899340525502
 51
355.614177940785
  0
ARC
  5
155
100
AcDbEntity
  8
1
  6
Continuous
100
AcDbCircle
 10
771.35512778925295
 20
708.31709457594445
 30
0.0
 40
80.0
100
AcDbArc
 50
90.0
 51
180.0
  0
ARC
  5
156
100
AcDbEntity
  8
1
  6
Continuous
100
AcDbCircle
 10
1183.3551277892529
 20
-11224.119013475185
 30
0.0
 40
11999.999999999998
100
AcDbArc
 50
91.157608678548016
 51
91.866715177936996
  0
LINE
  5
157
100
AcDbEntity
  8
1
  6
STYLE_04
100
AcDbLine
 10
1073.3551277892529
 20
733.31709457594513
 30
0.0
 11
1293.3551277892529
 21
733.31709457594513
 31
0.0
  0
CIRCLE
  5
158
100
AcDbEntity
  8
1
  6
Continuous
100
AcDbCircle
 10
1183.3551277892529
 20
733.31709457594445
 30
0.0
 40
79.5
  0
CIRCLE
  5
159
100
AcDbEntity
  8
1
  6
Continuous
100
AcDbCircle
 10
1183.3551277892529
 20
733.31709457594445
 30
0.0
 40
90.5
  0
LINE
  5
15A
100
AcDbEntity
  8
1
  6
Continuous
100
AcDbLine
 10
618.35512778925295
 20
413.31709457594559
 30
0.0
 11
618.35512778925295
 21
773.31709457594513
 31
0.0
  0
LINE
  5
15B
100
AcDbEntity
  8
1
  6
Continuous
100
AcDbLine
 10
618.35512778925295
 20
413.31709457594559
 30
0.0
 11
613.17874688720258
 21
432.63561110172657
 31
0.0
  0
LINE
  5
15C
100
AcDbEntity
  8
1
  6
Continuous
100
AcDbLine
 10
618.35512778925295
 20
413.31709457594559
 30
0.0
 11
623.53150869130286
 21
432.63561110172657
 31
0.0
  0
LINE
  5
15D
100
AcDbEntity
  8
1
  6
Continuous
100
AcDbLine
 10
618.35512778925295
 20
773.31709457594513
 30
0.0
 11
623.53150869130286
 21
753.9985780501637
 31
0.0
  0
LINE
  5
15E
100
AcDbEntity
  8
1
  6
Continuous
100
AcDbLine
 10
618.35512778925295
 20
773.31709457594513
 30
0.0
 11
613.17874688720258
 21
753.9985780501637
 31
0.0
  0
LINE
  5
15F
100
AcDbEntity
  8
1
  6
Continuous
100
AcDbLine
 10
673.35512778925295
 20
773.31709457594513
 30
0.0
 11
613.35512778925295
 21
773.31709457594513
 31
0.0
  0
MTEXT
  5
160
100
AcDbEntity
  8
1
100
AcDbMText
 10
594.25928692126035
 20
593.40694704525333
 30
0.0
 40
19.095840867992766
 41
0.0
 71
               2
 72
               1
  1
{\C7;\l360±2_}
  7
ＭＳ Ｐゴシック
 11
0.0
 21
1.0
 31
0.0
 73
               1
 44
0.8762322015334063
  0
LINE
  5
161
100
AcDbEntity
  8
1
  6
Continuous
100
AcDbLine
 10
618.35512778925295
 20
773.13748748068258
 30
0.0
 11
618.35512778925295
 21
788.31709457594513
 31
0.0
  0
LINE
  5
162
100
AcDbEntity
  8
1
  6
Continuous
100
AcDbLine
 10
498.35512778925295
 20
383.31709457594457
 30
0.0
 11
498.35512778925295
 21
903.31709457594513
 31
0.0
  0
LINE
  5
163
100
AcDbEntity
  8
1
  6
Continuous
100
AcDbLine
 10
498.35512778925295
 20
383.31709457594457
 30
0.0
 11
493.17874688720258
 21
402.63561110172611
 31
0.0
  0
LINE
  5
164
100
AcDbEntity
  8
1
  6
Continuous
100
AcDbLine
 10
498.35512778925295
 20
383.31709457594457
 30
0.0
 11
503.53150869130332
 21
402.63561110172611
 31
0.0
  0
LINE
  5
165
100
AcDbEntity
  8
1
  6
Continuous
100
AcDbLine
 10
498.35512778925295
 20
903.31709457594513
 30
0.0
 11
503.53150869130332
 21
883.9985780501637
 31
0.0
  0
LINE
  5
166
100
AcDbEntity
  8
1
  6
Continuous
100
AcDbLine
 10
498.35512778925295
 20
903.31709457594513
 30
0.0
 11
493.17874688720258
 21
883.9985780501637
 31
0.0
  0
LINE
  5
167
100
AcDbEntity
  8
1
  6
Continuous
100
AcDbLine
 10
735.9867264666741
 20
383.31709457594457
 30
0.0
 11
493.35512778925295
 21
383.31709457594457
 31
0.0
  0
LINE
  5
168
100
AcDbEntity
  8
1
  6
Continuous
100
AcDbLine
 10
780.27158187088571
 20
903.31709457594513
 30
0.0
 11
493.35512778925295
 21
903.31709457594513
 31
0.0
  0
MTEXT
  5
169
100
AcDbEntity
  8
1
100
AcDbMText
 10
474.25927166247129
 20
643.31710329525333
 30
0.0
 40
19.095840867992766
 41
0.0
 71
               2
 72
               1
  1
{\C7;\l520±2_}
  7
ＭＳ Ｐゴシック
 11
0.0
 21
1.0
 31
0.0
 73
               1
 44
0.8762322015334063
  0
LINE
  5
16A
100
AcDbEntity
  8
1
  6
Continuous
100
AcDbLine
 10
673.35512778925295
 20
788.31709457594513
 30
0.0
 11
595.11852064639606
 21
788.31709457594513
 31
0.0
  0
LINE
  5
16B
100
AcDbEntity
  8
1
  6
Continuous
100
AcDbLine
 10
1688.3551277892529
 20
271.76780886165909
 30
0.0
 11
1688.3551277892529
 21
377.30067238206709
 31
0.0
  0
LINE
  5
16C
100
AcDbEntity
  8
1
  6
Continuous
100
AcDbLine
 10
1688.3551277892529
 20
268.30617620859812
 30
0.0
 11
1688.3551277892529
 21
271.76780886165909
 31
0.0
  0
LINE
  5
16D
100
AcDbEntity
  8
1
  6
Continuous
100
AcDbLine
 10
1183.3551277892529
 20
928.31709457594513
 30
0.0
 11
1183.3551277892529
 21
963.31709457594513
 31
0.0
  0
LINE
  5
16E
100
AcDbEntity
  8
1
  6
Continuous
100
AcDbLine
 10
673.35512778925295
 20
788.31709457594513
 30
0.0
 11
613.35512778925295
 21
788.31709457594513
 31
0.0
  0
MTEXT
  5
16F
100
AcDbEntity
  8
1
100
AcDbMText
 10
592.01185039782285
 20
767.01211061947163
 30
0.0
 40
19.095840867992766
 41
0.0
 71
               2
 72
               1
  1
{\C7;\l15}
  7
ＭＳ Ｐゴシック
 11
0.0
 21
1.0
 31
0.0
 73
               1
 44
0.8762322015334063
  0
LINE
  5
170
100
AcDbEntity
  8
1
  6
Continuous
100
AcDbLine
 10
1150.9890402529772
 20
413.36074313959659
 30
0.0
 11
1151.3480742178249
 21
546.4751302902306
 31
0.0
  0
LINE
  5
171
100
AcDbEntity
  8
1
  6
Continuous
100
AcDbLine
 10
1150.9890402529772
 20
413.36074313959659
 30
0.0
 11
1145.8647835791385
 21
432.6931509963689
 31
0.0
  0
LINE
  5
172
100
AcDbEntity
  8
1
  6
Continuous
100
AcDbLine
 10
1150.9890402529772
 20
413.36074313959659
 30
0.0
 11
1156.2175077263073
 21
432.66522779680315
 31
0.0
  0
LINE
  5
173
100
AcDbEntity
  8
1
  6
Continuous
100
AcDbLine
 10
1151.3480742178249
 20
546.4751302902306
 30
0.0
 11
1166.3041456463961
 21
466.70941600451613
 31
0.0
  0
LINE
  5
174
100
AcDbEntity
  8
1
  6
Continuous
100
AcDbLine
 10
1166.3041456463961
 20
466.70941600451613
 30
0.0
 11
1171.2895027892528
 21
608.31709457594445
 31
0.0
  0
MTEXT
  5
175
100
AcDbEntity
  8
1
100
AcDbMText
 10
1127.0728329394624
 20
479.98292578592748
 30
0.0
 40
19.095840867992766
 41
0.0
 71
               2
 72
               1
  1
{\C7;\lR12000}
  7
ＭＳ Ｐゴシック
 11
0.0026971131239701
 21
0.9999963627837836
 31
0.0
 73
               1
 44
0.8762322015334063
  0
LINE
  5
176
100
AcDbEntity
  8
1
  6
Continuous
100
AcDbLine
 10
708.59414179162923
 20
635.09366790850856
 30
0.0
 11
843.76934335047736
 21
632.68026421880211
 31
0.0
  0
LINE
  5
177
100
AcDbEntity
  8
1
  6
Continuous
100
AcDbLine
 10
708.59414179162923
 20
635.09366790850856
 30
0.0
 11
728.0019838819876
 21
639.92436820926162
 31
0.0
  0
LINE
  5
178
100
AcDbEntity
  8
1
  6
Continuous
100
AcDbLine
 10
708.59414179162923
 20
635.09366790850856
 30
0.0
 11
727.81717622489305
 21
629.57325604185019
 31
0.0
  0
LINE
  5
179
100
AcDbEntity
  8
1
  6
Continuous
100
AcDbLine
 10
843.76934335047736
 20
632.68026421880211
 30
0.0
 11
771.06621835047736
 21
625.26157799431223
 31
0.0
  0
LINE
  5
17A
100
AcDbEntity
  8
1
  6
Continuous
100
AcDbLine
 10
771.06621835047736
 20
625.26157799431223
 30
0.0
 11
903.1188331463959
 21
620.81036625961826
 31
0.0
  0
MTEXT
  5
17B
100
AcDbEntity
  8
1
100
AcDbMText
 10
776.6119066570277
 20
657.97899309710976
 30
0.0
 40
19.095840867992766
 41
0.0
 71
               2
 72
               1
  1
{\C7;\lR1500}
  7
ＭＳ Ｐゴシック
 11
0.9998406531017753
 21
-0.0178512858084629
 31
0.0
 73
               1
 44
0.8762322015334063
  0
LINE
  5
17C
100
AcDbEntity
  8
1
  6
Continuous
100
AcDbLine
 10
706.62118618717932
 20
410.70362669970712
 30
0.0
 11
805.99107073132154
 21
511.38316600451628
 31
0.0
  0
LINE
  5
17D
100
AcDbEntity
  8
1
  6
Continuous
100
AcDbLine
 10
706.62118618717932
 20
410.70362669970712
 30
0.0
 11
716.50758292227647
 21
428.08922877718112
 31
0.0
  0
LINE
  5
17E
100
AcDbEntity
  8
1
  6
Continuous
100
AcDbLine
 10
706.62118618717932
 20
410.70362669970712
 30
0.0
 11
723.87585795040195
 21
420.81680139133812
 31
0.0
  0
MTEXT
  5
17F
100
AcDbEntity
  8
1
100
AcDbMText
 10
752.60296713028765
 20
497.07728529805934
 30
0.0
 40
19.095840867992766
 41
0.0
 71
               2
 72
               1
  1
{\C7;\l4-R95}
  7
ＭＳ Ｐゴシック
 11
0.7024625288615823
 21
0.7117207286185999
 31
0.0
 73
               1
 44
0.8762322015334063
  0
LINE
  5
180
100
AcDbEntity
  8
1
  6
Continuous
100
AcDbLine
 10
1654.0123100412054
 20
426.15670499483269
 30
0.0
 11
1559.4193816157833
 21
507.49915802527255
 31
0.0
  0
LINE
  5
181
100
AcDbEntity
  8
1
  6
Continuous
100
AcDbLine
 10
1654.0123100412054
 20
426.15670499483269
 30
0.0
 11
1635.9896997635444
 21
434.82766334899145
 31
0.0
  0
LINE
  5
182
100
AcDbEntity
  8
1
  6
Continuous
100
AcDbLine
 10
1654.0123100412054
 20
426.15670499483269
 30
0.0
 11
1642.7397508753245
 21
442.6772803435216
 31
0.0
  0
MTEXT
  5
183
100
AcDbEntity
  8
1
100
AcDbMText
 10
1610.5417931541851
 20
497.14057848261132
 30
0.0
 40
19.095840867992766
 41
0.0
 71
               2
 72
               1
  1
{\C7;\l6-R80}
  7
ＭＳ Ｐゴシック
 11
0.7582147717373534
 21
-0.6520048772204646
 31
0.0
 73
               1
 44
0.8762322015334063
  0
LINE
  5
184
100
AcDbEntity
  8
1
  6
Continuous
100
AcDbLine
 10
732.51222859261043
 20
741.92577247236215
 30
0.0
 11
808.42209207496671
 21
669.85285200894361
 31
0.0
  0
LINE
  5
185
100
AcDbEntity
  8
1
  6
Continuous
100
AcDbLine
 10
732.51222859261043
 20
741.92577247236215
 30
0.0
 11
750.08611346839234
 21
732.37807272987163
 31
0.0
  0
LINE
  5
186
100
AcDbEntity
  8
1
  6
Continuous
100
AcDbLine
 10
732.51222859261043
 20
741.92577247236215
 30
0.0
 11
742.9578094669755
 21
724.87027950976801
 31
0.0
  0
MTEXT
  5
187
100
AcDbEntity
  8
1
100
AcDbMText
 10
799.47215028254095
 20
715.3349714688618
 30
0.0
 40
19.095840867992766
 41
0.0
 71
               2
 72
               1
  1
{\C7;\l4-R80}
  7
ＭＳ Ｐゴシック
 11
0.7251972599751706
 21
-0.6885411637110048
 31
0.0
 73
               1
 44
0.8762322015334063
  0
LINE
  5
188
100
AcDbEntity
  8
1
  6
Continuous
100
AcDbLine
 10
1239.3516492178242
 20
903.31709457594513
 30
0.0
 11
1593.3551277892529
 21
903.31709457594513
 31
0.0
  0
LINE
  5
189
100
AcDbEntity
  8
1
  6
Continuous
100
AcDbLine
 10
1271.864605350705
 20
714.44059114445906
 30
0.0
 11
1094.8456502278013
 21
752.19359800743007
 31
0.0
  0
LINE
  5
18A
100
AcDbEntity
  8
1
  6
Continuous
100
AcDbLine
 10
1271.864605350705
 20
714.44059114445906
 30
0.0
 11
1304.3033899065999
 21
707.52233962097228
 31
0.0
  0
LINE
  5
18B
100
AcDbEntity
  8
1
  6
Continuous
100
AcDbLine
 10
1271.864605350705
 20
714.44059114445906
 30
0.0
 11
1291.8379067520245
 21
715.4736599379338
 31
0.0
  0
LINE
  5
18C
100
AcDbEntity
  8
1
  6
Continuous
100
AcDbLine
 10
1271.864605350705
 20
714.44059114445906
 30
0.0
 11
1289.6785261584278
 21
705.34860426280522
 31
0.0
  0
LINE
  5
18D
100
AcDbEntity
  8
1
  6
Continuous
100
AcDbLine
 10
1304.3033899065999
 20
707.52233962097228
 30
0.0
 11
1374.3033899065999
 21
707.52233962097228
 31
0.0
  0
LINE
  5
18E
100
AcDbEntity
  8
1
  6
Continuous
100
AcDbLine
 10
1094.8456502278013
 20
752.19359800743007
 30
0.0
 11
1065.505491920138
 21
758.45100245985611
 31
0.0
  0
LINE
  5
18F
100
AcDbEntity
  8
1
  6
Continuous
100
AcDbLine
 10
1094.8456502278013
 20
752.19359800743007
 30
0.0
 11
1074.8723488264818
 21
751.16052921395556
 31
0.0
  0
LINE
  5
190
100
AcDbEntity
  8
1
  6
Continuous
100
AcDbLine
 10
1094.8456502278013
 20
752.19359800743007
 30
0.0
 11
1077.0317294200781
 21
761.28558488908413
 31
0.0
  0
MTEXT
  5
191
100
AcDbEntity
  8
1
100
AcDbMText
 10
1353.5508065001904
 20
731.97269758121433
 30
0.0
 40
19.095840867992766
 41
0.0
 71
               2
 72
               1
  1
{\C7;\lφ181ｱ0.5_}
  7
ＭＳ Ｐゴシック
 73
               1
 44
0.8762322015334063
  0
LINE
  5
192
100
AcDbEntity
  8
1
  6
Continuous
100
AcDbLine
 10
1250.7341889393892
 20
691.12334955934068
 30
0.0
 11
1115.9760666391171
 21
775.51083959254845
 31
0.0
  0
LINE
  5
193
100
AcDbEntity
  8
1
  6
Continuous
100
AcDbLine
 10
1250.7341889393892
 20
691.12334955934068
 30
0.0
 11
1296.25332613109
 21
662.61860587104741
 31
0.0
  0
LINE
  5
194
100
AcDbEntity
  8
1
  6
Continuous
100
AcDbLine
 10
1250.7341889393892
 20
691.12334955934068
 30
0.0
 11
1269.8546216715963
 21
685.25742660270873
 31
0.0
  0
LINE
  5
195
100
AcDbEntity
  8
1
  6
Continuous
100
AcDbLine
 10
1250.7341889393892
 20
691.12334955934068
 30
0.0
 11
1264.3600079385164
 21
676.48309489615178
 31
0.0
  0
LINE
  5
196
100
AcDbEntity
  8
1
  6
Continuous
100
AcDbLine
 10
1296.25332613109
 20
662.61860587104741
 30
0.0
 11
1366.2533261310896
 21
662.61860587104741
 31
0.0
  0
LINE
  5
197
100
AcDbEntity
  8
1
  6
Continuous
100
AcDbLine
 10
1115.9760666391171
 20
775.51083959254845
 30
0.0
 11
1090.5500058277448
 21
791.43300752334301
 31
0.0
  0
LINE
  5
198
100
AcDbEntity
  8
1
  6
Continuous
100
AcDbLine
 10
1115.9760666391171
 20
775.51083959254845
 30
0.0
 11
1096.85563390691
 21
781.37676254918063
 31
0.0
  0
LINE
  5
199
100
AcDbEntity
  8
1
  6
Continuous
100
AcDbLine
 10
1115.9760666391171
 20
775.51083959254845
 30
0.0
 11
1102.3502476399899
 21
790.15109425573758
 31
0.0
  0
MTEXT
  5
19A
100
AcDbEntity
  8
1
100
AcDbMText
 10
1346.4479012267529
 20
686.51353010074604
 30
0.0
 40
19.095840867992766
 41
0.0
 71
               2
 72
               1
  1
{\C7;\lφ159ｱ0.5_}
  7
ＭＳ Ｐゴシック
 73
               1
 44
0.8762322015334063
  0
LINE
  5
19B
100
AcDbEntity
  8
1
  6
Continuous
100
AcDbLine
 10
1239.3516492178242
 20
903.31709457594513
 30
0.0
 11
780.27158187088571
 21
903.31709457594513
 31
0.0
  0
MTEXT
  5
19C
100
AcDbEntity
  8
1
100
AcDbMText
 10
591.91667390799103
 20
423.65523806087833
 30
0.0
 40
18.532081810949379
 41
0.0
 71
               2
 72
               1
  1
{\C7;\l17.5}
  7
ＭＳ Ｐゴシック
 11
0.0
 21
1.0
 31
0.0
 73
               1
 44
0.8762322015334065
  0
LINE
  5
19D
100
AcDbEntity
  8
1
  6
Continuous
100
AcDbLine
 10
673.35512778925295
 20
903.31709457594513
 30
0.0
 11
613.35512778925295
 21
903.31709457594513
 31
0.0
  0
LINE
  5
19E
100
AcDbEntity
  8
1
  6
Continuous
100
AcDbLine
 10
618.35512778925295
 20
817.13405886165913
 30
0.0
 11
618.35512778925295
 21
788.31709457594513
 31
0.0
  0
LINE
  5
19F
100
AcDbEntity
  8
1
  6
Continuous
100
AcDbLine
 10
618.35512778925295
 20
788.31709457594513
 30
0.0
 11
613.17874688720258
 21
807.63561110172611
 31
0.0
  0
LINE
  5
1A0
100
AcDbEntity
  8
1
  6
Continuous
100
AcDbLine
 10
618.35512778925295
 20
788.31709457594513
 30
0.0
 11
623.53150869130332
 21
807.63561110172611
 31
0.0
  0
LINE
  5
1A1
100
AcDbEntity
  8
1
  6
Continuous
100
AcDbLine
 10
788.05140112425033
 20
769.3681465738706
 30
0.0
 11
792.46037807066114
 21
769.51268399837011
 31
0.0
  0
LINE
  5
1A2
100
AcDbEntity
  8
1
  6
Continuous
100
AcDbLine
 10
1183.3551277892529
 20
913.31709457594513
 30
0.0
 11
1183.3551277892529
 21
963.31709457594513
 31
0.0
  0
LINE
  5
1A3
100
AcDbEntity
  8
1
  6
STYLE_04
100
AcDbLine
 10
1348.3551277892529
 20
852.31709457594513
 30
0.0
 11
1408.3551277892529
 21
852.31709457594513
 31
0.0
  0
LINE
  5
1A4
100
AcDbEntity
  8
1
  6
STYLE_04
100
AcDbLine
 10
1378.3551277892529
 20
882.31709457594513
 30
0.0
 11
1378.3551277892529
 21
822.31709457594513
 31
0.0
  0
CIRCLE
  5
1A5
100
AcDbEntity
  8
1
  6
Continuous
100
AcDbCircle
 10
1378.3551277892529
 20
852.31709457594513
 30
0.0
 40
18.5
  0
MTEXT
  5
1A6
100
AcDbEntity
  8
1
100
AcDbMText
 10
1470.8255867736279
 20
1011.7181436193526
 30
0.0
 40
17.868020304568528
 41
0.0
 71
               2
 72
               1
  1
{\C7;\lφ  給水穴}
  7
ＭＳ Ｐゴシック
 73
               1
 44
0.8762322015334063
  0
LINE
  5
1A7
100
AcDbEntity
  8
1
  6
Continuous
100
AcDbLine
 10
1445.8067795749675
 20
852.31709457594513
 30
0.0
 11
1445.8067795749675
 21
891.31709457594513
 31
0.0
  0
LINE
  5
1A8
100
AcDbEntity
  8
1
  6
Continuous
100
AcDbLine
 10
1436.5626724321105
 20
852.31709457594513
 30
0.0
 11
1450.8067795749675
 21
852.31709457594513
 31
0.0
  0
LINE
  5
1A9
100
AcDbEntity
  8
1
  6
Continuous
100
AcDbLine
 10
1445.8067795749675
 20
822.31709457594513
 30
0.0
 11
1445.8067795749675
 21
852.31709457594513
 31
0.0
  0
LINE
  5
1AA
100
AcDbEntity
  8
1
  6
Continuous
100
AcDbLine
 10
1445.8067795749675
 20
852.31709457594513
 30
0.0
 11
1450.9831604770179
 21
832.9985780501637
 31
0.0
  0
LINE
  5
1AB
100
AcDbEntity
  8
1
  6
Continuous
100
AcDbLine
 10
1445.8067795749675
 20
852.31709457594513
 30
0.0
 11
1440.630398672917
 21
832.9985780501637
 31
0.0
  0
LINE
  5
1AC
100
AcDbEntity
  8
1
  6
Continuous
100
AcDbLine
 10
1445.8067795749675
 20
891.31709457594513
 30
0.0
 11
1445.8067795749675
 21
921.31709457594513
 31
0.0
  0
LINE
  5
1AD
100
AcDbEntity
  8
1
  6
Continuous
100
AcDbLine
 10
1445.8067795749675
 20
891.31709457594513
 30
0.0
 11
1440.630398672917
 21
910.63561110172611
 31
0.0
  0
LINE
  5
1AE
100
AcDbEntity
  8
1
  6
Continuous
100
AcDbLine
 10
1445.8067795749675
 20
891.31709457594513
 30
0.0
 11
1450.9831604770179
 21
910.63561110172611
 31
0.0
  0
MTEXT
  5
1AF
100
AcDbEntity
  8
1
100
AcDbMText
 10
1417.0849705150101
 20
869.96645632259663
 30
0.0
 40
19.095840867992766
 41
0.0
 71
               2
 72
               1
  1
{\C7;\l39}
  7
ＭＳ Ｐゴシック
 11
0.0
 21
1.0
 31
0.0
 73
               1
 44
0.8762322015334063
  0
LINE
  5
1B0
100
AcDbEntity
  8
1
  6
Continuous
100
AcDbLine
 10
1408.3551277892529
 20
852.31709457594513
 30
0.0
 11
1436.5626724321105
 21
852.31709457594513
 31
0.0
  0
ARC
  5
1B1
100
AcDbEntity
  8
1
  6
Continuous
100
AcDbCircle
 10
1183.3551277892529
 20
643.31709457594445
 30
0.0
 40
230.00000000000017
100
AcDbArc
 50
125.17578801262707
 51
134.39419339776899
  0
ARC
  5
1B2
100
AcDbEntity
  8
1
  6
Continuous
100
AcDbCircle
 10
1183.3551277892529
 20
643.31709457594445
 30
0.0
 40
230.00000000000017
100
AcDbArc
 50
54.824211987372948
 51
125.17578801262707
  0
LINE
  5
1B3
100
AcDbEntity
  8
1
  6
Continuous
100
AcDbLine
 10
1183.3551277892529
 20
908.31709457594513
 30
0.0
 11
1183.3551277892529
 21
993.31709457594513
 31
0.0
  0
LINE
  5
1B4
100
AcDbEntity
  8
1
  6
Continuous
100
AcDbLine
 10
1183.3551277892529
 20
988.31709457594513
 30
0.0
 11
1378.3551277892529
 21
988.31709457594513
 31
0.0
  0
LINE
  5
1B5
100
AcDbEntity
  8
1
  6
Continuous
100
AcDbLine
 10
1183.3551277892529
 20
988.31709457594513
 30
0.0
 11
1202.6736443150344
 21
993.49347547799528
 31
0.0
  0
LINE
  5
1B6
100
AcDbEntity
  8
1
  6
Continuous
100
AcDbLine
 10
1183.3551277892529
 20
988.31709457594513
 30
0.0
 11
1202.6736443150344
 21
983.14071367389477
 31
0.0
  0
LINE
  5
1B7
100
AcDbEntity
  8
1
  6
Continuous
100
AcDbLine
 10
1378.3551277892529
 20
988.31709457594513
 30
0.0
 11
1359.0366112634711
 21
983.14071367389477
 31
0.0
  0
LINE
  5
1B8
100
AcDbEntity
  8
1
  6
Continuous
100
AcDbLine
 10
1378.3551277892529
 20
988.31709457594513
 30
0.0
 11
1359.0366112634711
 21
993.49347547799528
 31
0.0
  0
LINE
  5
1B9
100
AcDbEntity
  8
1
  6
Continuous
100
AcDbLine
 10
1378.3551277892529
 20
896.31709457594513
 30
0.0
 11
1378.3551277892529
 21
993.31709457594513
 31
0.0
  0
MTEXT
  5
1BA
100
AcDbEntity
  8
1
100
AcDbMText
 10
1280.8551277859201
 20
1012.4128831280894
 30
0.0
 40
19.095840867992766
 41
0.0
 71
               2
 72
               1
  1
{\C7;\l195±2_}
  7
ＭＳ Ｐゴシック
 11
1.0
 21
0.0000000001745329
 31
0.0
 73
               1
 44
0.8762322015334063
  0
LINE
  5
1BB
100
AcDbEntity
  8
1
  6
Continuous
100
AcDbLine
 10
1524.4517441135779
 20
988.31709457594513
 30
0.0
 11
1417.8392795749676
 21
988.31709457594513
 31
0.0
  0
LINE
  5
1BC
100
AcDbEntity
  8
1
  6
Continuous
100
AcDbLine
 10
692.49854296782451
 20
413.31709457594559
 30
0.0
 11
673.35512778925295
 21
413.31709457594559
 31
0.0
  0
LINE
  5
1BD
100
AcDbEntity
  8
1
  6
Continuous
100
AcDbLine
 10
678.35512778925295
 20
432.80928207594445
 30
0.0
 11
678.35512778925295
 21
378.31709457594457
 31
0.0
  0
LINE
  5
1BE
100
AcDbEntity
  8
1
  6
Continuous
100
AcDbLine
 10
708.35512778925295
 20
402.28059904023064
 30
0.0
 11
708.35512778925295
 21
378.31709457594513
 31
0.0
  0
LINE
  5
1BF
100
AcDbEntity
  8
1
  6
Continuous
100
AcDbLine
 10
699.29926841425277
 20
413.31709457594559
 30
0.0
 11
692.49854296782451
 21
413.31709457594559
 31
0.0
  0
LINE
  5
1C0
100
AcDbEntity
  8
1
  6
Continuous
100
AcDbLine
 10
1688.3551277892529
 20
460.03197868598147
 30
0.0
 11
1688.3551277892529
 21
370.53798743308766
 31
0.0
  0
LINE
  5
1C1
100
AcDbEntity
  8
1
  6
Continuous
100
AcDbLine
 10
1658.3551277892529
 20
406.77843374174415
 30
0.0
 11
1658.3551277892529
 21
370.53798743308766
 31
0.0
  0
LINE
  5
1C2
100
AcDbEntity
  8
1
  6
Continuous
100
AcDbLine
 10
1688.3551277892529
 20
840.87638029023117
 30
0.0
 11
1688.3551277892529
 21
915.55066600451607
 31
0.0
  0
ARC
  5
1C3
100
AcDbEntity
  8
1
  6
Continuous
100
AcDbCircle
 10
1183.3551277892529
 20
645.81709457594445
 30
0.0
 40
244.99999999999991
100
AcDbArc
 50
122.73922703494597
 51
134.99707674593802
  0
ARC
  5
1C4
100
AcDbEntity
  8
1
  6
Continuous
100
AcDbCircle
 10
1183.3551277892529
 20
645.81709457594445
 30
0.0
 40
244.99999999999991
100
AcDbArc
 50
57.260772965054038
 51
75.317889982567024
  0
LINE
  5
1C5
100
AcDbEntity
  8
1
  6
Continuous
100
AcDbLine
 10
678.35512778925295
 20
832.83957544329212
 30
0.0
 11
678.35512778925295
 21
916.97063411676106
 31
0.0
  0
LINE
  5
1C6
100
AcDbEntity
  8
1
  6
Continuous
100
AcDbLine
 10
678.35512778925295
 20
837.83957544329212
 30
0.0
 11
678.35512778925295
 21
1033.3170945759452
 31
0.0
  0
LINE
  5
1C7
100
AcDbEntity
  8
1
  6
Continuous
100
AcDbLine
 10
1688.3551277892529
 20
845.87638029023117
 30
0.0
 11
1688.3551277892529
 21
1033.3170945759452
 31
0.0
  0
ARC
  5
1C8
100
AcDbEntity
  8
1
  6
Continuous
100
AcDbCircle
 10
1183.3551277892529
 20
645.81709457594445
 30
0.0
 40
244.99999999999991
100
AcDbArc
 50
104.68211001743299
 51
122.73922703494597
  0
ARC
  5
1C9
100
AcDbEntity
  8
1
  6
Continuous
100
AcDbCircle
 10
1183.3551277892529
 20
645.81709457594445
 30
0.0
 40
244.99999999999991
100
AcDbArc
 50
75.317889982567024
 51
104.68211001743299
  0
LINE
  5
1CA
100
AcDbEntity
  8
1
  6
STYLE_04
100
AcDbLine
 10
1018.3551277892529
 20
852.31709457594513
 30
0.0
 11
958.35512778925295
 21
852.31709457594513
 31
0.0
  0
LINE
  5
1CB
100
AcDbEntity
  8
1
  6
STYLE_04
100
AcDbLine
 10
988.35512778925295
 20
882.31709457594513
 30
0.0
 11
988.35512778925295
 21
822.31709457594513
 31
0.0
  0
CIRCLE
  5
1CC
100
AcDbEntity
  8
1
  6
Continuous
100
AcDbCircle
 10
988.35512778925295
 20
852.31709457594513
 30
0.0
 40
18.5
  0
LINE
  5
1CD
100
AcDbEntity
  8
1
  6
Continuous
100
AcDbLine
 10
1183.3551277892529
 20
908.31709457594513
 30
0.0
 11
1183.3551277892529
 21
993.31709457594513
 31
0.0
  0
LINE
  5
1CE
100
AcDbEntity
  8
1
  6
Continuous
100
AcDbLine
 10
988.35512778925295
 20
988.31709457594513
 30
0.0
 11
1183.3551277892529
 21
988.31709457594513
 31
0.0
  0
LINE
  5
1CF
100
AcDbEntity
  8
1
  6
Continuous
100
AcDbLine
 10
988.35512778925295
 20
988.31709457594513
 30
0.0
 11
1007.6736443150344
 21
993.49347547799528
 31
0.0
  0
LINE
  5
1D0
100
AcDbEntity
  8
1
  6
Continuous
100
AcDbLine
 10
988.35512778925295
 20
988.31709457594513
 30
0.0
 11
1007.6736443150344
 21
983.14071367389477
 31
0.0
  0
LINE
  5
1D1
100
AcDbEntity
  8
1
  6
Continuous
100
AcDbLine
 10
1183.3551277892529
 20
988.31709457594513
 30
0.0
 11
1164.0366112634715
 21
983.14071367389477
 31
0.0
  0
LINE
  5
1D2
100
AcDbEntity
  8
1
  6
Continuous
100
AcDbLine
 10
1183.3551277892529
 20
988.31709457594513
 30
0.0
 11
1164.0366112634715
 21
993.49347547799528
 31
0.0
  0
LINE
  5
1D3
100
AcDbEntity
  8
1
  6
Continuous
100
AcDbLine
 10
988.35512778925295
 20
896.31709457594513
 30
0.0
 11
988.35512778925295
 21
993.31709457594513
 31
0.0
  0
MTEXT
  5
1D4
100
AcDbEntity
  8
1
100
AcDbMText
 10
1085.8551277892529
 20
1012.4128831280894
 30
0.0
 40
19.095840867992766
 41
0.0
 71
               2
 72
               1
  1
{\C7;\l195±2_}
  7
ＭＳ Ｐゴシック
 73
               1
 44
0.8762322015334063
  0
LINE
  5
1D5
100
AcDbEntity
  8
1
  6
STYLE_03
100
AcDbLine
 10
1023.3551277892529
 20
887.31709457594513
 30
0.0
 11
953.35512778925295
 21
887.31709457594513
 31
0.0
  0
LINE
  5
1D6
100
AcDbEntity
  8
1
  6
STYLE_03
100
AcDbLine
 10
1023.3551277892529
 20
847.31709457594513
 30
0.0
 11
1023.3551277892529
 21
887.31709457594513
 31
0.0
  0
LINE
  5
1D7
100
AcDbEntity
  8
1
  6
STYLE_03
100
AcDbLine
 10
1023.3551277892529
 20
847.31709457594513
 30
0.0
 11
993.35512778925295
 21
817.31709457594513
 31
0.0
  0
LINE
  5
1D8
100
AcDbEntity
  8
1
  6
Continuous
100
AcDbLine
 10
1023.3551277892529
 20
892.31709457594513
 30
0.0
 11
1023.3551277892529
 21
953.31709457594513
 31
0.0
  0
LINE
  5
1D9
100
AcDbEntity
  8
1
  6
Continuous
100
AcDbLine
 10
988.35512778925295
 20
752.96084457594509
 30
0.0
 11
1023.3551277892529
 21
752.96084457594509
 31
0.0
  0
LINE
  5
1DA
100
AcDbEntity
  8
1
  6
Continuous
100
AcDbLine
 10
988.35512778925295
 20
817.31709457594513
 30
0.0
 11
988.35512778925295
 21
747.96084457594509
 31
0.0
  0
LINE
  5
1DB
100
AcDbEntity
  8
1
  6
Continuous
100
AcDbLine
 10
1023.3551277892529
 20
842.31709457594513
 30
0.0
 11
1023.3551277892529
 21
747.96084457594509
 31
0.0
  0
LINE
  5
1DC
100
AcDbEntity
  8
1
  6
Continuous
100
AcDbLine
 10
958.35512778925295
 20
752.96084457594509
 30
0.0
 11
988.35512778925295
 21
752.96084457594509
 31
0.0
  0
LINE
  5
1DD
100
AcDbEntity
  8
1
  6
Continuous
100
AcDbLine
 10
988.35512778925295
 20
752.96084457594509
 30
0.0
 11
969.03661126347151
 21
747.78446367389472
 31
0.0
  0
LINE
  5
1DE
100
AcDbEntity
  8
1
  6
Continuous
100
AcDbLine
 10
988.35512778925295
 20
752.96084457594509
 30
0.0
 11
969.03661126347151
 21
758.13722547799568
 31
0.0
  0
LINE
  5
1DF
100
AcDbEntity
  8
1
  6
Continuous
100
AcDbLine
 10
1023.3551277892529
 20
752.96084457594509
 30
0.0
 11
1053.3551277892529
 21
752.96084457594509
 31
0.0
  0
LINE
  5
1E0
100
AcDbEntity
  8
1
  6
Continuous
100
AcDbLine
 10
1023.3551277892529
 20
752.96084457594509
 30
0.0
 11
1042.6736443150344
 21
758.13722547799568
 31
0.0
  0
LINE
  5
1E1
100
AcDbEntity
  8
1
  6
Continuous
100
AcDbLine
 10
1023.3551277892529
 20
752.96084457594509
 30
0.0
 11
1042.6736443150344
 21
747.78446367389472
 31
0.0
  0
MTEXT
  5
1E2
100
AcDbEntity
  8
1
100
AcDbMText
 10
1003.3313240749826
 20
776.66947492496433
 30
0.0
 40
19.095840867992766
 41
0.0
 71
               2
 72
               1
  1
{\C7;\l35}
  7
ＭＳ Ｐゴシック
 11
1.0
 21
0.0000000001745329
 31
0.0
 73
               1
 44
0.8762322015334063
  0
MTEXT
  5
1E3
100
AcDbEntity
  8
1
100
AcDbMText
 10
1055.7182869665448
 20
796.02858415162586
 30
0.0
 40
13.725579977466747
 41
0.0
 71
               2
 72
               1
  1
{\C7;\lC30}
  7
ＭＳ Ｐゴシック
 11
1.0
 21
0.0000000001745329
 31
0.0
 73
               1
 44
0.8762322015334064
  0
LINE
  5
1E4
100
AcDbEntity
  8
1
  6
Continuous
100
AcDbLine
 10
1079.9073360162938
 20
778.61739750961817
 30
0.0
 11
1034.3124061693547
 21
778.61739750961817
 31
0.0
  0
LINE
  5
1E5
100
AcDbEntity
  8
1
  6
Continuous
100
AcDbLine
 10
1034.3124061693547
 20
778.61739750961817
 30
0.0
 11
1001.4985230379775
 21
825.46048982466971
 31
0.0
  0
LINE
  5
1E6
100
AcDbEntity
  8
1
  6
Continuous
100
AcDbLine
 10
1001.4985230379775
 20
825.46048982466971
 30
0.0
 11
1016.821988792447
 21
812.60780927656549
 31
0.0
  0
LINE
  5
1E7
100
AcDbEntity
  8
1
  6
Continuous
100
AcDbLine
 10
1001.4985230379775
 20
825.46048982466971
 30
0.0
 11
1008.3426933813171
 21
806.66800908605057
 31
0.0
  0
LINE
  5
1E8
100
AcDbEntity
  8
1
  6
STYLE_03
100
AcDbLine
 10
1343.3551277892529
 20
887.31709457594513
 30
0.0
 11
1493.3551277892529
 21
887.31709457594513
 31
0.0
  0
LINE
  5
1E9
100
AcDbEntity
  8
1
  6
STYLE_03
100
AcDbLine
 10
1493.3551277892529
 20
817.31709457594513
 30
0.0
 11
1373.3551277892529
 21
817.31709457594513
 31
0.0
  0
LINE
  5
1EA
100
AcDbEntity
  8
1
  6
STYLE_03
100
AcDbLine
 10
1343.3551277892529
 20
847.31709457594513
 30
0.0
 11
1343.3551277892529
 21
887.31709457594513
 31
0.0
  0
LINE
  5
1EB
100
AcDbEntity
  8
1
  6
STYLE_03
100
AcDbLine
 10
1343.3551277892529
 20
847.31709457594513
 30
0.0
 11
1373.3551277892529
 21
817.31709457594513
 31
0.0
  0
MTEXT
  5
1EC
100
AcDbEntity
  8
1
100
AcDbMText
 10
1310.9920906798779
 20
796.02858415162586
 30
0.0
 40
13.725579977466747
 41
0.0
 71
               2
 72
               1
  1
{\C7;\lC30}
  7
ＭＳ Ｐゴシック
 73
               1
 44
0.8762322015334064
  0
LINE
  5
1ED
100
AcDbEntity
  8
1
  6
Continuous
100
AcDbLine
 10
1286.8029195622125
 20
778.61739750961817
 30
0.0
 11
1332.3978494091507
 21
778.61739750961817
 31
0.0
  0
LINE
  5
1EE
100
AcDbEntity
  8
1
  6
Continuous
100
AcDbLine
 10
1332.3978494091507
 20
778.61739750961817
 30
0.0
 11
1365.2117325405284
 21
825.46048982466971
 31
0.0
  0
LINE
  5
1EF
100
AcDbEntity
  8
1
  6
Continuous
100
AcDbLine
 10
1365.2117325405284
 20
825.46048982466971
 30
0.0
 11
1358.3675621971888
 21
806.66800908605057
 31
0.0
  0
LINE
  5
1F0
100
AcDbEntity
  8
1
  6
Continuous
100
AcDbLine
 10
1365.2117325405284
 20
825.46048982466971
 30
0.0
 11
1349.8882667860589
 21
812.60780927656549
 31
0.0
  0
LINE
  5
1F1
100
AcDbEntity
  8
1
  6
Continuous
100
AcDbLine
 10
1417.8392795749676
 20
988.31709457594513
 30
0.0
 11
1382.7643417554691
 21
870.28397611393405
 31
0.0
  0
LINE
  5
1F2
100
AcDbEntity
  8
1
  6
Continuous
100
AcDbLine
 10
1382.7643417554691
 20
870.28397611393405
 30
0.0
 11
1383.3053068502923
 21
890.27665869447321
 31
0.0
  0
LINE
  5
1F3
100
AcDbEntity
  8
1
  6
Continuous
100
AcDbLine
 10
1382.7643417554691
 20
870.28397611393405
 30
0.0
 11
1393.2291725604159
 21
887.32766457106811
 31
0.0
  0
LINE
  5
1F4
100
AcDbEntity
  8
1
  6
Continuous
100
AcDbLine
 10
1343.3551277892529
 20
892.31709457594513
 30
0.0
 11
1343.3551277892529
 21
953.31709457594513
 31
0.0
  0
LINE
  5
1F5
100
AcDbEntity
  8
1
  6
STYLE_03
100
AcDbLine
 10
986.19687616584906
 20
817.31709457594513
 30
0.0
 11
1023.3551277892529
 21
854.47534619934856
 31
0.0
  0
LINE
  5
1F6
100
AcDbEntity
  8
1
  6
STYLE_03
100
AcDbLine
 10
976.29738122923709
 20
817.31709457594513
 30
0.0
 11
993.53830955291141
 21
834.55802289961923
 31
0.0
  0
LINE
  5
1F7
100
AcDbEntity
  8
1
  6
STYLE_03
100
AcDbLine
 10
966.39788629262557
 20
817.31709457594513
 30
0.0
 11
983.53646239130603
 21
834.45567067462559
 31
0.0
  0
LINE
  5
1F8
100
AcDbEntity
  8
1
  6
STYLE_03
100
AcDbLine
 10
956.49839135601405
 20
817.31709457594513
 30
0.0
 11
976.94003660117323
 21
837.75873982110363
 31
0.0
  0
LINE
  5
1F9
100
AcDbEntity
  8
1
  6
STYLE_03
100
AcDbLine
 10
953.35512778925295
 20
824.07332594579555
 30
0.0
 11
972.33923799575678
 21
843.0574361522996
 31
0.0
  0
LINE
  5
1FA
100
AcDbEntity
  8
1
  6
STYLE_03
100
AcDbLine
 10
953.35512778925295
 20
833.97282088240706
 30
0.0
 11
969.93906879627639
 21
850.5567618894305
 31
0.0
  0
LINE
  5
1FB
100
AcDbEntity
  8
1
  6
STYLE_03
100
AcDbLine
 10
953.35512778925295
 20
843.87231581901904
 30
0.0
 11
996.79990654617905
 21
887.31709457594513
 31
0.0
  0
LINE
  5
1FC
100
AcDbEntity
  8
1
  6
STYLE_03
100
AcDbLine
 10
953.35512778925295
 20
853.77181075563078
 30
0.0
 11
986.90041160956707
 21
887.31709457594513
 31
0.0
  0
LINE
  5
1FD
100
AcDbEntity
  8
1
  6
STYLE_03
100
AcDbLine
 10
953.35512778925295
 20
863.67130569224207
 30
0.0
 11
977.00091667295555
 21
887.31709457594513
 31
0.0
  0
LINE
  5
1FE
100
AcDbEntity
  8
1
  6
STYLE_03
100
AcDbLine
 10
953.35512778925295
 20
873.57080062885404
 30
0.0
 11
967.10142173634404
 21
887.31709457594513
 31
0.0
  0
LINE
  5
1FF
100
AcDbEntity
  8
1
  6
STYLE_03
100
AcDbLine
 10
953.35512778925295
 20
883.47029556546556
 30
0.0
 11
957.20192679973206
 21
887.31709457594513
 31
0.0
  0
LINE
  5
200
100
AcDbEntity
  8
1
  6
STYLE_03
100
AcDbLine
 10
990.11546047576667
 20
870.73315356892169
 30
0.0
 11
1006.6994014827906
 21
887.31709457594513
 31
0.0
  0
LINE
  5
201
100
AcDbEntity
  8
1
  6
STYLE_03
100
AcDbLine
 10
997.61478621289825
 20
868.33298436944108
 30
0.0
 11
1016.5988964194021
 21
887.31709457594513
 31
0.0
  0
LINE
  5
202
100
AcDbEntity
  8
1
  6
STYLE_03
100
AcDbLine
 10
1002.9134825440942
 20
863.73218576402553
 30
0.0
 11
1023.3551277892529
 21
884.1738310091838
 31
0.0
  0
LINE
  5
203
100
AcDbEntity
  8
1
  6
STYLE_03
100
AcDbLine
 10
1006.2165516905725
 20
857.1357599738916
 30
0.0
 11
1023.3551277892529
 21
874.27433607257205
 31
0.0
  0
LINE
  5
204
100
AcDbEntity
  8
1
  6
STYLE_03
100
AcDbLine
 10
1006.1141994655791
 20
847.13391281228667
 30
0.0
 11
1023.3551277892529
 21
864.37484113596054
 31
0.0
  0
LINE
  5
205
100
AcDbEntity
  8
1
  6
STYLE_03
100
AcDbLine
 10
1392.129521921906
 20
817.31709457594513
 30
0.0
 11
1462.1295219219064
 21
887.31709457594559
 31
0.0
  0
LINE
  5
206
100
AcDbEntity
  8
1
  6
STYLE_03
100
AcDbLine
 10
1382.2300269852944
 20
817.31709457594513
 30
0.0
 11
1452.2300269852944
 21
887.31709457594559
 31
0.0
  0
LINE
  5
207
100
AcDbEntity
  8
1
  6
STYLE_03
100
AcDbLine
 10
1372.8428299189682
 20
817.82939244623014
 30
0.0
 11
1442.3305320486829
 21
887.31709457594559
 31
0.0
  0
LINE
  5
208
100
AcDbEntity
  8
1
  6
STYLE_03
100
AcDbLine
 10
1367.8930824506624
 20
822.77913991453613
 30
0.0
 11
1378.9402940092373
 21
833.82635147311123
 31
0.0
  0
LINE
  5
209
100
AcDbEntity
  8
1
  6
STYLE_03
100
AcDbLine
 10
1362.9433349823566
 20
827.72888738284166
 30
0.0
 11
1370.692891939219
 21
835.47844433970465
 31
0.0
  0
LINE
  5
20A
100
AcDbEntity
  8
1
  6
STYLE_03
100
AcDbLine
 10
1357.9935875140504
 20
832.67863485114765
 30
0.0
 11
1364.9171090649643
 21
839.60215640206172
 31
0.0
  0
LINE
  5
20B
100
AcDbEntity
  8
1
  6
STYLE_03
100
AcDbLine
 10
1353.0438400457451
 20
837.62838231945364
 30
0.0
 11
1361.0891245532848
 21
845.67366682699355
 31
0.0
  0
LINE
  5
20C
100
AcDbEntity
  8
1
  6
STYLE_03
100
AcDbLine
 10
1348.0940925774389
 20
842.57812978775962
 30
0.0
 11
1359.9801443164561
 21
854.46418152677654
 31
0.0
  0
LINE
  5
20D
100
AcDbEntity
  8
1
  6
STYLE_03
100
AcDbLine
 10
1343.3551277892529
 20
847.73865993618517
 30
0.0
 11
1382.9335624290129
 21
887.31709457594559
 31
0.0
  0
LINE
  5
20E
100
AcDbEntity
  8
1
  6
STYLE_03
100
AcDbLine
 10
1343.3551277892529
 20
857.63815487279714
 30
0.0
 11
1373.0340674924014
 21
887.31709457594559
 31
0.0
  0
LINE
  5
20F
100
AcDbEntity
  8
1
  6
STYLE_03
100
AcDbLine
 10
1343.3551277892534
 20
867.53764980940866
 30
0.0
 11
1363.1345725557894
 21
887.31709457594559
 31
0.0
  0
LINE
  5
210
100
AcDbEntity
  8
1
  6
STYLE_03
100
AcDbLine
 10
1343.3551277892534
 20
877.43714474602064
 30
0.0
 11
1353.2350776191779
 21
887.31709457594559
 31
0.0
  0
LINE
  5
211
100
AcDbEntity
  8
1
  6
STYLE_03
100
AcDbLine
 10
1402.0290168585179
 20
817.31709457594513
 30
0.0
 11
1472.0290168585179
 21
887.31709457594559
 31
0.0
  0
LINE
  5
212
100
AcDbEntity
  8
1
  6
STYLE_03
100
AcDbLine
 10
1411.9285117951295
 20
817.31709457594513
 30
0.0
 11
1481.9285117951295
 21
887.31709457594513
 31
0.0
  0
LINE
  5
213
100
AcDbEntity
  8
1
  6
STYLE_03
100
AcDbLine
 10
1421.828006731741
 20
817.31709457594513
 30
0.0
 11
1491.8280067317414
 21
887.31709457594513
 31
0.0
  0
LINE
  5
214
100
AcDbEntity
  8
1
  6
STYLE_03
100
AcDbLine
 10
1431.7275016683529
 20
817.31709457594513
 30
0.0
 11
1493.3551277892529
 21
878.94472069684559
 31
0.0
  0
LINE
  5
215
100
AcDbEntity
  8
1
  6
STYLE_03
100
AcDbLine
 10
1441.6269966049645
 20
817.31709457594513
 30
0.0
 11
1493.3551277892529
 21
869.04522576023362
 31
0.0
  0
LINE
  5
216
100
AcDbEntity
  8
1
  6
STYLE_03
100
AcDbLine
 10
1451.526491541576
 20
817.31709457594513
 30
0.0
 11
1493.3551277892529
 21
859.1457308236221
 31
0.0
  0
LINE
  5
217
100
AcDbEntity
  8
1
  6
STYLE_03
100
AcDbLine
 10
1461.425986478188
 20
817.31709457594513
 30
0.0
 11
1493.3551277892529
 21
849.24623588701013
 31
0.0
  0
LINE
  5
218
100
AcDbEntity
  8
1
  6
STYLE_03
100
AcDbLine
 10
1471.3254814147995
 20
817.31709457594513
 30
0.0
 11
1493.3551277892529
 21
839.34674095039861
 31
0.0
  0
LINE
  5
219
100
AcDbEntity
  8
1
  6
STYLE_03
100
AcDbLine
 10
1481.224976351411
 20
817.31709457594513
 30
0.0
 11
1493.3551277892529
 21
829.44724601378709
 31
0.0
  0
LINE
  5
21A
100
AcDbEntity
  8
1
  6
STYLE_03
100
AcDbLine
 10
1491.124471288023
 20
817.31709457594513
 30
0.0
 11
1493.3551277892529
 21
819.54775107717512
 31
0.0
  0
LINE
  5
21B
100
AcDbEntity
  8
1
  6
STYLE_03
100
AcDbLine
 10
1376.2080408384218
 20
870.69207804874202
 30
0.0
 11
1392.8330573656244
 21
887.31709457594559
 31
0.0
  0
LINE
  5
21C
100
AcDbEntity
  8
1
  6
STYLE_03
100
AcDbLine
 10
1384.9985555382045
 20
869.58309781191326
 30
0.0
 11
1402.7325523022364
 21
887.31709457594559
 31
0.0
  0
LINE
  5
21D
100
AcDbEntity
  8
1
  6
STYLE_03
100
AcDbLine
 10
1391.0700659631357
 20
865.75511330023357
 30
0.0
 11
1412.6320472388479
 21
887.31709457594559
 31
0.0
  0
LINE
  5
21E
100
AcDbEntity
  8
1
  6
STYLE_03
100
AcDbLine
 10
1395.1937780254934
 20
859.97933042597958
 30
0.0
 11
1422.5315421754594
 21
887.31709457594559
 31
0.0
  0
LINE
  5
21F
100
AcDbEntity
  8
1
  6
STYLE_03
100
AcDbLine
 10
1396.8458708920862
 20
851.73192835596058
 30
0.0
 11
1432.4310371120714
 21
887.31709457594559
 31
0.0
  0
LINE
  5
220
100
AcDbEntity
  8
1
  6
STYLE_03
100
AcDbLine
 10
1593.3551277892529
 20
887.31709457594513
 30
0.0
 11
1593.3551277892529
 21
817.31709457594513
 31
0.0
  0
LINE
  5
221
100
AcDbEntity
  8
1
  6
STYLE_03
100
AcDbLine
 10
1593.3551277892529
 20
887.31709457594513
 30
0.0
 11
1491.8280067317414
 21
887.31709457594513
 31
0.0
  0
LINE
  5
222
100
AcDbEntity
  8
1
  6
STYLE_03
100
AcDbLine
 10
1593.3551277892529
 20
817.31709457594513
 30
0.0
 11
1493.3551277892529
 21
817.31709457594513
 31
0.0
  0
LINE
  5
223
100
AcDbEntity
  8
1
  6
STYLE_03
100
AcDbLine
 10
1493.3551277892529
 20
849.24623588701013
 30
0.0
 11
1531.425986478188
 21
887.31709457594513
 31
0.0
  0
LINE
  5
224
100
AcDbEntity
  8
1
  6
STYLE_03
100
AcDbLine
 10
1493.3551277892529
 20
859.14573082362165
 30
0.0
 11
1521.5264915415764
 21
887.31709457594513
 31
0.0
  0
LINE
  5
225
100
AcDbEntity
  8
1
  6
STYLE_03
100
AcDbLine
 10
1493.3551277892529
 20
869.04522576023362
 30
0.0
 11
1511.6269966049649
 21
887.31709457594513
 31
0.0
  0
LINE
  5
226
100
AcDbEntity
  8
1
  6
STYLE_03
100
AcDbLine
 10
1493.3551277892529
 20
878.94472069684514
 30
0.0
 11
1501.7275016683529
 21
887.31709457594513
 31
0.0
  0
LINE
  5
227
100
AcDbEntity
  8
1
  6
STYLE_03
100
AcDbLine
 10
1493.3551277892529
 20
839.34674095039861
 30
0.0
 11
1541.3254814147995
 21
887.31709457594513
 31
0.0
  0
LINE
  5
228
100
AcDbEntity
  8
1
  6
STYLE_03
100
AcDbLine
 10
1493.3551277892529
 20
829.44724601378709
 30
0.0
 11
1551.2249763514114
 21
887.31709457594513
 31
0.0
  0
LINE
  5
229
100
AcDbEntity
  8
1
  6
STYLE_03
100
AcDbLine
 10
1493.3551277892529
 20
819.54775107717512
 30
0.0
 11
1561.124471288023
 21
887.31709457594513
 31
0.0
  0
LINE
  5
22A
100
AcDbEntity
  8
1
  6
STYLE_03
100
AcDbLine
 10
1501.0239662246345
 20
817.31709457594513
 30
0.0
 11
1571.0239662246345
 21
887.31709457594513
 31
0.0
  0
LINE
  5
22B
100
AcDbEntity
  8
1
  6
STYLE_03
100
AcDbLine
 10
1510.9234611612465
 20
817.31709457594513
 30
0.0
 11
1580.9234611612465
 21
887.31709457594513
 31
0.0
  0
LINE
  5
22C
100
AcDbEntity
  8
1
  6
STYLE_03
100
AcDbLine
 10
1520.822956097858
 20
817.31709457594513
 30
0.0
 11
1590.822956097858
 21
887.31709457594513
 31
0.0
  0
LINE
  5
22D
100
AcDbEntity
  8
1
  6
STYLE_03
100
AcDbLine
 10
1530.7224510344695
 20
817.31709457594513
 30
0.0
 11
1593.3551277892529
 21
879.94977133072859
 31
0.0
  0
LINE
  5
22E
100
AcDbEntity
  8
1
  6
STYLE_03
100
AcDbLine
 10
1540.6219459710815
 20
817.31709457594513
 30
0.0
 11
1593.3551277892529
 21
870.05027639411662
 31
0.0
  0
LINE
  5
22F
100
AcDbEntity
  8
1
  6
STYLE_03
100
AcDbLine
 10
1550.521440907693
 20
817.31709457594513
 30
0.0
 11
1593.3551277892529
 21
860.1507814575051
 31
0.0
  0
LINE
  5
230
100
AcDbEntity
  8
1
  6
STYLE_03
100
AcDbLine
 10
1560.4209358443045
 20
817.31709457594513
 30
0.0
 11
1593.3551277892529
 21
850.25128652089359
 31
0.0
  0
LINE
  5
231
100
AcDbEntity
  8
1
  6
STYLE_03
100
AcDbLine
 10
1570.3204307809165
 20
817.31709457594513
 30
0.0
 11
1593.3551277892529
 21
840.35179158428161
 31
0.0
  0
LINE
  5
232
100
AcDbEntity
  8
1
  6
STYLE_03
100
AcDbLine
 10
1580.219925717528
 20
817.31709457594513
 30
0.0
 11
1593.3551277892529
 21
830.4522966476701
 31
0.0
  0
LINE
  5
233
100
AcDbEntity
  8
1
  6
STYLE_03
100
AcDbLine
 10
1590.1194206541395
 20
817.31709457594513
 30
0.0
 11
1593.3551277892529
 21
820.55280171105812
 31
0.0
  0
LINE
  5
234
100
AcDbEntity
  8
1
  6
Continuous
100
AcDbLine
 10
1343.3551277892529
 20
948.31709457594513
 30
0.0
 11
1593.3551277892529
 21
948.31709457594513
 31
0.0
  0
LINE
  5
235
100
AcDbEntity
  8
1
  6
Continuous
100
AcDbLine
 10
1343.3551277892529
 20
948.31709457594513
 30
0.0
 11
1362.6736443150348
 21
953.49347547799528
 31
0.0
  0
LINE
  5
236
100
AcDbEntity
  8
1
  6
Continuous
100
AcDbLine
 10
1343.3551277892529
 20
948.31709457594513
 30
0.0
 11
1362.6736443150348
 21
943.14071367389477
 31
0.0
  0
LINE
  5
237
100
AcDbEntity
  8
1
  6
Continuous
100
AcDbLine
 10
1593.3551277892529
 20
948.31709457594513
 30
0.0
 11
1574.0366112634713
 21
943.14071367389477
 31
0.0
  0
LINE
  5
238
100
AcDbEntity
  8
1
  6
Continuous
100
AcDbLine
 10
1593.3551277892529
 20
948.31709457594513
 30
0.0
 11
1574.0366112634713
 21
953.49347547799528
 31
0.0
  0
LINE
  5
239
100
AcDbEntity
  8
1
  6
Continuous
100
AcDbLine
 10
1343.3551277892529
 20
892.31709457594513
 30
0.0
 11
1343.3551277892529
 21
953.31709457594513
 31
0.0
  0
LINE
  5
23A
100
AcDbEntity
  8
1
  6
Continuous
100
AcDbLine
 10
1593.3551277892529
 20
892.31709457594513
 30
0.0
 11
1593.3551277892529
 21
953.31709457594513
 31
0.0
  0
MTEXT
  5
23B
100
AcDbEntity
  8
1
100
AcDbMText
 10
1468.3551277859201
 20
972.41288312808933
 30
0.0
 40
19.095840867992766
 41
0.0
 71
               2
 72
               1
  1
{\C7;\l250}
  7
ＭＳ Ｐゴシック
 11
1.0
 21
0.0000000001745329
 31
0.0
 73
               1
 44
0.8762322015334063
  0
LINE
  5
23C
100
AcDbEntity
  8
1
  6
Continuous
100
AcDbLine
 10
1023.3551277892529
 20
892.31709457594513
 30
0.0
 11
1023.3551277892529
 21
953.31709457594513
 31
0.0
  0
LINE
  5
23D
100
AcDbEntity
  8
1
  6
STYLE_03
100
AcDbLine
 10
953.35512778925295
 20
887.31709457594513
 30
0.0
 11
953.35512778925295
 21
817.31709457594513
 31
0.0
  0
LINE
  5
23E
100
AcDbEntity
  8
1
  6
STYLE_03
100
AcDbLine
 10
953.35512778925295
 20
817.31709457594513
 30
0.0
 11
993.35512778925295
 21
817.31709457594513
 31
0.0
  0
LINE
  5
23F
100
AcDbEntity
  8
1
  6
Continuous
100
AcDbLine
 10
953.35512778925295
 20
948.31709457594513
 30
0.0
 11
1023.3551277892529
 21
948.31709457594513
 31
0.0
  0
LINE
  5
240
100
AcDbEntity
  8
1
  6
Continuous
100
AcDbLine
 10
953.35512778925295
 20
948.31709457594513
 30
0.0
 11
972.67364431503438
 21
953.49347547799528
 31
0.0
  0
LINE
  5
241
100
AcDbEntity
  8
1
  6
Continuous
100
AcDbLine
 10
953.35512778925295
 20
948.31709457594513
 30
0.0
 11
972.67364431503438
 21
943.14071367389477
 31
0.0
  0
LINE
  5
242
100
AcDbEntity
  8
1
  6
Continuous
100
AcDbLine
 10
1023.3551277892529
 20
948.31709457594513
 30
0.0
 11
1004.0366112634715
 21
943.14071367389477
 31
0.0
  0
LINE
  5
243
100
AcDbEntity
  8
1
  6
Continuous
100
AcDbLine
 10
1023.3551277892529
 20
948.31709457594513
 30
0.0
 11
1004.0366112634715
 21
953.49347547799528
 31
0.0
  0
LINE
  5
244
100
AcDbEntity
  8
1
  6
Continuous
100
AcDbLine
 10
953.35512778925295
 20
892.31709457594513
 30
0.0
 11
953.35512778925295
 21
953.31709457594513
 31
0.0
  0
LINE
  5
245
100
AcDbEntity
  8
1
  6
Continuous
100
AcDbLine
 10
1023.3551277892529
 20
892.31709457594513
 30
0.0
 11
1023.3551277892529
 21
953.31709457594513
 31
0.0
  0
MTEXT
  5
246
100
AcDbEntity
  8
1
100
AcDbMText
 10
988.3551277859201
 20
972.41288312808933
 30
0.0
 40
19.095840867992766
 41
0.0
 71
               2
 72
               1
  1
{\C7;\l70}
  7
ＭＳ Ｐゴシック
 11
1.0
 21
0.0000000001745329
 31
0.0
 73
               1
 44
0.8762322015334063
  0
LINE
  5
247
100
AcDbEntity
  8
1
  6
Continuous
100
AcDbLine
 10
678.35512778925295
 20
1068.3170945759448
 30
0.0
 11
1688.3551277892529
 21
1068.3170945759448
 31
0.0
  0
LINE
  5
248
100
AcDbEntity
  8
1
  6
Continuous
100
AcDbLine
 10
678.35512778925295
 20
1068.3170945759448
 30
0.0
 11
697.67364431503438
 21
1073.4934754779952
 31
0.0
  0
LINE
  5
249
100
AcDbEntity
  8
1
  6
Continuous
100
AcDbLine
 10
678.35512778925295
 20
1068.3170945759448
 30
0.0
 11
697.67364431503438
 21
1063.1407136738944
 31
0.0
  0
LINE
  5
24A
100
AcDbEntity
  8
1
  6
Continuous
100
AcDbLine
 10
1688.3551277892529
 20
1068.3170945759448
 30
0.0
 11
1669.0366112634713
 21
1063.1407136738944
 31
0.0
  0
LINE
  5
24B
100
AcDbEntity
  8
1
  6
Continuous
100
AcDbLine
 10
1688.3551277892529
 20
1068.3170945759448
 30
0.0
 11
1669.0366112634713
 21
1073.4934754779952
 31
0.0
  0
LINE
  5
24C
100
AcDbEntity
  8
1
  6
Continuous
100
AcDbLine
 10
678.35512778925295
 20
846.31709457594513
 30
0.0
 11
678.35512778925295
 21
1073.3170945759448
 31
0.0
  0
LINE
  5
24D
100
AcDbEntity
  8
1
  6
Continuous
100
AcDbLine
 10
1688.3551277892529
 20
850.87638029023117
 30
0.0
 11
1688.3551277892529
 21
1073.3170945759448
 31
0.0
  0
MTEXT
  5
24E
100
AcDbEntity
  8
1
100
AcDbMText
 10
1183.3551277859201
 20
1092.4128831280893
 30
0.0
 40
19.095840867992766
 41
0.0
 71
               2
 72
               1
  1
{\C7;\l1010±2_}
  7
ＭＳ Ｐゴシック
 11
1.0
 21
0.0000000001745329
 31
0.0
 73
               1
 44
0.8762322015334063
  0
LINE
  5
24F
100
AcDbEntity
  8
1
  6
Continuous
100
AcDbLine
 10
1534.4161992178244
 20
817.31709457594513
 30
0.0
 11
1534.4161992178244
 21
887.31709457594513
 31
0.0
  0
LINE
  5
250
100
AcDbEntity
  8
1
  6
Continuous
100
AcDbLine
 10
1534.4161992178244
 20
817.31709457594513
 30
0.0
 11
1529.2398183157738
 21
836.63561110172611
 31
0.0
  0
LINE
  5
251
100
AcDbEntity
  8
1
  6
Continuous
100
AcDbLine
 10
1534.4161992178244
 20
817.31709457594513
 30
0.0
 11
1539.5925801198748
 21
836.63561110172611
 31
0.0
  0
LINE
  5
252
100
AcDbEntity
  8
1
  6
Continuous
100
AcDbLine
 10
1534.4161992178244
 20
887.31709457594513
 30
0.0
 11
1539.5925801198748
 21
867.9985780501637
 31
0.0
  0
LINE
  5
253
100
AcDbEntity
  8
1
  6
Continuous
100
AcDbLine
 10
1534.4161992178244
 20
887.31709457594513
 30
0.0
 11
1529.2398183157738
 21
867.9985780501637
 31
0.0
  0
MTEXT
  5
254
100
AcDbEntity
  8
1
100
AcDbMText
 10
1510.3203220775101
 20
852.31704226009663
 30
0.0
 40
19.095840867992766
 41
0.0
 71
               2
 72
               1
  1
{\C7;\l70}
  7
ＭＳ Ｐゴシック
 11
0.0
 21
1.0
 31
0.0
 73
               1
 44
0.8762322015334063
  0
LINE
  5
255
100
AcDbEntity
  8
1
  6
Continuous
100
AcDbLine
 10
1183.3551277892529
 20
913.31709457594513
 30
0.0
 11
1183.3551277892529
 21
1033.3170945759452
 31
0.0
  0
LINE
  5
256
100
AcDbEntity
  8
2
  6
Continuous
100
AcDbLine
 10
691.35512778925295
 20
475.81709457594445
 30
0.0
 11
691.35512778925295
 21
810.81709457594513
 31
0.0
  0
LINE
  5
257
100
AcDbEntity
  8
2
  6
Continuous
100
AcDbLine
 10
771.35512778925295
 20
395.81709457594457
 30
0.0
 11
1183.3551277892529
 21
395.81709457594457
 31
0.0
  0
ARC
  5
258
100
AcDbEntity
  8
2
  6
Continuous
100
AcDbCircle
 10
771.35512778925295
 20
475.81709457594445
 30
0.0
 40
80.0
100
AcDbArc
 50
180.0
 51
270.0
  0
LINE
  5
259
100
AcDbEntity
  8
2
  6
Continuous
100
AcDbLine
 10
771.35512778925295
 20
890.81709457594513
 30
0.0
 11
1183.3551277892529
 21
890.81709457594513
 31
0.0
  0
ARC
  5
25A
100
AcDbEntity
  8
2
  6
Continuous
100
AcDbCircle
 10
771.35512778925295
 20
810.81709457594513
 30
0.0
 40
80.0
100
AcDbArc
 50
90.0
 51
180.0
  0
ARC
  5
25B
100
AcDbEntity
  8
2
  6
Continuous
100
AcDbCircle
 10
1595.3551277892529
 20
810.81709457594513
 30
0.0
 40
80.0
100
AcDbArc
 50
0.0
 51
90.0
  0
LINE
  5
25C
100
AcDbEntity
  8
2
  6
Continuous
100
AcDbLine
 10
1595.3551277892529
 20
890.81709457594513
 30
0.0
 11
1183.3551277892529
 21
890.81709457594513
 31
0.0
  0
LINE
  5
25D
100
AcDbEntity
  8
2
  6
Continuous
100
AcDbLine
 10
1675.3551277892529
 20
475.81709457594445
 30
0.0
 11
1675.3551277892536
 21
810.81709457594513
 31
0.0
  0
ARC
  5
25E
100
AcDbEntity
  8
2
  6
Continuous
100
AcDbCircle
 10
1595.3551277892529
 20
475.81709457594445
 30
0.0
 40
80.0
100
AcDbArc
 50
270.0
 51
0.0
  0
LINE
  5
25F
100
AcDbEntity
  8
2
  6
Continuous
100
AcDbLine
 10
1595.3551277892529
 20
395.81709457594457
 30
0.0
 11
1183.3551277892529
 21
395.81709457594457
 31
0.0
  0
LINE
  5
260
100
AcDbEntity
  8
2
  6
Continuous
100
AcDbLine
 10
935.88038160289943
 20
788.31709457594513
 30
0.0
 11
771.35512778925295
 21
788.31709457594513
 31
0.0
  0
ARC
  5
261
100
AcDbEntity
  8
2
  6
Continuous
100
AcDbCircle
 10
935.88038160289943
 20
893.31709457594513
 30
0.0
 40
105.0
100
AcDbArc
 50
270.0
 51
314.99707674593816
  0
ARC
  5
262
100
AcDbEntity
  8
2
  6
Continuous
100
AcDbCircle
 10
938.49830258066095
 20
893.40734858191161
 30
0.0
 40
119.99999999999991
100
AcDbArc
 50
271.15760867854698
 51
314.39419339776907
  0
ARC
  5
263
100
AcDbEntity
  8
1
  6
Continuous
100
AcDbCircle
 10
1183.3551277892529
 20
645.81709457594445
 30
0.0
 40
245.00000000000009
100
AcDbArc
 50
45.002923254061997
 51
57.260772965054038
  0
ARC
  5
264
100
AcDbEntity
  8
2
  6
Continuous
100
AcDbCircle
 10
1430.8298739756065
 20
893.31709457594513
 30
0.0
 40
105.0000000000002
100
AcDbArc
 50
225.00292325406193
 51
270.0
  0
LINE
  5
265
100
AcDbEntity
  8
2
  6
Continuous
100
AcDbLine
 10
1430.8298739756065
 20
788.31709457594513
 30
0.0
 11
1595.3551277892529
 21
788.31709457594513
 31
0.0
  0
ARC
  5
266
100
AcDbEntity
  8
1
  6
Continuous
100
AcDbCircle
 10
1595.3551277892529
 20
708.31709457594445
 30
0.0
 40
80.0
100
AcDbArc
 50
0.0
 51
90.0
  0
ARC
  5
267
100
AcDbEntity
  8
1
  6
Continuous
100
AcDbCircle
 10
1183.3551277892529
 20
643.31709457594445
 30
0.0
 40
229.99999999999994
100
AcDbArc
 50
45.605806602231048
 51
54.824211987372948
  0
ARC
  5
268
100
AcDbEntity
  8
2
  6
Continuous
100
AcDbCircle
 10
1428.2119529978454
 20
893.40734858191161
 30
0.0
 40
120.00000000000013
100
AcDbArc
 50
225.60580660223104
 51
268.84239132145302
  0
ARC
  5
269
100
AcDbEntity
  8
1
  6
Continuous
100
AcDbCircle
 10
1183.3551277892529
 20
-11224.119013475185
 30
0.0
 40
11999.999999999998
100
AcDbArc
 50
88.133284822063018
 51
88.842391321452013
  0
LINE
  5
26A
100
AcDbEntity
  8
1
  6
Continuous
100
AcDbLine
 10
1574.249877507845
 20
769.51268399837011
 30
0.0
 11
1578.818679707465
 21
769.36290709751358
 31
0.0
  0
ARC
  5
26B
100
AcDbEntity
  8
2
  6
Continuous
100
AcDbCircle
 10
790.67259551058032
 20
689.41109973002415
 30
0.0
 40
79.999999999999886
100
AcDbArc
 50
91.877628249194885
 51
176.72614540009801
  0
ARC
  5
26C
100
AcDbEntity
  8
2
  6
Continuous
100
AcDbCircle
 10
1576.0376600679253
 20
689.41109973002415
 30
0.0
 40
80.000000000000071
100
AcDbArc
 50
3.2738545999020134
 51
88.122371750804973
  0
ARC
  5
26D
100
AcDbEntity
  8
1
  6
Continuous
100
AcDbCircle
 10
158.35512778925295
 20
608.31709457594445
 30
0.0
 40
1500.0
100
AcDbArc
 50
355.614177940785
 51
3.2738545999019948
  0
LINE
  5
26E
100
AcDbEntity
  8
2
  6
Continuous
100
AcDbLine
 10
712.17264917537068
 20
395.81709457594457
 30
0.0
 11
613.35512778925295
 21
395.81709457594457
 31
0.0
  0
LINE
  5
26F
100
AcDbEntity
  8
2
  6
Continuous
100
AcDbLine
 10
673.35512778925295
 20
413.31709457594445
 30
0.0
 11
613.35512778925295
 21
413.31709457594445
 31
0.0
  0
LINE
  5
270
100
AcDbEntity
  8
2
  6
Continuous
100
AcDbLine
 10
618.35512778925295
 20
350.81709457594468
 30
0.0
 11
618.35512778925295
 21
395.81709457594457
 31
0.0
  0
LINE
  5
271
100
AcDbEntity
  8
2
  6
Continuous
100
AcDbLine
 10
618.35512778925295
 20
395.81709457594457
 30
0.0
 11
623.53150869130286
 21
376.49857805016313
 31
0.0
  0
LINE
  5
272
100
AcDbEntity
  8
2
  6
Continuous
100
AcDbLine
 10
618.35512778925295
 20
395.81709457594457
 30
0.0
 11
613.17874688720258
 21
376.49857805016313
 31
0.0
  0
LINE
  5
273
100
AcDbEntity
  8
2
  6
Continuous
100
AcDbLine
 10
618.35512778925295
 20
413.31709457594445
 30
0.0
 11
618.35512778925295
 21
443.31709457594445
 31
0.0
  0
LINE
  5
274
100
AcDbEntity
  8
2
  6
Continuous
100
AcDbLine
 10
618.35512778925295
 20
413.31709457594445
 30
0.0
 11
613.17874688720258
 21
432.63561110172611
 31
0.0
  0
LINE
  5
275
100
AcDbEntity
  8
2
  6
Continuous
100
AcDbLine
 10
618.35512778925295
 20
413.31709457594445
 30
0.0
 11
623.53150869130286
 21
432.63561110172611
 31
0.0
  0
LINE
  5
276
100
AcDbEntity
  8
2
  6
Continuous
100
AcDbLine
 10
618.35512778925295
 20
395.81709457594457
 30
0.0
 11
618.35512778925295
 21
413.31709457594445
 31
0.0
  0
LINE
  5
277
100
AcDbEntity
  8
2
  6
Continuous
100
AcDbLine
 10
673.35512778925295
 20
788.31709457594513
 30
0.0
 11
553.35512778925295
 21
788.31709457594513
 31
0.0
  0
LINE
  5
278
100
AcDbEntity
  8
2
  6
Continuous
100
AcDbLine
 10
673.35512778925295
 20
890.81709457594445
 30
0.0
 11
553.35512778925295
 21
890.81709457594445
 31
0.0
  0
LINE
  5
279
100
AcDbEntity
  8
2
  6
Continuous
100
AcDbLine
 10
558.35512778925295
 20
788.31709457594513
 30
0.0
 11
558.35512778925295
 21
890.81709457594445
 31
0.0
  0
LINE
  5
27A
100
AcDbEntity
  8
2
  6
Continuous
100
AcDbLine
 10
558.35512778925295
 20
788.31709457594513
 30
0.0
 11
553.17874688720258
 21
807.63561110172611
 31
0.0
  0
LINE
  5
27B
100
AcDbEntity
  8
2
  6
Continuous
100
AcDbLine
 10
558.35512778925295
 20
788.31709457594513
 30
0.0
 11
563.53150869130332
 21
807.63561110172611
 31
0.0
  0
LINE
  5
27C
100
AcDbEntity
  8
2
  6
Continuous
100
AcDbLine
 10
558.35512778925295
 20
890.81709457594445
 30
0.0
 11
563.53150869130332
 21
871.49857805016325
 31
0.0
  0
LINE
  5
27D
100
AcDbEntity
  8
2
  6
Continuous
100
AcDbLine
 10
558.35512778925295
 20
890.81709457594445
 30
0.0
 11
553.17874688720258
 21
871.49857805016325
 31
0.0
  0
MTEXT
  5
27E
100
AcDbEntity
  8
2
100
AcDbMText
 10
534.25928692126035
 20
839.56704226009663
 30
0.0
 40
19.095840867992766
 41
0.0
 71
               2
 72
               1
  1
{\C7;\l102.5}
  7
ＭＳ Ｐゴシック
 11
0.0
 21
1.0
 31
0.0
 73
               1
 44
0.8762322015334063
  0
LINE
  5
27F
100
AcDbEntity
  8
2
  6
Continuous
100
AcDbLine
 10
673.35512778925295
 20
890.81709457594513
 30
0.0
 11
553.35512778925295
 21
890.81709457594513
 31
0.0
  0
LINE
  5
280
100
AcDbEntity
  8
2
  6
Continuous
100
AcDbLine
 10
673.35512778925295
 20
903.31709457594513
 30
0.0
 11
553.35512778925295
 21
903.31709457594513
 31
0.0
  0
LINE
  5
281
100
AcDbEntity
  8
2
  6
Continuous
100
AcDbLine
 10
558.35512778925295
 20
860.81709457594513
 30
0.0
 11
558.35512778925295
 21
890.81709457594513
 31
0.0
  0
LINE
  5
282
100
AcDbEntity
  8
2
  6
Continuous
100
AcDbLine
 10
558.35512778925295
 20
890.81709457594513
 30
0.0
 11
563.53150869130332
 21
871.4985780501637
 31
0.0
  0
LINE
  5
283
100
AcDbEntity
  8
2
  6
Continuous
100
AcDbLine
 10
558.35512778925295
 20
890.81709457594513
 30
0.0
 11
553.17874688720258
 21
871.4985780501637
 31
0.0
  0
LINE
  5
284
100
AcDbEntity
  8
2
  6
Continuous
100
AcDbLine
 10
558.35512778925295
 20
903.31709457594513
 30
0.0
 11
558.35512778925295
 21
952.40669916778154
 31
0.0
  0
LINE
  5
285
100
AcDbEntity
  8
2
  6
Continuous
100
AcDbLine
 10
558.35512778925295
 20
903.31709457594513
 30
0.0
 11
553.17874688720258
 21
922.63561110172611
 31
0.0
  0
LINE
  5
286
100
AcDbEntity
  8
2
  6
Continuous
100
AcDbLine
 10
558.35512778925295
 20
903.31709457594513
 30
0.0
 11
563.53150869130332
 21
922.63561110172611
 31
0.0
  0
LINE
  5
287
100
AcDbEntity
  8
2
  6
Continuous
100
AcDbLine
 10
558.35512778925295
 20
890.81709457594513
 30
0.0
 11
558.35512778925295
 21
903.31709457594513
 31
0.0
  0
MTEXT
  5
288
100
AcDbEntity
  8
2
100
AcDbMText
 10
534.25928692126035
 20
927.86184206478413
 30
0.0
 40
19.095840867992766
 41
0.0
 71
               2
 72
               1
  1
{\C7;\l12.5}
  7
ＭＳ Ｐゴシック
 11
0.0
 21
1.0
 31
0.0
 73
               1
 44
0.8762322015334063
  0
LINE
  5
289
100
AcDbEntity
  8
2
  6
Continuous
100
AcDbLine
 10
721.25151858571098
 20
890.81709457594513
 30
0.0
 11
613.35512778925295
 21
890.81709457594513
 31
0.0
  0
LINE
  5
28A
100
AcDbEntity
  8
2
  6
Continuous
100
AcDbLine
 10
673.35512778925295
 20
395.81709457594457
 30
0.0
 11
553.35512778925295
 21
395.81709457594457
 31
0.0
  0
LINE
  5
28B
100
AcDbEntity
  8
2
  6
Continuous
100
AcDbLine
 10
668.35512778925295
 20
788.31709457594513
 30
0.0
 11
553.35512778925295
 21
788.31709457594513
 31
0.0
  0
LINE
  5
28C
100
AcDbEntity
  8
2
  6
Continuous
100
AcDbLine
 10
558.35512778925295
 20
395.81709457594457
 30
0.0
 11
558.35512778925295
 21
788.31709457594513
 31
0.0
  0
LINE
  5
28D
100
AcDbEntity
  8
2
  6
Continuous
100
AcDbLine
 10
558.35512778925295
 20
395.81709457594457
 30
0.0
 11
553.17874688720258
 21
415.13561110172611
 31
0.0
  0
LINE
  5
28E
100
AcDbEntity
  8
2
  6
Continuous
100
AcDbLine
 10
558.35512778925295
 20
395.81709457594457
 30
0.0
 11
563.53150869130332
 21
415.13561110172611
 31
0.0
  0
LINE
  5
28F
100
AcDbEntity
  8
2
  6
Continuous
100
AcDbLine
 10
558.35512778925295
 20
788.31709457594513
 30
0.0
 11
563.53150869130332
 21
768.9985780501637
 31
0.0
  0
LINE
  5
290
100
AcDbEntity
  8
2
  6
Continuous
100
AcDbLine
 10
558.35512778925295
 20
788.31709457594513
 30
0.0
 11
553.17874688720258
 21
768.9985780501637
 31
0.0
  0
MTEXT
  5
291
100
AcDbEntity
  8
2
100
AcDbMText
 10
534.25928692126035
 20
592.06710329525333
 30
0.0
 40
19.095840867992766
 41
0.0
 71
               2
 72
               1
  1
{\C7;\l392.5±2_}
  7
ＭＳ Ｐゴシック
 11
0.0
 21
1.0
 31
0.0
 73
               1
 44
0.8762322015334063
  0
LINE
  5
292
100
AcDbEntity
  8
2
  6
Continuous
100
AcDbLine
 10
673.35512778925295
 20
383.31709457579962
 30
0.0
 11
553.35512778925295
 21
383.31709457579962
 31
0.0
  0
LINE
  5
293
100
AcDbEntity
  8
2
  6
Continuous
100
AcDbLine
 10
558.35512778925295
 20
338.31709457579962
 30
0.0
 11
558.35512778925295
 21
383.31709457579962
 31
0.0
  0
LINE
  5
294
100
AcDbEntity
  8
2
  6
Continuous
100
AcDbLine
 10
558.35512778925295
 20
383.31709457579962
 30
0.0
 11
563.53150869130332
 21
363.99857805001807
 31
0.0
  0
LINE
  5
295
100
AcDbEntity
  8
2
  6
Continuous
100
AcDbLine
 10
558.35512778925295
 20
383.31709457579962
 30
0.0
 11
553.17874688720258
 21
363.99857805001807
 31
0.0
  0
LINE
  5
296
100
AcDbEntity
  8
2
  6
Continuous
100
AcDbLine
 10
558.35512778925295
 20
395.81709457594457
 30
0.0
 11
558.35512778925295
 21
425.81709457594445
 31
0.0
  0
LINE
  5
297
100
AcDbEntity
  8
2
  6
Continuous
100
AcDbLine
 10
558.35512778925295
 20
395.81709457594457
 30
0.0
 11
553.17874688720258
 21
415.13561110172611
 31
0.0
  0
LINE
  5
298
100
AcDbEntity
  8
2
  6
Continuous
100
AcDbLine
 10
558.35512778925295
 20
395.81709457594457
 30
0.0
 11
563.53150869130332
 21
415.13561110172611
 31
0.0
  0
LINE
  5
299
100
AcDbEntity
  8
2
  6
Continuous
100
AcDbLine
 10
558.35512778925295
 20
383.31709457579962
 30
0.0
 11
558.35512778925295
 21
395.81709457594457
 31
0.0
  0
MTEXT
  5
29A
100
AcDbEntity
  8
2
100
AcDbMText
 10
534.71314434313535
 20
348.52077761165913
 30
0.0
 40
19.095840867992766
 41
0.0
 71
               2
 72
               1
  1
{\C7;\l12.5}
  7
ＭＳ Ｐゴシック
 11
0.0
 21
1.0
 31
0.0
 73
               1
 44
0.8762322015334063
  0
LINE
  5
29B
100
AcDbEntity
  8
2
  6
Continuous
100
AcDbLine
 10
678.35512778925295
 20
408.31709457594559
 30
0.0
 11
678.35512778925295
 21
268.31709457594468
 31
0.0
  0
LINE
  5
29C
100
AcDbEntity
  8
2
  6
Continuous
100
AcDbLine
 10
691.35512778925295
 20
358.31709457594513
 30
0.0
 11
691.35512778925295
 21
268.31709457594468
 31
0.0
  0
LINE
  5
29D
100
AcDbEntity
  8
2
  6
Continuous
100
AcDbLine
 10
633.35512778925295
 20
273.31709457594468
 30
0.0
 11
678.35512778925295
 21
273.31709457594468
 31
0.0
  0
LINE
  5
29E
100
AcDbEntity
  8
2
  6
Continuous
100
AcDbLine
 10
678.35512778925295
 20
273.31709457594468
 30
0.0
 11
659.03661126347151
 21
268.14071367389465
 31
0.0
  0
LINE
  5
29F
100
AcDbEntity
  8
2
  6
Continuous
100
AcDbLine
 10
678.35512778925295
 20
273.31709457594468
 30
0.0
 11
659.03661126347151
 21
278.49347547799516
 31
0.0
  0
LINE
  5
2A0
100
AcDbEntity
  8
2
  6
Continuous
100
AcDbLine
 10
678.35512778925295
 20
273.31709457594468
 30
0.0
 11
691.35512778925295
 21
273.31709457594468
 31
0.0
  0
MTEXT
  5
2A1
100
AcDbEntity
  8
2
100
AcDbMText
 10
655.85512778925295
 20
297.41294416324592
 30
0.0
 40
19.095840867992766
 41
0.0
 71
               2
 72
               1
  1
{\C7;\l13}
  7
ＭＳ Ｐゴシック
 73
               1
 44
0.8762322015334063
  0
LINE
  5
2A2
100
AcDbEntity
  8
2
  6
Continuous
100
AcDbLine
 10
1675.3551277892529
 20
346.91117137788217
 30
0.0
 11
1675.3551277892529
 21
268.31709457594468
 31
0.0
  0
LINE
  5
2A3
100
AcDbEntity
  8
2
  6
Continuous
100
AcDbLine
 10
691.35512778925295
 20
273.31709457594468
 30
0.0
 11
1675.3551277892529
 21
273.31709457594468
 31
0.0
  0
LINE
  5
2A4
100
AcDbEntity
  8
2
  6
Continuous
100
AcDbLine
 10
691.35512778925295
 20
273.31709457594468
 30
0.0
 11
710.67364431503438
 21
278.49347547799516
 31
0.0
  0
LINE
  5
2A5
100
AcDbEntity
  8
2
  6
Continuous
100
AcDbLine
 10
691.35512778925295
 20
273.31709457594468
 30
0.0
 11
710.67364431503438
 21
268.14071367389465
 31
0.0
  0
LINE
  5
2A6
100
AcDbEntity
  8
2
  6
Continuous
100
AcDbLine
 10
1675.3551277892529
 20
273.31709457594468
 30
0.0
 11
1656.0366112634713
 21
268.14071367389465
 31
0.0
  0
LINE
  5
2A7
100
AcDbEntity
  8
2
  6
Continuous
100
AcDbLine
 10
1675.3551277892529
 20
273.31709457594468
 30
0.0
 11
1656.0366112634713
 21
278.49347547799516
 31
0.0
  0
MTEXT
  5
2A8
100
AcDbEntity
  8
2
100
AcDbMText
 10
1183.3551277892529
 20
297.41294416324592
 30
0.0
 40
19.095840867992766
 41
0.0
 71
               2
 72
               1
  1
{\C7;\l984±2_}
  7
ＭＳ Ｐゴシック
 73
               1
 44
0.8762322015334063
  0
LINE
  5
2A9
100
AcDbEntity
  8
2
  6
Continuous
100
AcDbLine
 10
1688.3551277892529
 20
445.03655855031059
 30
0.0
 11
1688.3551277892529
 21
268.31709457594468
 31
0.0
  0
LINE
  5
2AA
100
AcDbEntity
  8
2
  6
Continuous
100
AcDbLine
 10
1688.3551277892529
 20
273.31709457594468
 30
0.0
 11
1733.3551277892529
 21
273.31709457594468
 31
0.0
  0
LINE
  5
2AB
100
AcDbEntity
  8
2
  6
Continuous
100
AcDbLine
 10
1688.3551277892529
 20
273.31709457594468
 30
0.0
 11
1707.6736443150346
 21
278.49347547799516
 31
0.0
  0
LINE
  5
2AC
100
AcDbEntity
  8
2
  6
Continuous
100
AcDbLine
 10
1688.3551277892529
 20
273.31709457594468
 30
0.0
 11
1707.6736443150346
 21
268.14071367389465
 31
0.0
  0
LINE
  5
2AD
100
AcDbEntity
  8
2
  6
Continuous
100
AcDbLine
 10
1675.3551277892529
 20
273.31709457594468
 30
0.0
 11
1688.3551277892529
 21
273.31709457594468
 31
0.0
  0
MTEXT
  5
2AE
100
AcDbEntity
  8
2
100
AcDbMText
 10
1710.8551277892529
 20
297.41294416324592
 30
0.0
 40
19.095840867992766
 41
0.0
 71
               2
 72
               1
  1
{\C7;\l13}
  7
ＭＳ Ｐゴシック
 73
               1
 44
0.8762322015334063
  0
LINE
  5
2AF
100
AcDbEntity
  8
2
  6
Continuous
100
AcDbLine
 10
691.35512778925295
 20
420.00525384136256
 30
0.0
 11
691.35512778925295
 21
315.54070417683909
 31
0.0
  0
LINE
  5
2B0
100
AcDbEntity
  8
2
  6
Continuous
100
AcDbLine
 10
708.35512778925295
 20
400.58042765056473
 30
0.0
 11
708.35512778925295
 21
323.31709457594513
 31
0.0
  0
LINE
  5
2B1
100
AcDbEntity
  8
2
  6
Continuous
100
AcDbLine
 10
646.35512778925295
 20
328.31709457594513
 30
0.0
 11
691.35512778925295
 21
328.31709457594513
 31
0.0
  0
LINE
  5
2B2
100
AcDbEntity
  8
2
  6
Continuous
100
AcDbLine
 10
691.35512778925295
 20
328.31709457594513
 30
0.0
 11
672.03661126347151
 21
323.14071367389465
 31
0.0
  0
LINE
  5
2B3
100
AcDbEntity
  8
2
  6
Continuous
100
AcDbLine
 10
691.35512778925295
 20
328.31709457594513
 30
0.0
 11
672.03661126347151
 21
333.49347547799516
 31
0.0
  0
LINE
  5
2B4
100
AcDbEntity
  8
2
  6
Continuous
100
AcDbLine
 10
691.35512778925295
 20
328.31709457594513
 30
0.0
 11
708.35512778925295
 21
328.31709457594513
 31
0.0
  0
MTEXT
  5
2B5
100
AcDbEntity
  8
2
100
AcDbMText
 10
732.34194419550295
 20
354.15342267887092
 30
0.0
 40
19.095840867992766
 41
0.0
 71
               2
 72
               1
  1
{\C7;\l17}
  7
ＭＳ Ｐゴシック
 73
               1
 44
0.8762322015334063
  0
LINE
  5
2B6
100
AcDbEntity
  8
2
  6
Continuous
100
AcDbLine
 10
1658.3551277892529
 20
402.74837440561907
 30
0.0
 11
1658.3551277892529
 21
323.31709457594513
 31
0.0
  0
LINE
  5
2B7
100
AcDbEntity
  8
2
  6
Continuous
100
AcDbLine
 10
708.35512778925295
 20
328.31709457594513
 30
0.0
 11
1658.3551277892529
 21
328.31709457594513
 31
0.0
  0
LINE
  5
2B8
100
AcDbEntity
  8
2
  6
Continuous
100
AcDbLine
 10
708.35512778925295
 20
328.31709457594513
 30
0.0
 11
727.67364431503438
 21
333.49347547799516
 31
0.0
  0
LINE
  5
2B9
100
AcDbEntity
  8
2
  6
Continuous
100
AcDbLine
 10
708.35512778925295
 20
328.31709457594513
 30
0.0
 11
727.67364431503438
 21
323.14071367389465
 31
0.0
  0
LINE
  5
2BA
100
AcDbEntity
  8
2
  6
Continuous
100
AcDbLine
 10
1658.3551277892529
 20
328.31709457594513
 30
0.0
 11
1639.0366112634713
 21
323.14071367389465
 31
0.0
  0
LINE
  5
2BB
100
AcDbEntity
  8
2
  6
Continuous
100
AcDbLine
 10
1658.3551277892529
 20
328.31709457594513
 30
0.0
 11
1639.0366112634713
 21
333.49347547799516
 31
0.0
  0
MTEXT
  5
2BC
100
AcDbEntity
  8
2
100
AcDbMText
 10
1183.3551277892529
 20
352.41294416324592
 30
0.0
 40
19.095840867992766
 41
0.0
 71
               2
 72
               1
  1
{\C7;\l950±2_}
  7
ＭＳ Ｐゴシック
 73
               1
 44
0.8762322015334063
  0
LINE
  5
2BD
100
AcDbEntity
  8
2
  6
Continuous
100
AcDbLine
 10
1675.3551277892529
 20
420.54158487044413
 30
0.0
 11
1675.3551277892529
 21
319.44685938864711
 31
0.0
  0
LINE
  5
2BE
100
AcDbEntity
  8
2
  6
Continuous
100
AcDbLine
 10
1675.3551277892529
 20
328.31709457594513
 30
0.0
 11
1720.3551277892529
 21
328.31709457594513
 31
0.0
  0
LINE
  5
2BF
100
AcDbEntity
  8
2
  6
Continuous
100
AcDbLine
 10
1675.3551277892529
 20
328.31709457594513
 30
0.0
 11
1694.6736443150346
 21
333.49347547799516
 31
0.0
  0
LINE
  5
2C0
100
AcDbEntity
  8
2
  6
Continuous
100
AcDbLine
 10
1675.3551277892529
 20
328.31709457594513
 30
0.0
 11
1694.6736443150346
 21
323.14071367389465
 31
0.0
  0
LINE
  5
2C1
100
AcDbEntity
  8
2
  6
Continuous
100
AcDbLine
 10
1658.3551277892529
 20
328.31709457594513
 30
0.0
 11
1675.3551277892529
 21
328.31709457594513
 31
0.0
  0
MTEXT
  5
2C2
100
AcDbEntity
  8
2
100
AcDbMText
 10
1635.9342293517529
 20
355.65207990543342
 30
0.0
 40
19.095840867992766
 41
0.0
 71
               2
 72
               1
  1
{\C7;\l17}
  7
ＭＳ Ｐゴシック
 73
               1
 44
0.8762322015334063
  0
LINE
  5
2C3
100
AcDbEntity
  8
2
  6
Continuous
100
AcDbLine
 10
1648.8310748679089
 20
395.81709457594457
 30
0.0
 11
1750.5573758759876
 21
395.81709457594457
 31
0.0
  0
LINE
  5
2C4
100
AcDbEntity
  8
2
  6
Continuous
100
AcDbLine
 10
1669.8727445882639
 20
413.31709457594513
 30
0.0
 11
1750.5573758759876
 21
413.31709457594513
 31
0.0
  0
LINE
  5
2C5
100
AcDbEntity
  8
2
  6
Continuous
100
AcDbLine
 10
1745.5573758759876
 20
350.81709457594468
 30
0.0
 11
1745.5573758759876
 21
395.81709457594457
 31
0.0
  0
LINE
  5
2C6
100
AcDbEntity
  8
2
  6
Continuous
100
AcDbLine
 10
1745.5573758759876
 20
395.81709457594457
 30
0.0
 11
1750.7337567780373
 21
376.49857805016359
 31
0.0
  0
LINE
  5
2C7
100
AcDbEntity
  8
2
  6
Continuous
100
AcDbLine
 10
1745.5573758759876
 20
395.81709457594457
 30
0.0
 11
1740.380994973937
 21
376.49857805016359
 31
0.0
  0
LINE
  5
2C8
100
AcDbEntity
  8
2
  6
Continuous
100
AcDbLine
 10
1745.5573758759876
 20
395.81709457594457
 30
0.0
 11
1745.5573758759876
 21
413.31709457594513
 31
0.0
  0
MTEXT
  5
2C9
100
AcDbEntity
  8
2
100
AcDbMText
 10
1720.4216404368851
 20
446.04012575619083
 30
0.0
 40
19.095840867992766
 41
0.0
 71
               2
 72
               1
  1
{\C7;\l17.5}
  7
ＭＳ Ｐゴシック
 11
0.0
 21
1.0
 31
0.0
 73
               1
 44
0.8762322015334063
  0
LINE
  5
2CA
100
AcDbEntity
  8
2
  6
Continuous
100
AcDbLine
 10
1671.9608297127274
 20
873.31709457594513
 30
0.0
 11
1750.5573758759876
 21
873.31709457594513
 31
0.0
  0
LINE
  5
2CB
100
AcDbEntity
  8
2
  6
Continuous
100
AcDbLine
 10
1745.5573758759876
 20
413.31709457594513
 30
0.0
 11
1745.5573758759876
 21
873.31709457594513
 31
0.0
  0
LINE
  5
2CC
100
AcDbEntity
  8
2
  6
Continuous
100
AcDbLine
 10
1745.5573758759876
 20
413.31709457594513
 30
0.0
 11
1740.380994973937
 21
432.63561110172657
 31
0.0
  0
LINE
  5
2CD
100
AcDbEntity
  8
2
  6
Continuous
100
AcDbLine
 10
1745.5573758759876
 20
413.31709457594513
 30
0.0
 11
1750.7337567780373
 21
432.63561110172657
 31
0.0
  0
LINE
  5
2CE
100
AcDbEntity
  8
2
  6
Continuous
100
AcDbLine
 10
1745.5573758759876
 20
873.31709457594513
 30
0.0
 11
1750.7337567780373
 21
853.9985780501637
 31
0.0
  0
LINE
  5
2CF
100
AcDbEntity
  8
2
  6
Continuous
100
AcDbLine
 10
1745.5573758759876
 20
873.31709457594513
 30
0.0
 11
1740.380994973937
 21
853.9985780501637
 31
0.0
  0
MTEXT
  5
2D0
100
AcDbEntity
  8
2
100
AcDbMText
 10
1721.4615574290726
 20
643.31710329525333
 30
0.0
 40
19.095840867992766
 41
0.0
 71
               2
 72
               1
  1
{\C7;\l460±2_}
  7
ＭＳ Ｐゴシック
 11
0.0
 21
1.0
 31
0.0
 73
               1
 44
0.8762322015334063
  0
LINE
  5
2D1
100
AcDbEntity
  8
2
  6
Continuous
100
AcDbLine
 10
1649.6098568842383
 20
890.81709457594513
 30
0.0
 11
1750.5573758759876
 21
890.81709457594513
 31
0.0
  0
LINE
  5
2D2
100
AcDbEntity
  8
2
  6
Continuous
100
AcDbLine
 10
1745.5573758759876
 20
890.81709457594513
 30
0.0
 11
1745.5573758759876
 21
935.81709457594513
 31
0.0
  0
LINE
  5
2D3
100
AcDbEntity
  8
2
  6
Continuous
100
AcDbLine
 10
1745.5573758759876
 20
890.81709457594513
 30
0.0
 11
1740.380994973937
 21
910.13561110172611
 31
0.0
  0
LINE
  5
2D4
100
AcDbEntity
  8
2
  6
Continuous
100
AcDbLine
 10
1745.5573758759876
 20
890.81709457594513
 30
0.0
 11
1750.7337567780373
 21
910.13561110172611
 31
0.0
  0
LINE
  5
2D5
100
AcDbEntity
  8
2
  6
Continuous
100
AcDbLine
 10
1745.5573758759876
 20
873.31709457594513
 30
0.0
 11
1745.5573758759876
 21
890.81709457594513
 31
0.0
  0
MTEXT
  5
2D6
100
AcDbEntity
  8
2
100
AcDbMText
 10
1719.1904392650101
 20
838.80507936947163
 30
0.0
 40
19.095840867992766
 41
0.0
 71
               2
 72
               1
  1
{\C7;\l17.5}
  7
ＭＳ Ｐゴシック
 11
0.0
 21
1.0
 31
0.0
 73
               1
 44
0.8762322015334063
  0
LINE
  5
2D7
100
AcDbEntity
  8
2
  6
Continuous
100
AcDbLine
 10
1623.8816664852009
 20
383.31709457594457
 30
0.0
 11
1807.4471239627226
 21
383.31709457594457
 31
0.0
  0
LINE
  5
2D8
100
AcDbEntity
  8
2
  6
Continuous
100
AcDbLine
 10
1802.4471239627226
 20
338.31709457594468
 30
0.0
 11
1802.4471239627226
 21
383.31709457594457
 31
0.0
  0
LINE
  5
2D9
100
AcDbEntity
  8
2
  6
Continuous
100
AcDbLine
 10
1802.4471239627226
 20
383.31709457594457
 30
0.0
 11
1807.6235048647729
 21
363.99857805016359
 31
0.0
  0
LINE
  5
2DA
100
AcDbEntity
  8
2
  6
Continuous
100
AcDbLine
 10
1802.4471239627226
 20
383.31709457594457
 30
0.0
 11
1797.2707430606724
 21
363.99857805016359
 31
0.0
  0
LINE
  5
2DB
100
AcDbEntity
  8
2
  6
Continuous
100
AcDbLine
 10
1802.4471239627226
 20
383.31709457594457
 30
0.0
 11
1802.4471239627226
 21
395.81709457594457
 31
0.0
  0
MTEXT
  5
2DC
100
AcDbEntity
  8
2
100
AcDbMText
 10
1775.8274021556351
 20
346.30984011165913
 30
0.0
 40
19.095840867992766
 41
0.0
 71
               2
 72
               1
  1
{\C7;\l12.5}
  7
ＭＳ Ｐゴシック
 11
0.0
 21
1.0
 31
0.0
 73
               1
 44
0.8762322015334063
  0
LINE
  5
2DD
100
AcDbEntity
  8
2
  6
Continuous
100
AcDbLine
 10
1649.6098568842383
 20
890.81709457594513
 30
0.0
 11
1807.4471239627226
 21
890.81709457594513
 31
0.0
  0
LINE
  5
2DE
100
AcDbEntity
  8
2
  6
Continuous
100
AcDbLine
 10
1802.4471239627226
 20
395.81709457594457
 30
0.0
 11
1802.4471239627226
 21
890.81709457594513
 31
0.0
  0
LINE
  5
2DF
100
AcDbEntity
  8
2
  6
Continuous
100
AcDbLine
 10
1802.4471239627226
 20
395.81709457594457
 30
0.0
 11
1797.2707430606724
 21
415.13561110172611
 31
0.0
  0
LINE
  5
2E0
100
AcDbEntity
  8
2
  6
Continuous
100
AcDbLine
 10
1802.4471239627226
 20
395.81709457594457
 30
0.0
 11
1807.6235048647729
 21
415.13561110172611
 31
0.0
  0
LINE
  5
2E1
100
AcDbEntity
  8
2
  6
Continuous
100
AcDbLine
 10
1802.4471239627226
 20
890.81709457594513
 30
0.0
 11
1807.6235048647729
 21
871.4985780501637
 31
0.0
  0
LINE
  5
2E2
100
AcDbEntity
  8
2
  6
Continuous
100
AcDbLine
 10
1802.4471239627226
 20
890.81709457594513
 30
0.0
 11
1797.2707430606724
 21
871.4985780501637
 31
0.0
  0
MTEXT
  5
2E3
100
AcDbEntity
  8
2
100
AcDbMText
 10
1778.3513279368851
 20
643.31710329525333
 30
0.0
 40
19.095840867992766
 41
0.0
 71
               2
 72
               1
  1
{\C7;\l495±2_}
  7
ＭＳ Ｐゴシック
 11
0.0
 21
1.0
 31
0.0
 73
               1
 44
0.8762322015334063
  0
LINE
  5
2E4
100
AcDbEntity
  8
2
  6
Continuous
100
AcDbLine
 10
1628.6751091451388
 20
903.31709457594513
 30
0.0
 11
1807.4471239627226
 21
903.31709457594513
 31
0.0
  0
LINE
  5
2E5
100
AcDbEntity
  8
2
  6
Continuous
100
AcDbLine
 10
1802.4471239627226
 20
903.31709457594513
 30
0.0
 11
1802.4471239627226
 21
948.31709457594513
 31
0.0
  0
LINE
  5
2E6
100
AcDbEntity
  8
2
  6
Continuous
100
AcDbLine
 10
1802.4471239627226
 20
903.31709457594513
 30
0.0
 11
1797.2707430606724
 21
922.63561110172611
 31
0.0
  0
LINE
  5
2E7
100
AcDbEntity
  8
2
  6
Continuous
100
AcDbLine
 10
1802.4471239627226
 20
903.31709457594513
 30
0.0
 11
1807.6235048647729
 21
922.63561110172611
 31
0.0
  0
LINE
  5
2E8
100
AcDbEntity
  8
2
  6
Continuous
100
AcDbLine
 10
1802.4471239627226
 20
890.81709457594513
 30
0.0
 11
1802.4471239627226
 21
903.31709457594513
 31
0.0
  0
MTEXT
  5
2E9
100
AcDbEntity
  8
2
100
AcDbMText
 10
1775.8274021556351
 20
937.30422487728413
 30
0.0
 40
19.095840867992766
 41
0.0
 71
               2
 72
               1
  1
{\C7;\l12.5}
  7
ＭＳ Ｐゴシック
 11
0.0
 21
1.0
 31
0.0
 73
               1
 44
0.8762322015334063
  0
LINE
  5
2EA
100
AcDbEntity
  8
2
  6
Continuous
100
AcDbLine
 10
2133.5336992178245
 20
642.81709457594445
 30
0.0
 11
2118.5336992178236
 21
438.88562623600671
 31
0.0
  0
LINE
  5
2EB
100
AcDbEntity
  8
2
  6
Continuous
100
AcDbLine
 10
2131.2377994255189
 20
645.317094575944
 30
0.0
 11
2116.0280275480004
 21
438.88562623600671
 31
0.0
  0
LINE
  5
2EC
100
AcDbEntity
  8
2
  6
Continuous
100
AcDbLine
 10
2118.5336992178236
 20
425.4877796748566
 30
0.0
 11
2118.5336992178236
 21
344.04652697390418
 31
0.0
  0
LINE
  5
2ED
100
AcDbEntity
  8
2
  6
Continuous
100
AcDbLine
 10
2133.5336992178236
 20
400.45881076033277
 30
0.0
 11
2133.5336992178236
 21
344.04652697390418
 31
0.0
  0
LINE
  5
2EE
100
AcDbEntity
  8
2
  6
Continuous
100
AcDbLine
 10
2073.5336992178236
 20
349.04652697390418
 30
0.0
 11
2118.5336992178236
 21
349.04652697390418
 31
0.0
  0
LINE
  5
2EF
100
AcDbEntity
  8
2
  6
Continuous
100
AcDbLine
 10
2118.5336992178236
 20
349.04652697390418
 30
0.0
 11
2099.2151826920426
 21
343.87014607185358
 31
0.0
  0
LINE
  5
2F0
100
AcDbEntity
  8
2
  6
Continuous
100
AcDbLine
 10
2118.5336992178236
 20
349.04652697390418
 30
0.0
 11
2099.2151826920426
 21
354.22290787595409
 31
0.0
  0
LINE
  5
2F1
100
AcDbEntity
  8
2
  6
Continuous
100
AcDbLine
 10
2133.5336992178236
 20
349.04652697390418
 30
0.0
 11
2163.5336992178236
 21
349.04652697390418
 31
0.0
  0
LINE
  5
2F2
100
AcDbEntity
  8
2
  6
Continuous
100
AcDbLine
 10
2133.5336992178236
 20
349.04652697390418
 30
0.0
 11
2152.852215743605
 21
354.22290787595409
 31
0.0
  0
LINE
  5
2F3
100
AcDbEntity
  8
2
  6
Continuous
100
AcDbLine
 10
2133.5336992178236
 20
349.04652697390418
 30
0.0
 11
2152.852215743605
 21
343.87014607185358
 31
0.0
  0
LINE
  5
2F4
100
AcDbEntity
  8
2
  6
Continuous
100
AcDbLine
 10
2118.5336992178236
 20
349.04652697390418
 30
0.0
 11
2133.5336992178236
 21
349.04652697390418
 31
0.0
  0
MTEXT
  5
2F5
100
AcDbEntity
  8
2
100
AcDbMText
 10
2096.0337166564404
 20
373.14237531558945
 30
0.0
 40
19.095840867992766
 41
0.0
 71
               2
 72
               1
  1
{\C7;\l15}
  7
ＭＳ Ｐゴシック
 73
               1
 44
0.8762322015334063
  0
LINE
  5
2F6
100
AcDbEntity
  8
2
  6
Continuous
100
AcDbLine
 10
1913.6469007484363
 20
733.31709457594513
 30
0.0
 11
1872.081211972926
 21
733.31709457594513
 31
0.0
  0
LINE
  5
2F7
100
AcDbEntity
  8
2
  6
Continuous
100
AcDbLine
 10
1931.5336992178238
 20
890.81709457594513
 30
0.0
 11
1872.081211972926
 21
890.81709457594513
 31
0.0
  0
LINE
  5
2F8
100
AcDbEntity
  8
2
  6
Continuous
100
AcDbLine
 10
1877.081211972926
 20
733.31709457594513
 30
0.0
 11
1877.081211972926
 21
890.81709457594513
 31
0.0
  0
LINE
  5
2F9
100
AcDbEntity
  8
2
  6
Continuous
100
AcDbLine
 10
1877.081211972926
 20
733.31709457594513
 30
0.0
 11
1871.9048310708756
 21
752.63561110172611
 31
0.0
  0
LINE
  5
2FA
100
AcDbEntity
  8
2
  6
Continuous
100
AcDbLine
 10
1877.081211972926
 20
733.31709457594513
 30
0.0
 11
1882.2575928749766
 21
752.63561110172611
 31
0.0
  0
LINE
  5
2FB
100
AcDbEntity
  8
2
  6
Continuous
100
AcDbLine
 10
1877.081211972926
 20
890.81709457594513
 30
0.0
 11
1882.2575928749766
 21
871.4985780501637
 31
0.0
  0
LINE
  5
2FC
100
AcDbEntity
  8
2
  6
Continuous
100
AcDbLine
 10
1877.081211972926
 20
890.81709457594513
 30
0.0
 11
1871.9048310708756
 21
871.4985780501637
 31
0.0
  0
MTEXT
  5
2FD
100
AcDbEntity
  8
2
100
AcDbMText
 10
1852.9853611400101
 20
812.06704226009663
 30
0.0
 40
19.095840867992766
 41
0.0
 71
               2
 72
               1
  1
{\C7;\l157.5ｱ2_}
  7
ＭＳ Ｐゴシック
 11
0.0
 21
1.0
 31
0.0
 73
               1
 44
0.8762322015334063
  0
LINE
  5
2FE
100
AcDbEntity
  8
1
  6
STYLE_02
100
AcDbLine
 10
558.35512778925295
 20
59.282341189424642
 30
0.0
 11
558.35512778925295
 21
-205.89623023915226
 31
0.0
  0
LINE
  5
2FF
100
AcDbEntity
  8
1
  6
STYLE_02
100
AcDbLine
 10
1913.6469007484363
 20
736.31709457594513
 30
0.0
 11
1936.0336992178245
 21
736.31709457594513
 31
0.0
  0
LINE
  5
300
100
AcDbEntity
  8
1
  6
STYLE_02
100
AcDbLine
 10
678.35512778925295
 20
384.6278088616591
 30
0.0
 11
678.35512778925295
 21
277.14209457594507
 31
0.0
  0
LINE
  5
301
100
AcDbEntity
  8
1
  6
STYLE_02
100
AcDbLine
 10
1688.3551277892529
 20
410.09935411721165
 30
0.0
 11
1688.3551277892529
 21
271.76780886165909
 31
0.0
  0
LINE
  5
302
100
AcDbEntity
  8
1
  6
STYLE_02
100
AcDbLine
 10
595.11852064639606
 20
788.31709457594513
 30
0.0
 11
673.35512778925295
 21
788.31709457594513
 31
0.0
  0
LINE
  5
303
100
AcDbEntity
  8
1
  6
STYLE_02
100
AcDbLine
 10
619.78602064639608
 20
903.31709457594513
 30
0.0
 11
1593.3551277892529
 21
903.31709457594513
 31
0.0
  0
LINE
  5
304
100
AcDbEntity
  8
1
  6
STYLE_02
100
AcDbLine
 10
558.35512778925295
 20
952.40669916778154
 30
0.0
 11
558.35512778925295
 21
364.17328080043455
 31
0.0
  0
LINE
  5
305
100
AcDbEntity
  8
1
  6
STYLE_02
100
AcDbLine
 10
1688.3551277892529
 20
947.51352314737312
 30
0.0
 11
1688.3551277892529
 21
447.16259054133013
 31
0.0
  0
LINE
  5
306
100
AcDbEntity
  8
1
  6
STYLE_02
100
AcDbLine
 10
618.35512778925295
 20
783.51004738206723
 30
0.0
 11
618.35512778925295
 21
802.81709457594513
 31
0.0
  0
LINE
  5
307
100
AcDbEntity
  8
1
  6
STYLE_02
100
AcDbLine
 10
678.35512778925295
 20
1068.3170945759448
 30
0.0
 11
1688.3551277892529
 21
1068.3170945759448
 31
0.0
  0
LINE
  5
308
100
AcDbEntity
  8
2
  6
STYLE_02
100
AcDbLine
 10
1952.0336992178229
 20
397.81709457594411
 30
0.0
 11
1952.0336992178229
 21
396.31709457594457
 31
0.0
  0
LINE
  5
309
100
AcDbEntity
  8
2
  6
STYLE_02
100
AcDbLine
 10
2131.2377994255189
 20
645.317094575944
 30
0.0
 11
2131.2377994255189
 21
642.32674472362021
 31
0.0
  0
LINE
  5
30A
100
AcDbEntity
  8
一般
100
AcDbLine
 10
144.41682912081569
 20
-482.6614600990016
 30
0.0
 11
2815.1949277198996
 21
-482.6614600990016
 31
0.0
  0
LINE
  5
30B
100
AcDbEntity
  8
一般
100
AcDbLine
 10
144.41682912081569
 20
1311.6695205447836
 30
0.0
 11
144.41682912081569
 21
-482.6614600990016
 31
0.0
  0
LINE
  5
30C
100
AcDbEntity
  8
一般
100
AcDbLine
 10
2817.0148400287435
 20
1311.6695205447836
 30
0.0
 11
144.41682912081569
 21
1311.6695205447836
 31
0.0
  0
LINE
  5
30D
100
AcDbEntity
  8
一般
100
AcDbLine
 10
2815.1949277198992
 20
-482.6614600990016
 30
0.0
 11
2815.1949277198992
 21
1311.6695205447836
 31
0.0
  0
LINE
  5
30E
100
AcDbEntity
  8
一般
 62
               7
100
AcDbLine
 10
2215.1949277199019
 20
-415.84154779015796
 30
0.0
 11
2215.1949277199019
 21
-285.84154779015796
 31
0.0
  0
LINE
  5
30F
100
AcDbEntity
  8
一般
 62
               7
100
AcDbLine
 10
2215.1949277199019
 20
-415.84154779015796
 30
0.0
 11
2815.1949277198992
 21
-415.84154779015796
 31
0.0
  0
LINE
  5
310
100
AcDbEntity
  8
一般
 62
               7
100
AcDbLine
 10
2095.1949277199019
 20
-350.84154779015796
 30
0.0
 11
2815.1949277198992
 21
-350.84154779015796
 31
0.0
  0
LINE
  5
311
100
AcDbEntity
  8
一般
 62
               7
100
AcDbLine
 10
2095.1949277199019
 20
-285.84154779015796
 30
0.0
 11
2815.1949277198992
 21
-285.84154779015796
 31
0.0
  0
LINE
  5
312
100
AcDbEntity
  8
一般
 62
               7
100
AcDbLine
 10
2815.1949277198992
 20
-480.84154779015773
 30
0.0
 11
2815.1949277198992
 21
-415.84154779015796
 31
0.0
  0
LINE
  5
313
100
AcDbEntity
  8
一般
 62
               7
100
AcDbLine
 10
2815.1949277198992
 20
-350.84154779015796
 30
0.0
 11
2815.1949277198992
 21
-285.84154779015796
 31
0.0
  0
LINE
  5
314
100
AcDbEntity
  8
一般
 62
               7
100
AcDbLine
 10
2095.1949277199019
 20
-415.84154779015796
 30
0.0
 11
2815.1949277198992
 21
-415.84154779015796
 31
0.0
  0
LINE
  5
315
100
AcDbEntity
  8
一般
 62
               7
100
AcDbLine
 10
2095.1949277199019
 20
-480.84154779015773
 30
0.0
 11
2095.1949277199019
 21
-285.84154779015796
 31
0.0
  0
LINE
  5
316
100
AcDbEntity
  8
一般
 62
               7
100
AcDbLine
 10
2817.0148400287435
 20
1246.6695205447822
 30
0.0
 11
2097.0148400287458
 21
1246.6695205447822
 31
0.0
  0
LINE
  5
317
100
AcDbEntity
  8
一般
 62
               7
100
AcDbLine
 10
2817.0148400287435
 20
1181.6695205447822
 30
0.0
 11
2097.0148400287458
 21
1181.6695205447822
 31
0.0
  0
LINE
  5
318
100
AcDbEntity
  8
一般
 62
               7
100
AcDbLine
 10
2097.0148400287458
 20
1181.6695205447822
 30
0.0
 11
2097.0148400287458
 21
1311.6695205447836
 31
0.0
  0
LINE
  5
319
100
AcDbEntity
  8
一般
 62
               7
100
AcDbLine
 10
2267.0148400287458
 20
1181.6695205447822
 30
0.0
 11
2267.0148400287458
 21
1311.6695205447836
 31
0.0
  0
LINE
  5
31A
100
AcDbEntity
  8
一般
 62
               7
100
AcDbLine
 10
2542.0148400287435
 20
1181.6695205447822
 30
0.0
 11
2542.0148400287435
 21
1311.6695205447836
 31
0.0
  0
MTEXT
  5
31B
100
AcDbEntity
  8
一般
 62
               7
100
AcDbMText
 10
2215.6949277199019
 20
-434.36113112349096
 30
0.0
 40
33.954861111111128
 41
0.0
 71
               1
 72
               1
  1
e-KITCHEN {\H0.3571x;\lU-ARCHITECTURE WORKS}
  7
ＭＳ Ｐゴシック
 73
               1
 44
1.0117138873126681
  0
MTEXT
  5
31C
100
AcDbEntity
  8
一般
 62
               7
100
AcDbMText
 10
2340.0148400287458
 20
1228.7584788781155
 30
0.0
 40
31.529513888888889
 41
0.0
 71
               1
 72
               1
  1
SUS304
  7
ＭＳ Ｐゴシック
 73
               1
 44
0.8797512063588415
  0
MTEXT
  5
31D
100
AcDbEntity
  8
一般
 62
               7
100
AcDbMText
 10
2602.5148400287435
 20
1233.080054761954
 30
0.0
 40
31.529513888888889
 41
0.0
 71
               1
 72
               1
  1
0.8{\H1.075x;\lmm}
  7
ＭＳ Ｐゴシック
 73
               1
 44
0.8187193967806475
  0
MTEXT
  5
31E
100
AcDbEntity
  8
一般
 62
               7
100
AcDbMText
 10
2454.1393721643444
 20
-313.26433060149441
 30
0.0
 40
31.273750000000007
 41
0.0
 71
               5
 72
               1
  1
FCJ{\H0.9306x;\l-}{\fArial|b0|i0|c0|p0;\H1.042x;\lK}{\H0.9306x;\l給水栓穴表示}
  7
ＭＳ Ｐゴシック
 73
               1
 44
0.9038662140458349
  0
MTEXT
  5
31F
100
AcDbEntity
  8
一般
 62
               7
100
AcDbMText
 10
1847.5917114119943
 20
-88.897465303616059
 30
0.0
 40
26.802030456852787
 41
0.0
 71
               4
 72
               1
  1
１）表面仕様は{\H1.075x;\lBA}材をプレスしたままとする。\P２）給水栓穴Φ径、数は、お客様との打ち合わせによる。\P３）給水栓穴部の裏貼補強はｔ12ベニヤ合板を\P　　ｔ2両面テープ貼とする。
  7
ＭＳ Ｐゴシック
 73
               1
 44
0.8187193967806478
  0
ENDSEC
  0
SECTION
  2
OBJECTS
  0
DICTIONARY
  5
19
100
AcDbDictionary
280
               0
281
               1
  3
ACAD_GROUP
350
1A
  3
ACAD_MLINESTYLE
350
1B
  3
ACAD_LAYOUT
350
1E
  3
ACAD_PLOTSETTINGS
350
22
  3
ACAD_PLOTSTYLENAME
350
1F
  3
ACAD_WIPEOUT_VARS
350
23
  0
DICTIONARY
  5
1A
102
{ACAD_REACTORS
330
19
102
}
100
AcDbDictionary
280
               0
281
               1
  0
DICTIONARY
  5
1B
102
{ACAD_REACTORS
330
19
102
}
100
AcDbDictionary
280
               0
281
               1
  3
Standard
350
1C
  0
MLINESTYLE
  5
1C
102
{ACAD_REACTORS
330
1B
102
}
100
AcDbMlineStyle
  2
Standard
 70
               0
  3

 62
               0
 51
90.0
 52
90.0
 71
               2
 49
0.5
 62
             256
  6
ByLayer
 49
-0.5
 62
             256
  6
ByLayer
  0
ACDBDICTIONARYWDFLT
  5
1F
102
{ACAD_REACTORS
330
19
102
}
100
AcDbDictionary
281
               1
  3
Normal
350
1D
100
AcDbDictionaryWithDefault
340
1D
  0
ACDBPLACEHOLDER
  5
1D
102
{ACAD_REACTORS
330
1F
102
}
  0
LAYOUT
  5
20
102
{ACAD_REACTORS
330
1E
102
}
100
AcDbPlotSettings
  1

  2

  4

  6

 40
0.0
 41
0.0
 42
0.0
 43
0.0
 44
0.0
 45
0.0
 46
0.0
 47
0.0
 48
0.0
 49
0.0
140
0.0
141
0.0
142
1.0
143
1.0
 70
            1024
 72
               0
 73
               0
 74
               0
  7

 75
               0
147
1.0
148
0.0
149
0.0
100
AcDbLayout
  1
Model
 70
               0
 71
               0
 10
0.0
 20
0.0
 11
0.0
 21
0.0
 12
0.0
 22
0.0
 32
0.0
 14
0.0
 24
0.0
 34
0.0
 15
0.0
 25
0.0
 35
0.0
146
0.0
 13
0.0
 23
0.0
 33
0.0
 16
0.0
 26
0.0
 36
0.0
 17
0.0
 27
0.0
 37
0.0
 76
               0
330
A
331
0
345
0
346
0
  0
LAYOUT
  5
21
102
{ACAD_REACTORS
330
1E
102
}
100
AcDbPlotSettings
  1

  2

  4

  6

 40
0.0
 41
0.0
 42
0.0
 43
0.0
 44
0.0
 45
0.0
 46
0.0
 47
0.0
 48
0.0
 49
0.0
140
0.0
141
0.0
142
1.0
143
1.0
 70
               0
 72
               0
 73
               0
 74
               0
  7

 75
               0
147
1.0
148
0.0
149
0.0
100
AcDbLayout
  1
Layout1
 70
               0
 71
               0
 10
0.0
 20
0.0
 11
0.0
 21
0.0
 12
0.0
 22
0.0
 32
0.0
 14
0.0
 24
0.0
 34
0.0
 15
0.0
 25
0.0
 35
0.0
146
0.0
 13
0.0
 23
0.0
 33
0.0
 16
0.0
 26
0.0
 36
0.0
 17
0.0
 27
0.0
 37
0.0
 76
               0
330
B
331
0
345
0
346
0
  0
DICTIONARY
  5
1E
102
{ACAD_REACTORS
330
19
102
}
100
AcDbDictionary
280
               0
281
               1
  3
Layout1
350
21
  3
Model
350
20
  0
DICTIONARY
  5
22
102
{ACAD_REACTORS
330
19
102
}
100
AcDbDictionary
280
               0
281
               1
  0
WIPEOUTVARIABLES
  5
23
100
AcDbWipeoutVariables
 70
               1
  0
ENDSEC
  0
EOF
