  0
SECTION
  2
HEADER
  9
$ACADVER
  1
AC1015
  9
$ACADMAINTVER
 70
    20
  9
$DWGCODEPAGE
  3
ANSI_932
  9
$INSBASE
 10
0.0
 20
0.0
 30
0.0
  9
$EXTMIN
 10
232.5073342683118
 20
295.3866649737884
 30
-0.0015258207003583
  9
$EXTMAX
 10
3012.918099217253
 20
2215.989080744316
 30
0.0000000349246037
  9
$LIMMIN
 10
0.0
 20
0.0
  9
$LIMMAX
 10
12.0
 20
9.0
  9
$ORTHOMODE
 70
     0
  9
$REGENMODE
 70
     1
  9
$FILLMODE
 70
     1
  9
$QTEXTMODE
 70
     0
  9
$MIRRTEXT
 70
     0
  9
$LTSCALE
 40
150.0
  9
$ATTMODE
 70
     1
  9
$TEXTSIZE
 40
1.0
  9
$TRACEWID
 40
0.05
  9
$TEXTSTYLE
  7
STANDARD
  9
$CLAYER
  8
0
  9
$CELTYPE
  6
CONTINUOUS
  9
$CECOLOR
 62
   256
  9
$CELTSCALE
 40
1.0
  9
$DISPSILH
 70
     0
  9
$DIMSCALE
 40
1.0
  9
$DIMASZ
 40
0.18
  9
$DIMEXO
 40
0.0625
  9
$DIMDLI
 40
0.38
  9
$DIMRND
 40
0.0
  9
$DIMDLE
 40
0.0
  9
$DIMEXE
 40
0.18
  9
$DIMTP
 40
0.0
  9
$DIMTM
 40
0.0
  9
$DIMTXT
 40
0.18
  9
$DIMCEN
 40
0.09
  9
$DIMTSZ
 40
0.0
  9
$DIMTOL
 70
     0
  9
$DIMLIM
 70
     0
  9
$DIMTIH
 70
     1
  9
$DIMTOH
 70
     1
  9
$DIMSE1
 70
     0
  9
$DIMSE2
 70
     0
  9
$DIMTAD
 70
     0
  9
$DIMZIN
 70
     0
  9
$DIMBLK
  1

  9
$DIMASO
 70
     1
  9
$DIMSHO
 70
     1
  9
$DIMPOST
  1

  9
$DIMAPOST
  1

  9
$DIMALT
 70
     0
  9
$DIMALTD
 70
     2
  9
$DIMALTF
 40
25.4
  9
$DIMLFAC
 40
1.0
  9
$DIMTOFL
 70
     0
  9
$DIMTVP
 40
0.0
  9
$DIMTIX
 70
     0
  9
$DIMSOXD
 70
     0
  9
$DIMSAH
 70
     0
  9
$DIMBLK1
  1

  9
$DIMBLK2
  1

  9
$DIMSTYLE
  2
Standard
  9
$DIMCLRD
 70
     0
  9
$DIMCLRE
 70
     0
  9
$DIMCLRT
 70
     0
  9
$DIMTFAC
 40
1.0
  9
$DIMGAP
 40
0.09
  9
$DIMJUST
 70
     0
  9
$DIMSD1
 70
     0
  9
$DIMSD2
 70
     0
  9
$DIMTOLJ
 70
     1
  9
$DIMTZIN
 70
     0
  9
$DIMALTZ
 70
     0
  9
$DIMALTTZ
 70
     0
  9
$DIMUPT
 70
     0
  9
$DIMDEC
 70
     4
  9
$DIMTDEC
 70
     4
  9
$DIMALTU
 70
     2
  9
$DIMALTTD
 70
     2
  9
$DIMTXSTY
  7
STANDARD
  9
$DIMAUNIT
 70
     0
  9
$DIMADEC
 70
     0
  9
$DIMALTRND
 40
0.0
  9
$DIMAZIN
 70
     0
  9
$DIMDSEP
 70
    46
  9
$DIMATFIT
 70
     3
  9
$DIMFRAC
 70
     0
  9
$DIMLDRBLK
  1

  9
$DIMLUNIT
 70
     2
  9
$DIMLWD
 70
    -2
  9
$DIMLWE
 70
    -2
  9
$DIMTMOVE
 70
     0
  9
$LUNITS
 70
     2
  9
$LUPREC
 70
     4
  9
$SKETCHINC
 40
0.1
  9
$FILLETRAD
 40
0.0
  9
$AUNITS
 70
     0
  9
$AUPREC
 70
     0
  9
$MENU
  1
.
  9
$ELEVATION
 40
0.0
  9
$PELEVATION
 40
0.0
  9
$THICKNESS
 40
0.0
  9
$LIMCHECK
 70
     0
  9
$CHAMFERA
 40
0.0
  9
$CHAMFERB
 40
0.0
  9
$CHAMFERC
 40
0.0
  9
$CHAMFERD
 40
0.0
  9
$SKPOLY
 70
     0
  9
$TDCREATE
 40
2453857.446776436
  9
$TDUCREATE
 40
2453857.071776435
  9
$TDUPDATE
 40
2453857.450150636
  9
$TDUUPDATE
 40
2453857.075150637
  9
$TDINDWG
 40
0.0033763773
  9
$TDUSRTIMER
 40
0.0033763773
  9
$USRTIMER
 70
     1
  9
$ANGBASE
 50
0.0
  9
$ANGDIR
 70
     0
  9
$PDMODE
 70
     0
  9
$PDSIZE
 40
0.0
  9
$PLINEWID
 40
0.0
  9
$SPLFRAME
 70
     0
  9
$SPLINETYPE
 70
     6
  9
$SPLINESEGS
 70
     8
  9
$HANDSEED
  5
38D
  9
$SURFTAB1
 70
     6
  9
$SURFTAB2
 70
     6
  9
$SURFTYPE
 70
     6
  9
$SURFU
 70
     6
  9
$SURFV
 70
     6
  9
$UCSBASE
  2

  9
$UCSNAME
  2

  9
$UCSORG
 10
0.0
 20
0.0
 30
0.0
  9
$UCSXDIR
 10
1.0
 20
0.0
 30
0.0
  9
$UCSYDIR
 10
0.0
 20
1.0
 30
0.0
  9
$UCSORTHOREF
  2

  9
$UCSORTHOVIEW
 70
     0
  9
$UCSORGTOP
 10
0.0
 20
0.0
 30
0.0
  9
$UCSORGBOTTOM
 10
0.0
 20
0.0
 30
0.0
  9
$UCSORGLEFT
 10
0.0
 20
0.0
 30
0.0
  9
$UCSORGRIGHT
 10
0.0
 20
0.0
 30
0.0
  9
$UCSORGFRONT
 10
0.0
 20
0.0
 30
0.0
  9
$UCSORGBACK
 10
0.0
 20
0.0
 30
0.0
  9
$PUCSBASE
  2

  9
$PUCSNAME
  2

  9
$PUCSORG
 10
0.0
 20
0.0
 30
0.0
  9
$PUCSXDIR
 10
1.0
 20
0.0
 30
0.0
  9
$PUCSYDIR
 10
0.0
 20
1.0
 30
0.0
  9
$PUCSORTHOREF
  2

  9
$PUCSORTHOVIEW
 70
     0
  9
$PUCSORGTOP
 10
0.0
 20
0.0
 30
0.0
  9
$PUCSORGBOTTOM
 10
0.0
 20
0.0
 30
0.0
  9
$PUCSORGLEFT
 10
0.0
 20
0.0
 30
0.0
  9
$PUCSORGRIGHT
 10
0.0
 20
0.0
 30
0.0
  9
$PUCSORGFRONT
 10
0.0
 20
0.0
 30
0.0
  9
$PUCSORGBACK
 10
0.0
 20
0.0
 30
0.0
  9
$USERI1
 70
     0
  9
$USERI2
 70
     0
  9
$USERI3
 70
     0
  9
$USERI4
 70
     0
  9
$USERI5
 70
     0
  9
$USERR1
 40
0.0
  9
$USERR2
 40
0.0
  9
$USERR3
 40
0.0
  9
$USERR4
 40
0.0
  9
$USERR5
 40
0.0
  9
$WORLDVIEW
 70
     1
  9
$SHADEDGE
 70
     3
  9
$SHADEDIF
 70
    70
  9
$TILEMODE
 70
     1
  9
$MAXACTVP
 70
    64
  9
$PINSBASE
 10
0.0
 20
0.0
 30
0.0
  9
$PLIMCHECK
 70
     0
  9
$PEXTMIN
 10
1.000000000000000E+20
 20
1.000000000000000E+20
 30
1.000000000000000E+20
  9
$PEXTMAX
 10
-1.000000000000000E+20
 20
-1.000000000000000E+20
 30
-1.000000000000000E+20
  9
$PLIMMIN
 10
0.0
 20
0.0
  9
$PLIMMAX
 10
12.0
 20
9.0
  9
$UNITMODE
 70
     0
  9
$VISRETAIN
 70
     1
  9
$PLINEGEN
 70
     0
  9
$PSLTSCALE
 70
     1
  9
$TREEDEPTH
 70
  3020
  9
$CMLSTYLE
  2
Standard
  9
$CMLJUST
 70
     0
  9
$CMLSCALE
 40
1.0
  9
$PROXYGRAPHICS
 70
     1
  9
$MEASUREMENT
 70
     0
  9
$CELWEIGHT
370
    -1
  9
$ENDCAPS
280
     0
  9
$JOINSTYLE
280
     0
  9
$LWDISPLAY
290
     0
  9
$INSUNITS
 70
     0
  9
$HYPERLINKBASE
  1

  9
$STYLESHEET
  1

  9
$XEDIT
290
     1
  9
$CEPSNTYPE
380
     0
  9
$PSTYLEMODE
290
     1
  9
$FINGERPRINTGUID
  2
{659984A9-AEAA-4E9E-8FD7-1FC9E118BFBC}
  9
$VERSIONGUID
  2
{37896BA3-E8F3-483B-96F6-40BA069EABE5}
  9
$EXTNAMES
290
     1
  9
$PSVPSCALE
 40
0.0
  9
$OLESTARTUP
290
     0
  0
ENDSEC
  0
SECTION
  2
CLASSES
  0
CLASS
  1
ACDBDICTIONARYWDFLT
  2
AcDbDictionaryWithDefault
  3
ObjectDBX Classes
 90
        0
280
     0
281
     0
  0
CLASS
  1
DICTIONARYVAR
  2
AcDbDictionaryVar
  3
ObjectDBX Classes
 90
        0
280
     0
281
     0
  0
CLASS
  1
ACDBPLACEHOLDER
  2
AcDbPlaceHolder
  3
ObjectDBX Classes
 90
        0
280
     0
281
     0
  0
CLASS
  1
LAYOUT
  2
AcDbLayout
  3
ObjectDBX Classes
 90
        0
280
     0
281
     0
  0
ENDSEC
  0
SECTION
  2
TABLES
  0
TABLE
  2
VPORT
  5
8
330
0
100
AcDbSymbolTable
 70
     6
  0
VPORT
  5
385
330
8
100
AcDbSymbolTableRecord
100
AcDbViewportTableRecord
  2
*Active
 70
     0
 10
0.0
 20
0.0
 11
1.0
 21
1.0
 12
1404.414818117895
 22
1305.848989389788
 13
0.0
 23
0.0
 14
1.0
 24
1.0
 15
0.0
 25
0.0
 16
0.0
 26
0.0
 36
1.0
 17
0.0
 27
0.0
 37
0.0
 40
2200.551134847021
 41
2.361930294906166
 42
50.0
 43
0.0
 44
0.0
 50
0.0
 51
0.0
 71
     0
 72
   100
 73
     1
 74
     1
 75
     0
 76
     0
 77
     0
 78
     0
281
     0
 65
     1
110
0.0
120
0.0
130
0.0
111
1.0
121
0.0
131
0.0
112
0.0
122
1.0
132
0.0
 79
     0
146
0.0
  0
ENDTAB
  0
TABLE
  2
LTYPE
  5
5
330
0
100
AcDbSymbolTable
 70
     6
  0
LTYPE
  5
13
330
5
100
AcDbSymbolTableRecord
100
AcDbLinetypeTableRecord
  2
ByBlock
 70
     0
  3

 72
    65
 73
     0
 40
0.0
  0
LTYPE
  5
14
330
5
100
AcDbSymbolTableRecord
100
AcDbLinetypeTableRecord
  2
ByLayer
 70
     0
  3

 72
    65
 73
     0
 40
0.0
  0
LTYPE
  5
15
330
5
100
AcDbSymbolTableRecord
100
AcDbLinetypeTableRecord
  2
CONTINUOUS
 70
     0
  3
Solid line
 72
    65
 73
     0
 40
0.0
  0
LTYPE
  5
24
330
5
100
AcDbSymbolTableRecord
100
AcDbLinetypeTableRecord
  2
DASHED
 70
     0
  3
__ __ __ __ __ __ __ __ __ __ __ __ __ __ __
 72
    65
 73
     2
 40
0.75
 49
0.5
 74
     0
 49
-0.25
 74
     0
  0
LTYPE
  5
25
330
5
100
AcDbSymbolTableRecord
100
AcDbLinetypeTableRecord
  2
HIDDEN
 70
     0
  3
_ _ _ _ _ _ _ _ _ _ _ _ _ _ _ _ _ _ _ _ _ _ _
 72
    65
 73
     2
 40
0.375
 49
0.25
 74
     0
 49
-0.125
 74
     0
  0
LTYPE
  5
26
330
5
100
AcDbSymbolTableRecord
100
AcDbLinetypeTableRecord
  2
DOT
 70
     0
  3
...............................................
 72
    65
 73
     2
 40
0.25
 49
0.0
 74
     0
 49
-0.25
 74
     0
  0
LTYPE
  5
27
330
5
100
AcDbSymbolTableRecord
100
AcDbLinetypeTableRecord
  2
DASHDOT
 70
     0
  3
__ . __ . __ . __ . __ . __ . __ . __ . __ . __
 72
    65
 73
     4
 40
1.0
 49
0.5
 74
     0
 49
-0.25
 74
     0
 49
0.0
 74
     0
 49
-0.25
 74
     0
  0
LTYPE
  5
28
330
5
100
AcDbSymbolTableRecord
100
AcDbLinetypeTableRecord
  2
DIVIDE
 70
     0
  3
__ . . __ . . __ . . __ . . __ . . __ . . __
 72
    65
 73
     6
 40
1.25
 49
0.5
 74
     0
 49
-0.25
 74
     0
 49
0.0
 74
     0
 49
-0.25
 74
     0
 49
0.0
 74
     0
 49
-0.25
 74
     0
  0
ENDTAB
  0
TABLE
  2
LAYER
  5
2
330
0
100
AcDbSymbolTable
 70
     6
  0
LAYER
  5
10
330
2
100
AcDbSymbolTableRecord
100
AcDbLayerTableRecord
  2
0
 70
     0
 62
     7
  6
CONTINUOUS
370
    -3
390
F
  0
LAYER
  5
29
330
2
100
AcDbSymbolTableRecord
100
AcDbLayerTableRecord
  2
1
 70
     0
 62
     7
  6
CONTINUOUS
370
    -3
390
F
  0
LAYER
  5
2A
330
2
100
AcDbSymbolTableRecord
100
AcDbLayerTableRecord
  2
17
 70
     0
 62
     7
  6
CONTINUOUS
370
    -3
390
F
  0
LAYER
  5
2B
330
2
100
AcDbSymbolTableRecord
100
AcDbLayerTableRecord
  2
33
 70
     0
 62
     7
  6
CONTINUOUS
370
    -3
390
F
  0
LAYER
  5
32C
330
2
100
AcDbSymbolTableRecord
100
AcDbLayerTableRecord
  2
2
 70
     0
 62
     7
  6
CONTINUOUS
370
    -3
390
F
  0
LAYER
  5
32D
330
2
100
AcDbSymbolTableRecord
100
AcDbLayerTableRecord
  2
一般
 70
     0
 62
     7
  6
CONTINUOUS
370
     5
390
F
  0
ENDTAB
  0
TABLE
  2
STYLE
  5
3
330
0
100
AcDbSymbolTable
 70
     4
  0
STYLE
  5
11
330
3
100
AcDbSymbolTableRecord
100
AcDbTextStyleTableRecord
  2
STANDARD
 70
     0
 40
1.0
 41
1.0
 50
0.0
 71
     0
 42
1.0
  3
TXT
  4

  0
STYLE
  5
2C
330
3
100
AcDbSymbolTableRecord
100
AcDbTextStyleTableRecord
  2
BIGFONT
 70
     0
 40
1.0
 41
1.0
 50
0.0
 71
     0
 42
1.0
  3
TXT
  4
BIGFONT
  0
STYLE
  5
32E
330
3
100
AcDbSymbolTableRecord
100
AcDbTextStyleTableRecord
  2
Arial
 70
     0
 40
0.0
 41
1.0
 50
0.0
 71
     0
 42
0.0
  3
ARIAL.TTF
  4

1001
ACAD
1000
Arial
1071
        0
  0
STYLE
  5
32F
330
3
100
AcDbSymbolTableRecord
100
AcDbTextStyleTableRecord
  2
ＭＳ ゴシック
 70
     0
 40
0.0
 41
1.0
 50
0.0
 71
     0
 42
0.0
  3
MS Gothic.ttf
  4

1001
ACAD
1000
ＭＳ ゴシック
1071
        0
  0
ENDTAB
  0
TABLE
  2
VIEW
  5
6
330
0
100
AcDbSymbolTable
 70
     0
  0
ENDTAB
  0
TABLE
  2
UCS
  5
7
330
0
100
AcDbSymbolTable
 70
     0
  0
ENDTAB
  0
TABLE
  2
APPID
  5
9
330
0
100
AcDbSymbolTable
 70
     1
  0
APPID
  5
12
330
9
100
AcDbSymbolTableRecord
100
AcDbRegAppTableRecord
  2
ACAD
 70
     0
  0
ENDTAB
  0
TABLE
  2
DIMSTYLE
  5
A
330
0
100
AcDbSymbolTable
 70
     1
100
AcDbDimStyleTable
 71
     0
  0
DIMSTYLE
105
329
330
A
100
AcDbSymbolTableRecord
100
AcDbDimStyleTableRecord
  2
Standard
 70
     0
340
11
  0
ENDTAB
  0
TABLE
  2
BLOCK_RECORD
  5
1
330
0
100
AcDbSymbolTable
 70
     1
  0
BLOCK_RECORD
  5
20
330
1
100
AcDbSymbolTableRecord
100
AcDbBlockTableRecord
  2
*Model_Space
340
23
  0
BLOCK_RECORD
  5
1C
330
1
100
AcDbSymbolTableRecord
100
AcDbBlockTableRecord
  2
*Paper_Space
340
1F
  0
ENDTAB
  0
ENDSEC
  0
SECTION
  2
BLOCKS
  0
BLOCK
  5
21
330
20
100
AcDbEntity
  8
0
100
AcDbBlockBegin
  2
*Model_Space
 70
     0
 10
0.0
 20
0.0
 30
0.0
  3
*Model_Space
  1

  0
ENDBLK
  5
22
330
20
100
AcDbEntity
  8
0
100
AcDbBlockEnd
  0
BLOCK
  5
1D
330
1C
100
AcDbEntity
 67
     1
  8
0
100
AcDbBlockBegin
  2
*Paper_Space
 70
     0
 10
0.0
 20
0.0
 30
0.0
  3
*Paper_Space
  1

  0
ENDBLK
  5
1E
330
1C
100
AcDbEntity
 67
     1
  8
0
100
AcDbBlockEnd
  0
ENDSEC
  0
SECTION
  2
ENTITIES
  0
LINE
  5
6C
330
20
100
AcDbEntity
  8
33
  6
DASHDOT
100
AcDbLine
 10
1383.136875751414
 20
1181.547719049047
 30
0.0
 11
1383.136875751414
 21
1653.547719049047
 31
0.0
  0
LINE
  5
6D
330
20
100
AcDbEntity
  8
33
  6
DASHDOT
100
AcDbLine
 10
873.1368757514138
 20
1417.547719049047
 30
0.0
 11
1893.136875751414
 21
1417.547719049047
 31
0.0
  0
ARC
  5
6E
330
20
100
AcDbEntity
  8
33
  6
Continuous
100
AcDbCircle
 10
1383.136875751414
 20
-13381.45228095095
 30
0.0
 40
15000.0
100
AcDbArc
 50
88.535743031179
 51
91.46425696882099
  0
ARC
  5
6F
330
20
100
AcDbEntity
  8
33
  6
Continuous
100
AcDbCircle
 10
1383.136875751414
 20
16216.54771904904
 30
0.0
 40
15000.0
100
AcDbArc
 50
268.535743031179
 51
271.464256968821
  0
ARC
  5
70
330
20
100
AcDbEntity
  8
33
  6
Continuous
100
AcDbCircle
 10
2408.136875751414
 20
1417.547719049047
 30
0.0
 40
1500.0
100
AcDbArc
 50
175.683239683582
 51
184.316760316418
  0
ARC
  5
71
330
20
100
AcDbEntity
  8
33
  6
Continuous
100
AcDbCircle
 10
358.1368757514137
 20
1417.547719049047
 30
0.0
 40
1500.0
100
AcDbArc
 50
355.683239683582
 51
4.316760316417999
  0
ARC
  5
72
330
20
100
AcDbEntity
  8
33
  6
Continuous
100
AcDbCircle
 10
1002.136823139071
 20
1523.679015347964
 30
0.0
 40
90.0
100
AcDbArc
 50
91.46425696882099
 51
175.683239683582
  0
ARC
  5
73
330
20
100
AcDbEntity
  8
33
  6
Continuous
100
AcDbCircle
 10
1764.136928363757
 20
1523.679015347964
 30
0.0
 40
90.0
100
AcDbArc
 50
4.316760316417999
 51
88.535743031179
  0
ARC
  5
74
330
20
100
AcDbEntity
  8
33
  6
Continuous
100
AcDbCircle
 10
1764.136928363757
 20
1311.41642275013
 30
0.0
 40
90.0
100
AcDbArc
 50
271.464256968825
 51
355.683239683582
  0
ARC
  5
75
330
20
100
AcDbEntity
  8
33
  6
Continuous
100
AcDbCircle
 10
1002.13682313907
 20
1311.416422750131
 30
0.0
 40
90.0
100
AcDbArc
 50
184.316760316418
 51
268.535743031174
  0
ARC
  5
76
330
20
100
AcDbEntity
  8
33
  6
Continuous
100
AcDbCircle
 10
1383.136875751414
 20
-13381.45228095095
 30
0.0
 40
15015.0
100
AcDbArc
 50
88.535743031179
 51
91.46425696882099
  0
ARC
  5
77
330
20
100
AcDbEntity
  8
33
  6
Continuous
100
AcDbCircle
 10
1764.136928363757
 20
1523.679015347964
 30
0.0
 40
105.0
100
AcDbArc
 50
4.316760316417999
 51
88.535743031179
  0
ARC
  5
78
330
20
100
AcDbEntity
  8
33
  6
Continuous
100
AcDbCircle
 10
358.1368757514137
 20
1417.547719049047
 30
0.0
 40
1515.0
100
AcDbArc
 50
355.683239683582
 51
4.316760316417999
  0
ARC
  5
79
330
20
100
AcDbEntity
  8
33
  6
Continuous
100
AcDbCircle
 10
1764.136928363757
 20
1311.41642275013
 30
0.0
 40
105.0
100
AcDbArc
 50
271.464256968821
 51
355.683239683582
  0
ARC
  5
7A
330
20
100
AcDbEntity
  8
33
  6
Continuous
100
AcDbCircle
 10
1383.136875751414
 20
16216.54771904904
 30
0.0
 40
15015.0
100
AcDbArc
 50
268.535743031179
 51
271.464256968821
  0
ARC
  5
7B
330
20
100
AcDbEntity
  8
33
  6
Continuous
100
AcDbCircle
 10
1002.13682313907
 20
1311.416422750131
 30
0.0
 40
105.0
100
AcDbArc
 50
184.316760316418
 51
268.535743031179
  0
ARC
  5
7C
330
20
100
AcDbEntity
  8
33
  6
Continuous
100
AcDbCircle
 10
2408.136875751414
 20
1417.547719049047
 30
0.0
 40
1515.0
100
AcDbArc
 50
175.683239683582
 51
184.316760316418
  0
ARC
  5
7D
330
20
100
AcDbEntity
  8
33
  6
Continuous
100
AcDbCircle
 10
1002.136823139071
 20
1523.679015347964
 30
0.0
 40
105.0
100
AcDbArc
 50
91.46425696882099
 51
175.683239683582
  0
LINE
  5
7E
330
20
100
AcDbEntity
  8
33
  6
DASHDOT
100
AcDbLine
 10
1263.136875751414
 20
1478.547719049048
 30
0.0
 11
1503.136875751414
 21
1478.547719049048
 31
0.0
  0
CIRCLE
  5
7F
330
20
100
AcDbEntity
  8
33
  6
Continuous
100
AcDbCircle
 10
1383.136875751414
 20
1478.547719049048
 30
0.0
 40
79.5
  0
CIRCLE
  5
80
330
20
100
AcDbEntity
  8
33
  6
Continuous
100
AcDbCircle
 10
1383.136875751414
 20
1478.547719049048
 30
0.0
 40
90.5
  0
LINE
  5
81
330
20
100
AcDbEntity
  8
33
  6
Continuous
100
AcDbLine
 10
1383.136875751414
 20
1689.262004763332
 30
0.0
 11
1858.136875751414
 21
1689.262004763332
 31
0.0
  0
LINE
  5
82
330
20
100
AcDbEntity
  8
33
  6
Continuous
100
AcDbLine
 10
1383.136875751414
 20
1689.262004763332
 30
0.0
 11
1402.455392277195
 21
1694.438385665383
 31
0.0
  0
LINE
  5
83
330
20
100
AcDbEntity
  8
33
  6
Continuous
100
AcDbLine
 10
1383.136875751414
 20
1689.262004763332
 30
0.0
 11
1402.455392277195
 21
1684.085623861282
 31
0.0
  0
LINE
  5
84
330
20
100
AcDbEntity
  8
33
  6
Continuous
100
AcDbLine
 10
1858.136875751414
 20
1689.262004763332
 30
0.0
 11
1838.818359225632
 21
1684.085623861282
 31
0.0
  0
LINE
  5
85
330
20
100
AcDbEntity
  8
33
  6
Continuous
100
AcDbLine
 10
1858.136875751414
 20
1689.262004763332
 30
0.0
 11
1838.818359225632
 21
1694.438385665383
 31
0.0
  0
LINE
  5
86
330
20
100
AcDbEntity
  8
33
  6
Continuous
100
AcDbLine
 10
1383.136875751414
 20
1658.547719049047
 30
0.0
 11
1383.136875751414
 21
1694.262004763332
 31
0.0
  0
LINE
  5
87
330
20
100
AcDbEntity
  8
33
  6
Continuous
100
AcDbLine
 10
1858.136875751414
 20
1422.547719049047
 30
0.0
 11
1858.136875751414
 21
1694.262004763332
 31
0.0
  0
TEXT
  5
88
330
20
100
AcDbEntity
  8
33
100
AcDbText
 10
1580.636875751413
 20
1694.262057072199
 30
0.0
 40
20.0
  1
475%%p1_
 50
0.00000001
 41
0.75
 51
15.0
 72
     1
 11
1620.636875751413
 21
1694.26205707918
 31
0.0
100
AcDbText
  0
LINE
  5
89
330
20
100
AcDbEntity
  8
33
  6
Continuous
100
AcDbLine
 10
1858.136875751414
 20
1742.297719049047
 30
0.0
 11
1873.136875751414
 21
1742.297719049047
 31
0.0
  0
LINE
  5
8A
330
20
100
AcDbEntity
  8
33
  6
Continuous
100
AcDbLine
 10
1858.136875751414
 20
1422.547719049047
 30
0.0
 11
1858.136875751414
 21
1747.297719049047
 31
0.0
  0
LINE
  5
8B
330
20
100
AcDbEntity
  8
33
  6
Continuous
100
AcDbLine
 10
1873.136875751414
 20
1422.547719049047
 30
0.0
 11
1873.136875751414
 21
1747.297719049047
 31
0.0
  0
LINE
  5
8C
330
20
100
AcDbEntity
  8
33
  6
Continuous
100
AcDbLine
 10
1873.136875751414
 20
1742.297719049047
 30
0.0
 11
1913.136875751414
 21
1742.297719049047
 31
0.0
  0
LINE
  5
8D
330
20
100
AcDbEntity
  8
33
  6
Continuous
100
AcDbLine
 10
1873.136875751414
 20
1742.297719049047
 30
0.0
 11
1892.455392277195
 21
1747.474099951097
 31
0.0
  0
LINE
  5
8E
330
20
100
AcDbEntity
  8
33
  6
Continuous
100
AcDbLine
 10
1873.136875751414
 20
1742.297719049047
 30
0.0
 11
1892.455392277195
 21
1737.121338146996
 31
0.0
  0
TEXT
  5
8F
330
20
100
AcDbEntity
  8
33
100
AcDbText
 10
1875.066929462351
 20
1748.432223089569
 30
0.0
 40
20.0
  1
15%%p1_
 50
0.00000001
 41
0.75
 51
15.0
 72
     1
 11
1905.066929462351
 21
1748.432223094805
 31
0.0
100
AcDbText
  0
LINE
  5
90
330
20
100
AcDbEntity
  8
33
  6
Continuous
100
AcDbLine
 10
908.1368757514137
 20
1742.297719049047
 30
0.0
 11
1858.136875751414
 21
1742.297719049047
 31
0.0
  0
LINE
  5
91
330
20
100
AcDbEntity
  8
33
  6
Continuous
100
AcDbLine
 10
908.1368757514137
 20
1742.297719049047
 30
0.0
 11
927.4553922771952
 21
1747.474099951097
 31
0.0
  0
LINE
  5
92
330
20
100
AcDbEntity
  8
33
  6
Continuous
100
AcDbLine
 10
908.1368757514137
 20
1742.297719049047
 30
0.0
 11
927.4553922771952
 21
1737.121338146996
 31
0.0
  0
LINE
  5
93
330
20
100
AcDbEntity
  8
33
  6
Continuous
100
AcDbLine
 10
1858.136875751414
 20
1742.297719049047
 30
0.0
 11
1838.818359225632
 21
1737.121338146996
 31
0.0
  0
LINE
  5
94
330
20
100
AcDbEntity
  8
33
  6
Continuous
100
AcDbLine
 10
1858.136875751414
 20
1742.297719049047
 30
0.0
 11
1838.818359225632
 21
1747.474099951097
 31
0.0
  0
LINE
  5
95
330
20
100
AcDbEntity
  8
33
  6
Continuous
100
AcDbLine
 10
908.1368757514137
 20
1422.547719049047
 30
0.0
 11
908.1368757514137
 21
1747.297719049047
 31
0.0
  0
TEXT
  5
96
330
20
100
AcDbEntity
  8
33
100
AcDbText
 10
1341.886875751414
 20
1747.29770160323
 30
0.0
 40
20.0
  1
950%%p2_
 50
0.00000001
 41
0.75
 51
15.0
 72
     1
 11
1383.136875751414
 21
1747.29770161043
 31
0.0
100
AcDbText
  0
LINE
  5
97
330
20
100
AcDbEntity
  8
33
  6
Continuous
100
AcDbLine
 10
893.1368757514137
 20
1742.297719049047
 30
0.0
 11
908.1368757514137
 21
1742.297719049047
 31
0.0
  0
LINE
  5
98
330
20
100
AcDbEntity
  8
33
  6
Continuous
100
AcDbLine
 10
893.1368757514137
 20
1422.547719049047
 30
0.0
 11
893.1368757514137
 21
1747.297719049047
 31
0.0
  0
LINE
  5
99
330
20
100
AcDbEntity
  8
33
  6
Continuous
100
AcDbLine
 10
853.1368757514137
 20
1742.297719049047
 30
0.0
 11
893.1368757514137
 21
1742.297719049047
 31
0.0
  0
LINE
  5
9A
330
20
100
AcDbEntity
  8
33
  6
Continuous
100
AcDbLine
 10
893.1368757514137
 20
1742.297719049047
 30
0.0
 11
873.8183592256323
 21
1737.121338146996
 31
0.0
  0
LINE
  5
9B
330
20
100
AcDbEntity
  8
33
  6
Continuous
100
AcDbLine
 10
893.1368757514137
 20
1742.297719049047
 30
0.0
 11
873.8183592256323
 21
1747.474099951097
 31
0.0
  0
TEXT
  5
9C
330
20
100
AcDbEntity
  8
33
100
AcDbText
 10
825.8856550482887
 20
1747.899630316132
 30
0.0
 40
20.0
  1
15%%p1_
 50
0.00000001
 41
0.75
 51
15.0
 72
     1
 11
855.8856550482888
 21
1747.899630321368
 31
0.0
100
AcDbText
  0
LINE
  5
9D
330
20
100
AcDbEntity
  8
33
  6
Continuous
100
AcDbLine
 10
893.1368757514137
 20
1795.333433334761
 30
0.0
 11
1873.136875751414
 21
1795.333433334761
 31
0.0
  0
LINE
  5
9E
330
20
100
AcDbEntity
  8
33
  6
Continuous
100
AcDbLine
 10
893.1368757514137
 20
1795.333433334761
 30
0.0
 11
912.4553922771951
 21
1800.509814236811
 31
0.0
  0
LINE
  5
9F
330
20
100
AcDbEntity
  8
33
  6
Continuous
100
AcDbLine
 10
893.1368757514137
 20
1795.333433334761
 30
0.0
 11
912.4553922771951
 21
1790.15705243271
 31
0.0
  0
LINE
  5
A0
330
20
100
AcDbEntity
  8
33
  6
Continuous
100
AcDbLine
 10
1873.136875751414
 20
1795.333433334761
 30
0.0
 11
1853.818359225632
 21
1790.15705243271
 31
0.0
  0
LINE
  5
A1
330
20
100
AcDbEntity
  8
33
  6
Continuous
100
AcDbLine
 10
1873.136875751414
 20
1795.333433334761
 30
0.0
 11
1853.818359225632
 21
1800.509814236811
 31
0.0
  0
LINE
  5
A2
330
20
100
AcDbEntity
  8
33
  6
Continuous
100
AcDbLine
 10
893.1368757514137
 20
1422.547719049047
 30
0.0
 11
893.1368757514137
 21
1800.333433334761
 31
0.0
  0
LINE
  5
A3
330
20
100
AcDbEntity
  8
33
  6
Continuous
100
AcDbLine
 10
1873.136875751414
 20
1422.547719049047
 30
0.0
 11
1873.136875751414
 21
1800.333433334761
 31
0.0
  0
TEXT
  5
A4
330
20
100
AcDbEntity
  8
33
100
AcDbText
 10
1341.886875751414
 20
1800.333468204793
 30
0.0
 40
20.0
  1
980%%p2_
 50
0.00000001
 41
0.75
 51
15.0
 72
     1
 11
1383.136875751414
 21
1800.333468211993
 31
0.0
100
AcDbText
  0
LINE
  5
A5
330
20
100
AcDbEntity
  8
33
  6
Continuous
100
AcDbLine
 10
835.2127686085568
 20
1417.547719049047
 30
0.0
 11
835.2127686085568
 21
1618.547719049048
 31
0.0
  0
LINE
  5
A6
330
20
100
AcDbEntity
  8
33
  6
Continuous
100
AcDbLine
 10
835.2127686085568
 20
1417.547719049047
 30
0.0
 11
830.0363877065063
 21
1436.866235574828
 31
0.0
  0
LINE
  5
A7
330
20
100
AcDbEntity
  8
33
  6
Continuous
100
AcDbLine
 10
835.2127686085568
 20
1417.547719049047
 30
0.0
 11
840.3891495106073
 21
1436.866235574828
 31
0.0
  0
LINE
  5
A8
330
20
100
AcDbEntity
  8
33
  6
Continuous
100
AcDbLine
 10
835.2127686085568
 20
1618.547719049048
 30
0.0
 11
840.3891495106073
 21
1599.229202523267
 31
0.0
  0
LINE
  5
A9
330
20
100
AcDbEntity
  8
33
  6
Continuous
100
AcDbLine
 10
835.2127686085568
 20
1618.547719049048
 30
0.0
 11
830.0363877065063
 21
1599.229202523267
 31
0.0
  0
LINE
  5
AA
330
20
100
AcDbEntity
  8
33
  6
Continuous
100
AcDbLine
 10
868.1368757514137
 20
1417.547719049047
 30
0.0
 11
830.2127686085567
 21
1417.547719049047
 31
0.0
  0
LINE
  5
AB
330
20
100
AcDbEntity
  8
33
  6
Continuous
100
AcDbLine
 10
1378.136875751414
 20
1618.547719049048
 30
0.0
 11
830.2127686085567
 21
1618.547719049048
 31
0.0
  0
TEXT
  5
AC
330
20
100
AcDbEntity
  8
33
100
AcDbText
 10
830.2127729682107
 20
1489.29770161043
 30
0.0
 40
20.0
  1
202.5
 50
90.0
 41
0.75
 51
15.0
 72
     1
 11
830.2127729682107
 21
1518.04770161043
 31
0.0
100
AcDbText
  0
LINE
  5
AD
330
20
100
AcDbEntity
  8
33
  6
Continuous
100
AcDbLine
 10
782.1770543228422
 20
1618.547719049048
 30
0.0
 11
782.1770543228422
 21
1633.547719049048
 31
0.0
  0
LINE
  5
AE
330
20
100
AcDbEntity
  8
33
  6
Continuous
100
AcDbLine
 10
1378.136875751414
 20
1618.547719049048
 30
0.0
 11
777.1770543228422
 21
1618.547719049048
 31
0.0
  0
LINE
  5
AF
330
20
100
AcDbEntity
  8
33
  6
Continuous
100
AcDbLine
 10
1378.136875751414
 20
1633.547719049048
 30
0.0
 11
777.1770543228422
 21
1633.547719049048
 31
0.0
  0
LINE
  5
B0
330
20
100
AcDbEntity
  8
33
  6
Continuous
100
AcDbLine
 10
782.1770543228422
 20
1633.547719049048
 30
0.0
 11
782.1770543228422
 21
1673.547719049048
 31
0.0
  0
LINE
  5
B1
330
20
100
AcDbEntity
  8
33
  6
Continuous
100
AcDbLine
 10
782.1770543228422
 20
1633.547719049048
 30
0.0
 11
777.0006734207918
 21
1652.86623557483
 31
0.0
  0
LINE
  5
B2
330
20
100
AcDbEntity
  8
33
  6
Continuous
100
AcDbLine
 10
782.1770543228422
 20
1633.547719049048
 30
0.0
 11
787.3534352248928
 21
1652.86623557483
 31
0.0
  0
TEXT
  5
B3
330
20
100
AcDbEntity
  8
33
100
AcDbText
 10
776.7314192084452
 20
1637.479464305743
 30
0.0
 40
20.0
  1
15%%p1_
 50
90.0
 41
0.75
 51
15.0
 72
     1
 11
776.7314192084452
 21
1667.479464305742
 31
0.0
100
AcDbText
  0
LINE
  5
B4
330
20
100
AcDbEntity
  8
33
  6
Continuous
100
AcDbLine
 10
782.1770543228422
 20
1216.547719049046
 30
0.0
 11
782.1770543228422
 21
1618.547719049048
 31
0.0
  0
LINE
  5
B5
330
20
100
AcDbEntity
  8
33
  6
Continuous
100
AcDbLine
 10
782.1770543228422
 20
1216.547719049046
 30
0.0
 11
777.0006734207918
 21
1235.866235574827
 31
0.0
  0
LINE
  5
B6
330
20
100
AcDbEntity
  8
33
  6
Continuous
100
AcDbLine
 10
782.1770543228422
 20
1216.547719049046
 30
0.0
 11
787.3534352248928
 21
1235.866235574827
 31
0.0
  0
LINE
  5
B7
330
20
100
AcDbEntity
  8
33
  6
Continuous
100
AcDbLine
 10
782.1770543228422
 20
1618.547719049048
 30
0.0
 11
787.3534352248928
 21
1599.229202523267
 31
0.0
  0
LINE
  5
B8
330
20
100
AcDbEntity
  8
33
  6
Continuous
100
AcDbLine
 10
782.1770543228422
 20
1618.547719049048
 30
0.0
 11
777.0006734207918
 21
1599.229202523267
 31
0.0
  0
LINE
  5
B9
330
20
100
AcDbEntity
  8
33
  6
Continuous
100
AcDbLine
 10
1378.136875751414
 20
1216.547719049046
 30
0.0
 11
777.1770543228422
 21
1216.547719049046
 31
0.0
  0
TEXT
  5
BA
330
20
100
AcDbEntity
  8
33
100
AcDbText
 10
777.1770521430152
 20
1376.29770161043
 30
0.0
 40
20.0
  1
405%%p2_
 50
90.0
 41
0.75
 51
15.0
 72
     1
 11
777.1770521430152
 21
1417.54770161043
 31
0.0
100
AcDbText
  0
LINE
  5
BB
330
20
100
AcDbEntity
  8
33
  6
Continuous
100
AcDbLine
 10
782.1770543228422
 20
1201.547719049046
 30
0.0
 11
782.1770543228422
 21
1216.547719049046
 31
0.0
  0
LINE
  5
BC
330
20
100
AcDbEntity
  8
33
  6
Continuous
100
AcDbLine
 10
1378.136875751414
 20
1201.547719049046
 30
0.0
 11
777.1770543228422
 21
1201.547719049046
 31
0.0
  0
LINE
  5
BD
330
20
100
AcDbEntity
  8
33
  6
Continuous
100
AcDbLine
 10
782.1770543228422
 20
1161.547719049046
 30
0.0
 11
782.1770543228422
 21
1201.547719049046
 31
0.0
  0
LINE
  5
BE
330
20
100
AcDbEntity
  8
33
  6
Continuous
100
AcDbLine
 10
782.1770543228422
 20
1201.547719049046
 30
0.0
 11
787.3534352248928
 21
1182.229202523265
 31
0.0
  0
LINE
  5
BF
330
20
100
AcDbEntity
  8
33
  6
Continuous
100
AcDbLine
 10
782.1770543228422
 20
1201.547719049046
 30
0.0
 11
777.0006734207918
 21
1182.229202523265
 31
0.0
  0
TEXT
  5
C0
330
20
100
AcDbEntity
  8
33
100
AcDbText
 10
776.7708784369607
 20
1134.449129833086
 30
0.0
 40
20.0
  1
15%%p1_
 50
90.0
 41
0.75
 51
15.0
 72
     1
 11
776.7708784369607
 21
1164.449129833087
 31
0.0
100
AcDbText
  0
LINE
  5
C1
330
20
100
AcDbEntity
  8
33
  6
Continuous
100
AcDbLine
 10
733.5609828942708
 20
1201.547719049046
 30
0.0
 11
733.5609828942708
 21
1633.547719049048
 31
0.0
  0
LINE
  5
C2
330
20
100
AcDbEntity
  8
33
  6
Continuous
100
AcDbLine
 10
733.5609828942708
 20
1201.547719049046
 30
0.0
 11
728.3846019922207
 21
1220.866235574827
 31
0.0
  0
LINE
  5
C3
330
20
100
AcDbEntity
  8
33
  6
Continuous
100
AcDbLine
 10
733.5609828942708
 20
1201.547719049046
 30
0.0
 11
738.7373637963212
 21
1220.866235574827
 31
0.0
  0
LINE
  5
C4
330
20
100
AcDbEntity
  8
33
  6
Continuous
100
AcDbLine
 10
733.5609828942708
 20
1633.547719049048
 30
0.0
 11
738.7373637963212
 21
1614.229202523267
 31
0.0
  0
LINE
  5
C5
330
20
100
AcDbEntity
  8
33
  6
Continuous
100
AcDbLine
 10
733.5609828942708
 20
1633.547719049048
 30
0.0
 11
728.3846019922207
 21
1614.229202523267
 31
0.0
  0
LINE
  5
C6
330
20
100
AcDbEntity
  8
33
  6
Continuous
100
AcDbLine
 10
1378.136875751414
 20
1201.547719049046
 30
0.0
 11
728.5609828942707
 21
1201.547719049046
 31
0.0
  0
LINE
  5
C7
330
20
100
AcDbEntity
  8
33
  6
Continuous
100
AcDbLine
 10
1378.136875751414
 20
1633.547719049048
 30
0.0
 11
728.5609828942707
 21
1633.547719049048
 31
0.0
  0
TEXT
  5
C8
330
20
100
AcDbEntity
  8
33
100
AcDbText
 10
728.5609785346167
 20
1375.04770161043
 30
0.0
 40
20.0
  1
435%%p2_
 50
90.0
 41
0.75
 51
15.0
 72
     1
 11
728.5609785346167
 21
1417.54770161043
 31
0.0
100
AcDbText
  0
LINE
  5
C9
330
20
100
AcDbEntity
  8
33
  6
Continuous
100
AcDbLine
 10
1157.846697179985
 20
1478.547719049048
 30
0.0
 11
1157.846697179985
 21
1618.547719049048
 31
0.0
  0
LINE
  5
CA
330
20
100
AcDbEntity
  8
33
  6
Continuous
100
AcDbLine
 10
1157.846697179985
 20
1478.547719049048
 30
0.0
 11
1152.670316277935
 21
1497.86623557483
 31
0.0
  0
LINE
  5
CB
330
20
100
AcDbEntity
  8
33
  6
Continuous
100
AcDbLine
 10
1157.846697179985
 20
1478.547719049048
 30
0.0
 11
1163.023078082035
 21
1497.86623557483
 31
0.0
  0
LINE
  5
CC
330
20
100
AcDbEntity
  8
33
  6
Continuous
100
AcDbLine
 10
1157.846697179985
 20
1618.547719049048
 30
0.0
 11
1163.023078082035
 21
1599.229202523267
 31
0.0
  0
LINE
  5
CD
330
20
100
AcDbEntity
  8
33
  6
Continuous
100
AcDbLine
 10
1157.846697179985
 20
1618.547719049048
 30
0.0
 11
1152.670316277935
 21
1599.229202523267
 31
0.0
  0
LINE
  5
CE
330
20
100
AcDbEntity
  8
33
  6
Continuous
100
AcDbLine
 10
1258.136875751414
 20
1478.547719049048
 30
0.0
 11
1152.846697179985
 21
1478.547719049048
 31
0.0
  0
LINE
  5
CF
330
20
100
AcDbEntity
  8
33
  6
Continuous
100
AcDbLine
 10
1378.136875751414
 20
1618.547719049048
 30
0.0
 11
1152.846697179985
 21
1618.547719049048
 31
0.0
  0
TEXT
  5
D0
330
20
100
AcDbEntity
  8
33
100
AcDbText
 10
1152.846714618601
 20
1509.79770161043
 30
0.0
 40
20.0
  1
140%%p2_
 50
90.0
 41
0.75
 51
15.0
 72
     1
 11
1152.846714618601
 21
1548.54770161043
 31
0.0
100
AcDbText
  0
LINE
  5
D1
330
20
100
AcDbEntity
  8
33
  6
Continuous
100
AcDbLine
 10
1439.494892208816
 20
1549.357492251531
 30
0.0
 11
1326.778859294012
 21
1407.737945846564
 31
0.0
  0
LINE
  5
D2
330
20
100
AcDbEntity
  8
33
  6
Continuous
100
AcDbLine
 10
1439.494892208816
 20
1549.357492251531
 30
0.0
 11
1458.539639899696
 21
1573.285840860271
 31
0.0
  0
LINE
  5
D3
330
20
100
AcDbEntity
  8
33
  6
Continuous
100
AcDbLine
 10
1439.494892208816
 20
1549.357492251531
 30
0.0
 11
1447.47516750836
 21
1567.696390968289
 31
0.0
  0
LINE
  5
D4
330
20
100
AcDbEntity
  8
33
  6
Continuous
100
AcDbLine
 10
1439.494892208816
 20
1549.357492251531
 30
0.0
 11
1455.575462705793
 21
1561.249306767901
 31
0.0
  0
LINE
  5
D5
330
20
100
AcDbEntity
  8
33
  6
Continuous
100
AcDbLine
 10
1458.539639899696
 20
1573.285840860271
 30
0.0
 11
1528.539639899697
 21
1573.285840860271
 31
0.0
  0
LINE
  5
D6
330
20
100
AcDbEntity
  8
33
  6
Continuous
100
AcDbLine
 10
1326.778859294012
 20
1407.737945846564
 30
0.0
 11
1308.096643893767
 21
1384.265092851266
 31
0.0
  0
LINE
  5
D7
330
20
100
AcDbEntity
  8
33
  6
Continuous
100
AcDbLine
 10
1326.778859294012
 20
1407.737945846564
 30
0.0
 11
1318.798583994468
 21
1389.399047129807
 31
0.0
  0
LINE
  5
D8
330
20
100
AcDbEntity
  8
33
  6
Continuous
100
AcDbLine
 10
1326.778859294012
 20
1407.737945846564
 30
0.0
 11
1310.698288797034
 21
1395.846131330194
 31
0.0
  0
TEXT
  5
D9
330
20
100
AcDbEntity
  8
33
100
AcDbText
 10
1457.134434345164
 20
1579.401339305742
 30
0.0
 40
20.0
  1
%%c181%%p0.5_
 41
0.75
 51
15.0
 72
     1
 11
1510.884434345164
 21
1579.401339305742
 31
0.0
100
AcDbText
  0
LINE
  5
DA
330
20
100
AcDbEntity
  8
33
  6
Continuous
100
AcDbLine
 10
1437.016175017192
 20
1420.090289148062
 30
0.0
 11
1329.257576485635
 21
1537.005148950034
 31
0.0
  0
LINE
  5
DB
330
20
100
AcDbEntity
  8
33
  6
Continuous
100
AcDbLine
 10
1437.016175017192
 20
1420.090289148062
 30
0.0
 11
1473.889060349756
 21
1380.084310248026
 31
0.0
  0
LINE
  5
DC
330
20
100
AcDbEntity
  8
33
  6
Continuous
100
AcDbLine
 10
1437.016175017192
 20
1420.090289148062
 30
0.0
 11
1453.915119130222
 21
1409.393294810179
 31
0.0
  0
LINE
  5
DD
330
20
100
AcDbEntity
  8
33
  6
Continuous
100
AcDbLine
 10
1437.016175017192
 20
1420.090289148062
 30
0.0
 11
1446.302592747268
 21
1402.376948250802
 31
0.0
  0
LINE
  5
DE
330
20
100
AcDbEntity
  8
33
  6
Continuous
100
AcDbLine
 10
1473.889060349756
 20
1380.084310248026
 30
0.0
 11
1543.889060349755
 21
1380.084310248026
 31
0.0
  0
LINE
  5
DF
330
20
100
AcDbEntity
  8
33
  6
Continuous
100
AcDbLine
 10
1329.257576485635
 20
1537.005148950034
 30
0.0
 11
1308.925765441945
 21
1559.06455645984
 31
0.0
  0
LINE
  5
E0
330
20
100
AcDbEntity
  8
33
  6
Continuous
100
AcDbLine
 10
1329.257576485635
 20
1537.005148950034
 30
0.0
 11
1312.358632372605
 21
1547.702143287917
 31
0.0
  0
LINE
  5
E1
330
20
100
AcDbEntity
  8
33
  6
Continuous
100
AcDbLine
 10
1329.257576485635
 20
1537.005148950034
 30
0.0
 11
1319.971158755559
 21
1554.718489847293
 31
0.0
  0
TEXT
  5
E2
330
20
100
AcDbEntity
  8
33
100
AcDbText
 10
1462.746189716258
 20
1386.522616161212
 30
0.0
 40
20.0
  1
%%c159%%p0.5_
 41
0.75
 51
15.0
 72
     1
 11
1518.996189716258
 21
1386.522616161212
 31
0.0
100
AcDbText
  0
LINE
  5
E3
330
20
100
AcDbEntity
  8
33
  6
Continuous
100
AcDbLine
 10
1537.516884904908
 20
1573.285840860271
 30
0.0
 11
1528.539639899697
 21
1573.285840860271
 31
0.0
  0
LINE
  5
E4
330
20
100
AcDbEntity
  8
33
  6
Continuous
100
AcDbLine
 10
1352.498205606147
 20
1216.579010018626
 30
0.0
 11
1352.701568831772
 21
1316.14083846869
 31
0.0
  0
LINE
  5
E5
330
20
100
AcDbEntity
  8
33
  6
Continuous
100
AcDbLine
 10
1352.498205606147
 20
1216.579010018626
 30
0.0
 11
1347.361295079396
 21
1235.908059406534
 31
0.0
  0
LINE
  5
E6
330
20
100
AcDbEntity
  8
33
  6
Continuous
100
AcDbLine
 10
1352.498205606147
 20
1216.579010018626
 30
0.0
 11
1357.714035286967
 21
1235.886913082933
 31
0.0
  0
LINE
  5
E7
330
20
100
AcDbEntity
  8
33
  6
Continuous
100
AcDbLine
 10
1352.701568831772
 20
1316.14083846869
 30
0.0
 11
1366.190318831771
 21
1231.83615096869
 31
0.0
  0
LINE
  5
E8
330
20
100
AcDbEntity
  8
33
  6
Continuous
100
AcDbLine
 10
1366.190318831771
 20
1231.83615096869
 30
0.0
 11
1369.56250633177
 21
1372.62497909369
 31
0.0
  0
TEXT
  5
E9
330
20
100
AcDbEntity
  8
33
100
AcDbText
 10
1344.194116560244
 20
1229.825091242904
 30
0.0
 40
20.0
  1
2-R15000
 50
89.88296508789103
 41
0.75
 51
15.0
 72
     1
 11
1344.298802020945
 21
1281.074984325274
 31
0.0
100
AcDbText
  0
LINE
  5
EA
330
20
100
AcDbEntity
  8
33
  6
Continuous
100
AcDbLine
 10
908.6484584780611
 20
1456.720240834803
 30
0.0
 11
1058.286349603454
 21
1452.81111190619
 31
0.0
  0
LINE
  5
EB
330
20
100
AcDbEntity
  8
33
  6
Continuous
100
AcDbLine
 10
908.6484584780611
 20
1456.720240834803
 30
0.0
 11
928.0955675867078
 21
1461.390352965833
 31
0.0
  0
LINE
  5
EC
330
20
100
AcDbEntity
  8
33
  6
Continuous
100
AcDbLine
 10
908.6484584780611
 20
1456.720240834803
 30
0.0
 11
927.8252050618318
 21
1451.041122024474
 31
0.0
  0
LINE
  5
ED
330
20
100
AcDbEntity
  8
33
  6
Continuous
100
AcDbLine
 10
1058.286349603454
 20
1452.81111190619
 30
0.0
 11
926.3284414401892
 21
1437.815895069455
 31
0.0
  0
LINE
  5
EE
330
20
100
AcDbEntity
  8
33
  6
Continuous
100
AcDbLine
 10
926.3284414401892
 20
1437.815895069455
 30
0.0
 11
1142.259563889169
 21
1428.818764967414
 31
0.0
  0
TEXT
  5
EF
330
20
100
AcDbEntity
  8
33
100
AcDbText
 10
948.8698137645867
 20
1461.873092414144
 30
0.0
 40
20.0
  1
2-R1500
 50
358.503540039063
 41
0.75
 51
15.0
 72
     1
 11
993.8544660834452
 21
1460.697909129962
 31
0.0
100
AcDbText
  0
LINE
  5
F0
330
20
100
AcDbEntity
  8
33
  6
Continuous
100
AcDbLine
 10
1831.223752292748
 20
1583.673665568801
 30
0.0
 11
1784.745413697842
 21
1542.108846971956
 31
0.0
  0
LINE
  5
F1
330
20
100
AcDbEntity
  8
33
  6
Continuous
100
AcDbLine
 10
1831.223752292748
 20
1583.673665568801
 30
0.0
 11
1820.274166124903
 21
1566.937281169746
 31
0.0
  0
LINE
  5
F2
330
20
100
AcDbEntity
  8
33
  6
Continuous
100
AcDbLine
 10
1831.223752292748
 20
1583.673665568801
 30
0.0
 11
1813.37294031094
 21
1574.65432459564
 31
0.0
  0
TEXT
  5
F3
330
20
100
AcDbEntity
  8
33
100
AcDbText
 10
1782.577690087209
 20
1546.708850708146
 30
0.0
 40
20.0
  1
R90
 50
41.80574417114299
 41
0.75
 51
15.0
 72
     1
 11
1796.554112079539
 21
1559.207735790117
 31
0.0
100
AcDbText
  0
LINE
  5
F4
330
20
100
AcDbEntity
  8
33
  6
Continuous
100
AcDbLine
 10
893.1368757514137
 20
1017.547719049047
 30
0.0
 11
903.1368757514137
 21
1017.547719049047
 31
0.0
  0
LINE
  5
F5
330
20
100
AcDbEntity
  8
33
  6
Continuous
100
AcDbLine
 10
1292.636875751413
 20
827.5477190490471
 30
0.0
 11
1473.636875751413
 21
827.5477190490471
 31
0.0
  0
LINE
  5
F6
330
20
100
AcDbEntity
  8
33
  6
Continuous
100
AcDbLine
 10
1858.136875751414
 20
874.1761530524716
 30
0.0
 11
1858.136875751414
 21
1012.547719049047
 31
0.0
  0
LINE
  5
F7
330
20
100
AcDbEntity
  8
33
  6
Continuous
100
AcDbLine
 10
908.1368757514137
 20
874.1761530524716
 30
0.0
 11
908.1368757514137
 21
1012.547719049047
 31
0.0
  0
LINE
  5
F8
330
20
100
AcDbEntity
  8
33
  6
Continuous
100
AcDbLine
 10
1863.136875751414
 20
1017.547719049047
 30
0.0
 11
1873.136875751414
 21
1017.547719049047
 31
0.0
  0
ARC
  5
F9
330
20
100
AcDbEntity
  8
33
  6
Continuous
100
AcDbCircle
 10
903.1368757514137
 20
1012.547719049047
 30
0.0
 40
5.0
100
AcDbArc
 50
0.0
 51
90.00000000000101
  0
ARC
  5
FA
330
20
100
AcDbEntity
  8
33
  6
Continuous
100
AcDbCircle
 10
1863.136875751414
 20
1012.547719049047
 30
0.0
 40
5.0
100
AcDbArc
 50
90.0
 51
180.0
  0
LINE
  5
FB
330
20
100
AcDbEntity
  8
33
  6
Continuous
100
AcDbLine
 10
1873.136875751414
 20
1017.547719049047
 30
0.0
 11
908.1368757514137
 21
1017.547719049047
 31
0.0
  0
LINE
  5
FC
330
20
100
AcDbEntity
  8
33
  6
Continuous
100
AcDbLine
 10
911.5977085585567
 20
1017.547719049047
 30
0.0
 11
899.5284537942707
 21
1017.547719049047
 31
0.0
  0
LINE
  5
FD
330
20
100
AcDbEntity
  8
33
  6
DASHDOT
100
AcDbLine
 10
1383.136875751414
 20
1061.672719049047
 30
0.0
 11
1383.136875751414
 21
783.235219049047
 31
0.0
  0
LINE
  5
FE
330
20
100
AcDbEntity
  8
33
  6
Continuous
100
AcDbLine
 10
1292.636875751414
 20
827.5477190490471
 30
0.0
 11
1292.636875751414
 21
820.5477190490471
 31
0.0
  0
LINE
  5
FF
330
20
100
AcDbEntity
  8
33
  6
Continuous
100
AcDbLine
 10
1292.636875751414
 20
820.5477190490471
 30
0.0
 11
1473.636875751413
 21
820.5477190490471
 31
0.0
  0
LINE
  5
100
330
20
100
AcDbEntity
  8
33
  6
Continuous
100
AcDbLine
 10
1473.636875751413
 20
820.5477190490471
 30
0.0
 11
1473.636875751413
 21
827.5477190490471
 31
0.0
  0
LINE
  5
101
330
20
100
AcDbEntity
  8
33
  6
Continuous
100
AcDbLine
 10
1829.539760669589
 20
844.2089724392344
 30
0.0
 11
1473.636875751413
 21
827.5477190490471
 31
0.0
  0
LINE
  5
102
330
20
100
AcDbEntity
  8
33
  6
Continuous
100
AcDbLine
 10
936.7339908332388
 20
844.2089724392344
 30
0.0
 11
1292.636875751414
 21
827.5477190490471
 31
0.0
  0
ARC
  5
103
330
20
100
AcDbEntity
  8
33
  6
Continuous
100
AcDbCircle
 10
1828.136875751414
 20
874.1761530524716
 30
0.0
 40
30.0
100
AcDbArc
 50
272.680290297367
 51
0.0
  0
ARC
  5
104
330
20
100
AcDbEntity
  8
33
  6
Continuous
100
AcDbCircle
 10
938.1368757514136
 20
874.1761530524716
 30
0.0
 40
30.0
100
AcDbArc
 50
180.0
 51
267.319709702633
  0
LINE
  5
105
330
20
100
AcDbEntity
  8
33
  6
Continuous
100
AcDbLine
 10
893.1368757514137
 20
1016.347719049047
 30
0.0
 11
903.1368757514137
 21
1016.347719049047
 31
0.0
  0
ARC
  5
106
330
20
100
AcDbEntity
  8
33
  6
Continuous
100
AcDbCircle
 10
903.1368757514137
 20
1012.547719049047
 30
0.0
 40
3.799999999999999
100
AcDbArc
 50
0.0
 51
90.0
  0
LINE
  5
107
330
20
100
AcDbEntity
  8
33
  6
Continuous
100
AcDbLine
 10
906.9368757514137
 20
1012.547719049047
 30
0.0
 11
906.9368757514137
 21
874.1761530524716
 31
0.0
  0
ARC
  5
108
330
20
100
AcDbEntity
  8
33
  6
Continuous
100
AcDbCircle
 10
938.1368757514136
 20
874.1761530524716
 30
0.0
 40
31.2
100
AcDbArc
 50
180.0
 51
267.319709702633
  0
LINE
  5
109
330
20
100
AcDbEntity
  8
33
  6
Continuous
100
AcDbLine
 10
936.6778754365117
 20
843.0102852147051
 30
0.0
 11
1291.436875751414
 21
826.40258168891
 31
0.0
  0
LINE
  5
10A
330
20
100
AcDbEntity
  8
33
  6
Continuous
100
AcDbLine
 10
1291.436875751414
 20
826.40258168891
 30
0.0
 11
1291.436875751414
 21
819.3477190490471
 31
0.0
  0
LINE
  5
10B
330
20
100
AcDbEntity
  8
33
  6
Continuous
100
AcDbLine
 10
1291.436875751414
 20
819.3477190490471
 30
0.0
 11
1474.836875751414
 21
819.3477190490471
 31
0.0
  0
LINE
  5
10C
330
20
100
AcDbEntity
  8
33
  6
Continuous
100
AcDbLine
 10
1474.836875751414
 20
819.3477190490471
 30
0.0
 11
1474.836875751414
 21
826.40258168891
 31
0.0
  0
LINE
  5
10D
330
20
100
AcDbEntity
  8
33
  6
Continuous
100
AcDbLine
 10
1474.836875751414
 20
826.40258168891
 30
0.0
 11
1829.595876066315
 21
843.0102852147051
 31
0.0
  0
ARC
  5
10E
330
20
100
AcDbEntity
  8
33
  6
Continuous
100
AcDbCircle
 10
1828.136875751414
 20
874.1761530524716
 30
0.0
 40
31.2
100
AcDbArc
 50
272.680290297367
 51
0.0
  0
LINE
  5
10F
330
20
100
AcDbEntity
  8
33
  6
Continuous
100
AcDbLine
 10
1859.336875751414
 20
874.1761530524716
 30
0.0
 11
1859.336875751414
 21
1012.547719049047
 31
0.0
  0
ARC
  5
110
330
20
100
AcDbEntity
  8
33
  6
Continuous
100
AcDbCircle
 10
1863.136875751414
 20
1012.547719049047
 30
0.0
 40
3.799999999999999
100
AcDbArc
 50
90.0
 51
180.0
  0
LINE
  5
111
330
20
100
AcDbEntity
  8
33
  6
Continuous
100
AcDbLine
 10
1863.136875751414
 20
1016.347719049047
 30
0.0
 11
1873.136875751414
 21
1016.347719049047
 31
0.0
  0
LINE
  5
112
330
20
100
AcDbEntity
  8
33
  6
Continuous
100
AcDbLine
 10
893.1368757514137
 20
1017.547719049047
 30
0.0
 11
893.1368757514137
 21
1016.347719049047
 31
0.0
  0
LINE
  5
113
330
20
100
AcDbEntity
  8
33
  6
Continuous
100
AcDbLine
 10
1873.136875751414
 20
1017.547719049047
 30
0.0
 11
1873.136875751414
 21
1016.347719049047
 31
0.0
  0
LINE
  5
114
330
20
100
AcDbEntity
  8
33
  6
Continuous
100
AcDbLine
 10
1303.636875751414
 20
820.5477190490471
 30
0.0
 11
1303.636875751414
 21
819.3477190490471
 31
0.0
  0
LINE
  5
115
330
20
100
AcDbEntity
  8
33
  6
Continuous
100
AcDbLine
 10
1462.636875751414
 20
820.5477190490471
 30
0.0
 11
1462.636875751414
 21
819.3477190490471
 31
0.0
  0
LINE
  5
116
330
20
100
AcDbEntity
  8
33
  6
Continuous
100
AcDbLine
 10
1904.213884679985
 20
826.40258168891
 30
0.0
 11
1904.213884679985
 21
843.0102852147051
 31
0.0
  0
LINE
  5
117
330
20
100
AcDbEntity
  8
33
  6
Continuous
100
AcDbLine
 10
1479.836875751414
 20
826.40258168891
 30
0.0
 11
1909.213884679985
 21
826.40258168891
 31
0.0
  0
LINE
  5
118
330
20
100
AcDbEntity
  8
33
  6
Continuous
100
AcDbLine
 10
1834.595876066316
 20
843.0102852147051
 30
0.0
 11
1909.213884679985
 21
843.0102852147051
 31
0.0
  0
LINE
  5
119
330
20
100
AcDbEntity
  8
33
  6
Continuous
100
AcDbLine
 10
1904.213884679985
 20
815.2776297633325
 30
0.0
 11
1904.213884679985
 21
826.40258168891
 31
0.0
  0
LINE
  5
11A
330
20
100
AcDbEntity
  8
33
  6
Continuous
100
AcDbLine
 10
1904.213884679985
 20
826.40258168891
 30
0.0
 11
1909.390265582036
 21
807.0840651631286
 31
0.0
  0
LINE
  5
11B
330
20
100
AcDbEntity
  8
33
  6
Continuous
100
AcDbLine
 10
1904.213884679985
 20
826.40258168891
 30
0.0
 11
1899.037503777934
 21
807.0840651631286
 31
0.0
  0
LINE
  5
11C
330
20
100
AcDbEntity
  8
33
  6
Continuous
100
AcDbLine
 10
1904.213884679985
 20
843.0102852147051
 30
0.0
 11
1904.213884679985
 21
873.010285214705
 31
0.0
  0
LINE
  5
11D
330
20
100
AcDbEntity
  8
33
  6
Continuous
100
AcDbLine
 10
1904.213884679985
 20
843.0102852147051
 30
0.0
 11
1899.037503777934
 21
862.3288017404865
 31
0.0
  0
LINE
  5
11E
330
20
100
AcDbEntity
  8
33
  6
Continuous
100
AcDbLine
 10
1904.213884679985
 20
843.0102852147051
 30
0.0
 11
1909.390265582036
 21
862.3288017404865
 31
0.0
  0
TEXT
  5
11F
330
20
100
AcDbEntity
  8
33
100
AcDbText
 10
1898.787998798289
 20
830.0322902334771
 30
0.0
 40
20.0
  1
15%%p2_
 50
90.0
 41
0.75
 51
15.0
 72
     1
 11
1898.787998798289
 21
862.5322902334771
 31
0.0
100
AcDbText
  0
LINE
  5
120
330
20
100
AcDbEntity
  8
33
  6
Continuous
100
AcDbLine
 10
907.1731585539097
 20
1015.498722461155
 30
0.0
 11
880.2676717779718
 21
995.827607436427
 31
0.0
  0
LINE
  5
121
330
20
100
AcDbEntity
  8
33
  6
Continuous
100
AcDbLine
 10
907.1731585539097
 20
1015.498722461155
 30
0.0
 11
894.6332628902252
 21
999.9182533814419
 31
0.0
  0
LINE
  5
122
330
20
100
AcDbEntity
  8
33
  6
Continuous
100
AcDbLine
 10
907.1731585539097
 20
1015.498722461155
 30
0.0
 11
888.5230558084955
 21
1008.275588267087
 31
0.0
  0
TEXT
  5
123
330
20
100
AcDbEntity
  8
33
100
AcDbText
 10
874.3695023389513
 20
961.1670194523531
 30
0.0
 40
20.0
  1
R5
 50
36.171249389648
 41
0.75
 51
15.0
 72
     1
 11
884.4602094916481
 21
968.5445277823051
 31
0.0
100
AcDbText
  0
LINE
  5
124
330
20
100
AcDbEntity
  8
33
  6
Continuous
100
AcDbLine
 10
1850.20005317496
 20
853.84843301364
 30
0.0
 11
1808.619377345801
 21
892.1584334752461
 31
0.0
  0
LINE
  5
125
330
20
100
AcDbEntity
  8
33
  6
Continuous
100
AcDbLine
 10
1850.20005317496
 20
853.84843301364
 30
0.0
 11
1832.484990526318
 21
863.1315658552345
 31
0.0
  0
LINE
  5
126
330
20
100
AcDbEntity
  8
33
  6
Continuous
100
AcDbLine
 10
1850.20005317496
 20
853.84843301364
 30
0.0
 11
1839.4999253124
 21
870.7453932054871
 31
0.0
  0
TEXT
  5
127
330
20
100
AcDbEntity
  8
33
100
AcDbText
 10
1806.076275056221
 20
899.74245947924
 30
0.0
 40
20.0
  1
R30
 50
317.344329833984
 41
0.75
 51
15.0
 72
     1
 11
1819.865757587351
 21
887.037630809649
 31
0.0
100
AcDbText
  0
LINE
  5
128
330
20
100
AcDbEntity
  8
33
  6
Continuous
100
AcDbLine
 10
2035.458304322842
 20
1202.985219049044
 30
0.0
 11
2035.458304322842
 21
1212.985219049044
 31
0.0
  0
LINE
  5
129
330
20
100
AcDbEntity
  8
33
  6
Continuous
100
AcDbLine
 10
2040.458304322843
 20
1619.985219049046
 30
0.0
 11
2194.221440223175
 21
1619.985219049046
 31
0.0
  0
LINE
  5
12A
330
20
100
AcDbEntity
  8
33
  6
Continuous
100
AcDbLine
 10
2040.458304322843
 20
1217.985219049044
 30
0.0
 11
2184.646291676516
 21
1217.985219049044
 31
0.0
  0
LINE
  5
12B
330
20
100
AcDbEntity
  8
33
  6
Continuous
100
AcDbLine
 10
2225.458304322842
 20
1570.485219049045
 30
0.0
 11
2225.458304322842
 21
1389.485219049045
 31
0.0
  0
LINE
  5
12C
330
20
100
AcDbEntity
  8
33
  6
DASHDOT
100
AcDbLine
 10
2010.257411465699
 20
1479.985219049046
 30
0.0
 11
2275.435982894271
 21
1479.985219049046
 31
0.0
  0
LINE
  5
12D
330
20
100
AcDbEntity
  8
33
  6
Continuous
100
AcDbLine
 10
2225.458304322842
 20
1389.485219049046
 30
0.0
 11
2232.458304322842
 21
1389.485219049046
 31
0.0
  0
LINE
  5
12E
330
20
100
AcDbEntity
  8
33
  6
Continuous
100
AcDbLine
 10
2232.458304322842
 20
1389.485219049046
 30
0.0
 11
2232.458304322842
 21
1570.485219049046
 31
0.0
  0
LINE
  5
12F
330
20
100
AcDbEntity
  8
33
  6
Continuous
100
AcDbLine
 10
2232.458304322842
 20
1570.485219049046
 30
0.0
 11
2225.458304322842
 21
1570.485219049046
 31
0.0
  0
LINE
  5
130
330
20
100
AcDbEntity
  8
33
  6
Continuous
100
AcDbLine
 10
2214.5604727526
 20
1245.717671795463
 30
0.0
 11
2225.458304322842
 21
1389.485219049044
 31
0.0
  0
LINE
  5
131
330
20
100
AcDbEntity
  8
33
  6
Continuous
100
AcDbLine
 10
2224.166495122112
 20
1591.800070861102
 30
0.0
 11
2225.458304322842
 21
1570.485219049046
 31
0.0
  0
ARC
  5
132
330
20
100
AcDbEntity
  8
33
  6
Continuous
100
AcDbCircle
 10
2194.221440223175
 20
1589.985219049046
 30
0.0
 40
30.0
100
AcDbArc
 50
3.468229258916999
 51
90.0
  0
ARC
  5
133
330
20
100
AcDbEntity
  8
33
  6
Continuous
100
AcDbCircle
 10
2184.646291676516
 20
1247.985219049044
 30
0.0
 40
30.0
100
AcDbArc
 50
270.0
 51
355.665169512091
  0
LINE
  5
134
330
20
100
AcDbEntity
  8
33
  6
Continuous
100
AcDbLine
 10
2035.458304322843
 20
1624.985219049046
 30
0.0
 11
2035.458304322842
 21
1634.985219049044
 31
0.0
  0
ARC
  5
135
330
20
100
AcDbEntity
  8
33
  6
Continuous
100
AcDbCircle
 10
2040.458304322843
 20
1212.985219049044
 30
0.0
 40
5.0
100
AcDbArc
 50
90.0
 51
180.0
  0
ARC
  5
136
330
20
100
AcDbEntity
  8
33
  6
Continuous
100
AcDbCircle
 10
2040.458304322843
 20
1624.985219049046
 30
0.0
 40
5.0
100
AcDbArc
 50
180.0
 51
270.0
  0
LINE
  5
137
330
20
100
AcDbEntity
  8
33
  6
Continuous
100
AcDbLine
 10
2035.458304322842
 20
1634.985219049044
 30
0.0
 11
2035.458304322842
 21
1212.985219049044
 31
0.0
  0
LINE
  5
138
330
20
100
AcDbEntity
  8
33
  6
Continuous
100
AcDbLine
 10
2036.658304322843
 20
1202.985219049044
 30
0.0
 11
2036.658304322843
 21
1212.985219049044
 31
0.0
  0
ARC
  5
139
330
20
100
AcDbEntity
  8
33
  6
Continuous
100
AcDbCircle
 10
2040.458304322843
 20
1212.985219049044
 30
0.0
 40
3.799999999999999
100
AcDbArc
 50
90.0
 51
180.0
  0
LINE
  5
13A
330
20
100
AcDbEntity
  8
33
  6
Continuous
100
AcDbLine
 10
2040.458304322843
 20
1216.785219049044
 30
0.0
 11
2184.646291676516
 21
1216.785219049044
 31
0.0
  0
ARC
  5
13B
330
20
100
AcDbEntity
  8
33
  6
Continuous
100
AcDbCircle
 10
2184.646291676516
 20
1247.985219049044
 30
0.0
 40
31.2
100
AcDbArc
 50
270.0
 51
355.665169512091
  0
LINE
  5
13C
330
20
100
AcDbEntity
  8
33
  6
Continuous
100
AcDbLine
 10
2215.757039995643
 20
1245.62696990532
 30
0.0
 11
2226.570784828695
 21
1388.285219049046
 31
0.0
  0
LINE
  5
13D
330
20
100
AcDbEntity
  8
33
  6
Continuous
100
AcDbLine
 10
2226.570784828695
 20
1388.285219049046
 30
0.0
 11
2233.658304322842
 21
1388.285219049046
 31
0.0
  0
LINE
  5
13E
330
20
100
AcDbEntity
  8
33
  6
Continuous
100
AcDbLine
 10
2233.658304322842
 20
1388.285219049046
 30
0.0
 11
2233.658304322842
 21
1571.685219049046
 31
0.0
  0
LINE
  5
13F
330
20
100
AcDbEntity
  8
33
  6
Continuous
100
AcDbLine
 10
2233.658304322842
 20
1571.685219049046
 30
0.0
 11
2226.587778886829
 21
1571.685219049046
 31
0.0
  0
LINE
  5
140
330
20
100
AcDbEntity
  8
33
  6
Continuous
100
AcDbLine
 10
2226.587778886829
 20
1571.685219049046
 30
0.0
 11
2225.364297318069
 21
1591.872664933585
 31
0.0
  0
ARC
  5
141
330
20
100
AcDbEntity
  8
33
  6
Continuous
100
AcDbCircle
 10
2194.221440223175
 20
1589.985219049046
 30
0.0
 40
31.2
100
AcDbArc
 50
3.468229258916999
 51
90.0
  0
LINE
  5
142
330
20
100
AcDbEntity
  8
33
  6
Continuous
100
AcDbLine
 10
2194.221440223175
 20
1621.185219049046
 30
0.0
 11
2040.458304322843
 21
1621.185219049046
 31
0.0
  0
ARC
  5
143
330
20
100
AcDbEntity
  8
33
  6
Continuous
100
AcDbCircle
 10
2040.458304322843
 20
1624.985219049046
 30
0.0
 40
3.799999999999999
100
AcDbArc
 50
180.0
 51
270.0
  0
LINE
  5
144
330
20
100
AcDbEntity
  8
33
  6
Continuous
100
AcDbLine
 10
2036.658304322843
 20
1624.985219049046
 30
0.0
 11
2036.658304322843
 21
1634.985219049044
 31
0.0
  0
LINE
  5
145
330
20
100
AcDbEntity
  8
33
  6
Continuous
100
AcDbLine
 10
2035.458304322842
 20
1634.985219049044
 30
0.0
 11
2036.658304322843
 21
1634.985219049044
 31
0.0
  0
LINE
  5
146
330
20
100
AcDbEntity
  8
33
  6
Continuous
100
AcDbLine
 10
2035.458304322842
 20
1202.985219049044
 30
0.0
 11
2036.658304322843
 21
1202.985219049044
 31
0.0
  0
LINE
  5
147
330
20
100
AcDbEntity
  8
33
  6
Continuous
100
AcDbLine
 10
2215.31798861331
 20
1190.444269263718
 30
0.0
 11
2226.570784828695
 21
1190.444269263718
 31
0.0
  0
LINE
  5
148
330
20
100
AcDbEntity
  8
33
  6
Continuous
100
AcDbLine
 10
2215.31798861331
 20
1237.267963849445
 30
0.0
 11
2215.31798861331
 21
1185.444269263718
 31
0.0
  0
LINE
  5
149
330
20
100
AcDbEntity
  8
33
  6
Continuous
100
AcDbLine
 10
2226.570784828695
 20
1383.285219049046
 30
0.0
 11
2226.570784828695
 21
1185.444269263718
 31
0.0
  0
LINE
  5
14A
330
20
100
AcDbEntity
  8
33
  6
Continuous
100
AcDbLine
 10
2185.317988613311
 20
1190.444269263718
 30
0.0
 11
2215.31798861331
 21
1190.444269263718
 31
0.0
  0
LINE
  5
14B
330
20
100
AcDbEntity
  8
33
  6
Continuous
100
AcDbLine
 10
2215.31798861331
 20
1190.444269263718
 30
0.0
 11
2195.99947208753
 21
1185.267888361668
 31
0.0
  0
LINE
  5
14C
330
20
100
AcDbEntity
  8
33
  6
Continuous
100
AcDbLine
 10
2215.31798861331
 20
1190.444269263718
 30
0.0
 11
2195.99947208753
 21
1195.620650165768
 31
0.0
  0
LINE
  5
14D
330
20
100
AcDbEntity
  8
33
  6
Continuous
100
AcDbLine
 10
2226.570784828695
 20
1190.444269263718
 30
0.0
 11
2256.570784828695
 21
1190.444269263718
 31
0.0
  0
LINE
  5
14E
330
20
100
AcDbEntity
  8
33
  6
Continuous
100
AcDbLine
 10
2226.570784828695
 20
1190.444269263718
 30
0.0
 11
2245.889301354477
 21
1195.620650165768
 31
0.0
  0
LINE
  5
14F
330
20
100
AcDbEntity
  8
33
  6
Continuous
100
AcDbLine
 10
2226.570784828695
 20
1190.444269263718
 30
0.0
 11
2245.889301354477
 21
1185.267888361668
 31
0.0
  0
TEXT
  5
150
330
20
100
AcDbEntity
  8
33
100
AcDbText
 10
2225.079868915476
 20
1198.146090276632
 30
0.0
 40
20.0
  1
13%%p2_
 50
0.00000001
 41
0.75
 51
15.0
 72
     1
 11
2257.579868915476
 21
1198.146090282305
 31
0.0
100
AcDbText
  0
LINE
  5
151
330
20
100
AcDbEntity
  8
33
  6
Continuous
100
AcDbLine
 10
2204.341842321329
 20
1225.355917583962
 30
0.0
 11
2161.234135120699
 21
1274.88473347256
 31
0.0
  0
LINE
  5
152
330
20
100
AcDbEntity
  8
33
  6
Continuous
100
AcDbLine
 10
2204.341842321329
 20
1225.355917583962
 30
0.0
 11
2187.754285503103
 21
1236.529679654192
 31
0.0
  0
LINE
  5
153
330
20
100
AcDbEntity
  8
33
  6
Continuous
100
AcDbLine
 10
2204.341842321329
 20
1225.355917583962
 30
0.0
 11
2195.563477765142
 21
1243.326457801737
 31
0.0
  0
TEXT
  5
154
330
20
100
AcDbEntity
  8
33
100
AcDbText
 10
2164.197761716335
 20
1280.172887279362
 30
0.0
 40
20.0
  1
R30
 50
311.034881591797
 41
0.75
 51
15.0
 72
     1
 11
2176.507481220164
 21
1266.029574169024
 31
0.0
100
AcDbText
  0
LINE
  5
155
330
20
100
AcDbEntity
  8
33
  6
Continuous
100
AcDbLine
 10
1993.556697179986
 20
1521.886826191902
 30
0.0
 11
2183.556697179987
 21
1521.886826191902
 31
0.0
  0
LINE
  5
156
330
20
100
AcDbEntity
  8
33
  6
Continuous
100
AcDbLine
 10
1993.556697179986
 20
1521.886826191902
 30
0.0
 11
2012.875213705768
 21
1527.063207093952
 31
0.0
  0
LINE
  5
157
330
20
100
AcDbEntity
  8
33
  6
Continuous
100
AcDbLine
 10
1993.556697179986
 20
1521.886826191902
 30
0.0
 11
2012.875213705768
 21
1516.710445289852
 31
0.0
  0
LINE
  5
158
330
20
100
AcDbEntity
  8
33
  6
Continuous
100
AcDbLine
 10
2183.556697179987
 20
1521.886826191902
 30
0.0
 11
2164.238180654205
 21
1516.710445289852
 31
0.0
  0
LINE
  5
159
330
20
100
AcDbEntity
  8
33
  6
Continuous
100
AcDbLine
 10
2183.556697179987
 20
1521.886826191902
 30
0.0
 11
2164.238180654205
 21
1527.063207093952
 31
0.0
  0
LINE
  5
15A
330
20
100
AcDbEntity
  8
33
  6
Continuous
100
AcDbLine
 10
2031.92277041691
 20
1483.520752954978
 30
0.0
 11
1990.021163274054
 21
1525.422360097835
 31
0.0
  0
LINE
  5
15B
330
20
100
AcDbEntity
  8
33
  6
Continuous
100
AcDbLine
 10
2221.922770416909
 20
1483.520752954978
 30
0.0
 11
2180.021163274054
 21
1525.422360097835
 31
0.0
  0
TEXT
  5
15C
330
20
100
AcDbEntity
  8
33
100
AcDbText
 10
2040.041416767039
 20
1526.429537541167
 30
0.0
 40
20.0
  1
190%%p2_
 50
0.00000001
 41
0.75
 51
15.0
 72
     1
 11
2078.791416767039
 21
1526.42953754793
 31
0.0
100
AcDbText
  0
LINE
  5
15D
330
20
100
AcDbEntity
  8
33
  6
Continuous
100
AcDbLine
 10
2183.556697179987
 20
1521.886826191902
 30
0.0
 11
2190.556697179986
 21
1521.886826191902
 31
0.0
  0
LINE
  5
15E
330
20
100
AcDbEntity
  8
33
  6
Continuous
100
AcDbLine
 10
2228.922770416909
 20
1483.520752954978
 30
0.0
 11
2187.021163274053
 21
1525.422360097835
 31
0.0
  0
LINE
  5
15F
330
20
100
AcDbEntity
  8
33
  6
Continuous
100
AcDbLine
 10
2190.556697179986
 20
1521.886826191902
 30
0.0
 11
2215.556697179986
 21
1521.886826191902
 31
0.0
  0
LINE
  5
160
330
20
100
AcDbEntity
  8
33
  6
Continuous
100
AcDbLine
 10
2190.556697179986
 20
1521.886826191902
 30
0.0
 11
2209.875213705768
 21
1527.063207093952
 31
0.0
  0
LINE
  5
161
330
20
100
AcDbEntity
  8
33
  6
Continuous
100
AcDbLine
 10
2190.556697179986
 20
1521.886826191902
 30
0.0
 11
2209.875213705768
 21
1516.710445289852
 31
0.0
  0
TEXT
  5
162
330
20
100
AcDbEntity
  8
33
100
AcDbText
 10
2198.056675556101
 20
1526.886812937682
 30
0.0
 40
20.0
  1
7
 50
0.00000001
 41
0.75
 51
15.0
 72
     1
 11
2203.056675556101
 21
1526.886812938555
 31
0.0
100
AcDbText
  0
LINE
  5
163
330
20
100
AcDbEntity
  8
33
  6
Continuous
100
AcDbLine
 10
2037.175985505987
 20
1621.213431252189
 30
0.0
 11
2057.535043866415
 21
1644.608491928509
 31
0.0
  0
LINE
  5
164
330
20
100
AcDbEntity
  8
33
  6
Continuous
100
AcDbLine
 10
2037.175985505987
 20
1621.213431252189
 30
0.0
 11
2045.9530495036
 21
1639.184606716855
 31
0.0
  0
LINE
  5
165
330
20
100
AcDbEntity
  8
33
  6
Continuous
100
AcDbLine
 10
2037.175985505987
 20
1621.213431252189
 30
0.0
 11
2053.762733630895
 21
1632.388393741651
 31
0.0
  0
TEXT
  5
166
330
20
100
AcDbEntity
  8
33
100
AcDbText
 10
2071.820116570561
 20
1626.059882704411
 30
0.0
 40
20.0
  1
R5
 50
48.969264984131
 41
0.75
 51
15.0
 72
     1
 11
2080.025913837351
 21
1635.489352001055
 31
0.0
100
AcDbText
  0
LINE
  5
167
330
20
100
AcDbEntity
  8
33
  6
DIVIDE
100
AcDbLine
 10
1383.136875751414
 20
957.5477190490472
 30
0.0
 11
1333.136875751414
 21
957.5477190490472
 31
0.0
  0
LINE
  5
168
330
20
100
AcDbEntity
  8
33
  6
DIVIDE
100
AcDbLine
 10
906.9368757514137
 20
957.5477190490472
 30
0.0
 11
1859.336875751414
 21
957.5477190490472
 31
0.0
  0
LINE
  5
169
330
20
100
AcDbEntity
  8
33
  6
DIVIDE
100
AcDbLine
 10
2095.458304322842
 20
1379.985219049046
 30
0.0
 11
2095.458304322842
 21
1479.985219049046
 31
0.0
  0
LINE
  5
16A
330
20
100
AcDbEntity
  8
33
  6
DIVIDE
100
AcDbLine
 10
2095.458304322842
 20
1217.985219049044
 30
0.0
 11
2095.458304322842
 21
1619.985219049046
 31
0.0
  0
LINE
  5
16B
330
20
100
AcDbEntity
  8
17
  6
Continuous
100
AcDbLine
 10
2545.034197179985
 20
1614.784326191903
 30
0.0
 11
2495.034197179986
 21
1614.784326191903
 31
0.0
  0
LINE
  5
16C
330
20
100
AcDbEntity
  8
17
  6
Continuous
100
AcDbLine
 10
2470.034197179986
 20
1589.784326191903
 30
0.0
 11
2470.034197179986
 21
1433.755754763332
 31
0.0
  0
ARC
  5
16D
330
20
100
AcDbEntity
  8
17
  6
Continuous
100
AcDbCircle
 10
2495.034197179986
 20
1589.784326191903
 30
0.0
 40
25.0
100
AcDbArc
 50
90.0
 51
180.0
  0
LINE
  5
16E
330
20
100
AcDbEntity
  8
17
  6
Continuous
100
AcDbLine
 10
2328.471697179985
 20
1614.784326191903
 30
0.0
 11
2496.418125751414
 21
1614.784326191903
 31
0.0
  0
LINE
  5
16F
330
20
100
AcDbEntity
  8
17
  6
Continuous
100
AcDbLine
 10
2328.471697179985
 20
1614.784326191903
 30
0.0
 11
2329.278777267298
 21
1613.712331227601
 31
0.0
  0
LINE
  5
170
330
20
100
AcDbEntity
  8
17
  6
Continuous
100
AcDbLine
 10
2329.278777267298
 20
1613.712331227601
 30
0.0
 11
2330.081192706362
 21
1612.640429744569
 31
0.0
  0
LINE
  5
171
330
20
100
AcDbEntity
  8
17
  6
Continuous
100
AcDbLine
 10
2330.081192706362
 20
1612.640429744569
 30
0.0
 11
2330.874278848936
 21
1611.568715224078
 31
0.0
  0
LINE
  5
172
330
20
100
AcDbEntity
  8
17
  6
Continuous
100
AcDbLine
 10
2330.874278848936
 20
1611.568715224078
 30
0.0
 11
2331.653371046772
 21
1610.497281147398
 31
0.0
  0
LINE
  5
173
330
20
100
AcDbEntity
  8
17
  6
Continuous
100
AcDbLine
 10
2331.653371046772
 20
1610.497281147398
 30
0.0
 11
2332.413804651624
 21
1609.4262209958
 31
0.0
  0
LINE
  5
174
330
20
100
AcDbEntity
  8
17
  6
Continuous
100
AcDbLine
 10
2332.413804651624
 20
1609.4262209958
 30
0.0
 11
2333.150915015246
 21
1608.355628250554
 31
0.0
  0
LINE
  5
175
330
20
100
AcDbEntity
  8
17
  6
Continuous
100
AcDbLine
 10
2333.150915015246
 20
1608.355628250554
 30
0.0
 11
2333.860037489392
 21
1607.28559639293
 31
0.0
  0
LINE
  5
176
330
20
100
AcDbEntity
  8
17
  6
Continuous
100
AcDbLine
 10
2333.860037489392
 20
1607.28559639293
 30
0.0
 11
2334.536507425816
 21
1606.216218904198
 31
0.0
  0
LINE
  5
177
330
20
100
AcDbEntity
  8
17
  6
Continuous
100
AcDbLine
 10
2334.536507425816
 20
1606.216218904198
 30
0.0
 11
2335.175660176272
 21
1605.14758926563
 31
0.0
  0
LINE
  5
178
330
20
100
AcDbEntity
  8
17
  6
Continuous
100
AcDbLine
 10
2335.175660176272
 20
1605.14758926563
 30
0.0
 11
2335.772831092515
 21
1604.079800958495
 31
0.0
  0
LINE
  5
179
330
20
100
AcDbEntity
  8
17
  6
Continuous
100
AcDbLine
 10
2335.772831092515
 20
1604.079800958495
 30
0.0
 11
2336.323355526298
 21
1603.012947464064
 31
0.0
  0
LINE
  5
17A
330
20
100
AcDbEntity
  8
17
  6
Continuous
100
AcDbLine
 10
2336.323355526298
 20
1603.012947464064
 30
0.0
 11
2336.822568829374
 21
1601.947122263607
 31
0.0
  0
LINE
  5
17B
330
20
100
AcDbEntity
  8
17
  6
Continuous
100
AcDbLine
 10
2336.822568829374
 20
1601.947122263607
 30
0.0
 11
2337.265806353499
 21
1600.882418838395
 31
0.0
  0
LINE
  5
17C
330
20
100
AcDbEntity
  8
17
  6
Continuous
100
AcDbLine
 10
2337.265806353499
 20
1600.882418838395
 30
0.0
 11
2337.648403450427
 21
1599.818930669699
 31
0.0
  0
LINE
  5
17D
330
20
100
AcDbEntity
  8
17
  6
Continuous
100
AcDbLine
 10
2337.648403450427
 20
1599.818930669699
 30
0.0
 11
2337.965695471911
 21
1598.756751238787
 31
0.0
  0
LINE
  5
17E
330
20
100
AcDbEntity
  8
17
  6
Continuous
100
AcDbLine
 10
2337.965695471911
 20
1598.756751238787
 30
0.0
 11
2338.213017769705
 21
1597.695974026931
 31
0.0
  0
LINE
  5
17F
330
20
100
AcDbEntity
  8
17
  6
Continuous
100
AcDbLine
 10
2338.213017769705
 20
1597.695974026931
 30
0.0
 11
2338.385705695564
 21
1596.636692515402
 31
0.0
  0
LINE
  5
180
330
20
100
AcDbEntity
  8
17
  6
Continuous
100
AcDbLine
 10
2338.385705695564
 20
1596.636692515402
 30
0.0
 11
2338.479094601241
 21
1595.579000185469
 31
0.0
  0
LINE
  5
181
330
20
100
AcDbEntity
  8
17
  6
Continuous
100
AcDbLine
 10
2338.479094601241
 20
1595.579000185469
 30
0.0
 11
2338.488519838491
 21
1594.522990518403
 31
0.0
  0
LINE
  5
182
330
20
100
AcDbEntity
  8
17
  6
Continuous
100
AcDbLine
 10
2338.488519838491
 20
1594.522990518403
 30
0.0
 11
2338.409316759066
 21
1593.468756995475
 31
0.0
  0
LINE
  5
183
330
20
100
AcDbEntity
  8
17
  6
Continuous
100
AcDbLine
 10
2338.409316759066
 20
1593.468756995475
 30
0.0
 11
2338.239097178827
 21
1592.41685847186
 31
0.0
  0
LINE
  5
184
330
20
100
AcDbEntity
  8
17
  6
Continuous
100
AcDbLine
 10
2338.239097178827
 20
1592.41685847186
 30
0.0
 11
2337.983989853677
 21
1591.366406478875
 31
0.0
  0
LINE
  5
185
330
20
100
AcDbEntity
  8
17
  6
Continuous
100
AcDbLine
 10
2337.983989853677
 20
1591.366406478875
 30
0.0
 11
2337.652302225209
 21
1590.316979881257
 31
0.0
  0
LINE
  5
186
330
20
100
AcDbEntity
  8
17
  6
Continuous
100
AcDbLine
 10
2337.652302225209
 20
1590.316979881257
 30
0.0
 11
2337.252341735021
 21
1589.268157543744
 31
0.0
  0
LINE
  5
187
330
20
100
AcDbEntity
  8
17
  6
Continuous
100
AcDbLine
 10
2337.252341735021
 20
1589.268157543744
 30
0.0
 11
2336.792415824707
 21
1588.219518331072
 31
0.0
  0
LINE
  5
188
330
20
100
AcDbEntity
  8
17
  6
Continuous
100
AcDbLine
 10
2336.792415824707
 20
1588.219518331072
 30
0.0
 11
2336.280831935863
 21
1587.17064110798
 31
0.0
  0
LINE
  5
189
330
20
100
AcDbEntity
  8
17
  6
Continuous
100
AcDbLine
 10
2336.280831935863
 20
1587.17064110798
 30
0.0
 11
2335.725897510083
 21
1586.121104739205
 31
0.0
  0
LINE
  5
18A
330
20
100
AcDbEntity
  8
17
  6
Continuous
100
AcDbLine
 10
2335.725897510083
 20
1586.121104739205
 30
0.0
 11
2335.135919988963
 21
1585.070488089482
 31
0.0
  0
LINE
  5
18B
330
20
100
AcDbEntity
  8
17
  6
Continuous
100
AcDbLine
 10
2335.135919988963
 20
1585.070488089482
 30
0.0
 11
2334.5192068141
 21
1584.018370023552
 31
0.0
  0
LINE
  5
18C
330
20
100
AcDbEntity
  8
17
  6
Continuous
100
AcDbLine
 10
2334.5192068141
 20
1584.018370023552
 30
0.0
 11
2333.884065427085
 21
1582.96432940615
 31
0.0
  0
LINE
  5
18D
330
20
100
AcDbEntity
  8
17
  6
Continuous
100
AcDbLine
 10
2333.884065427085
 20
1582.96432940615
 30
0.0
 11
2333.238803269517
 21
1581.907945102014
 31
0.0
  0
LINE
  5
18E
330
20
100
AcDbEntity
  8
17
  6
Continuous
100
AcDbLine
 10
2333.238803269517
 20
1581.907945102014
 30
0.0
 11
2332.59172778299
 21
1580.848795975882
 31
0.0
  0
LINE
  5
18F
330
20
100
AcDbEntity
  8
17
  6
Continuous
100
AcDbLine
 10
2332.59172778299
 20
1580.848795975882
 30
0.0
 11
2331.9511464091
 21
1579.786460892491
 31
0.0
  0
LINE
  5
190
330
20
100
AcDbEntity
  8
17
  6
Continuous
100
AcDbLine
 10
2331.9511464091
 20
1579.786460892491
 30
0.0
 11
2331.325366589439
 21
1578.720518716577
 31
0.0
  0
LINE
  5
191
330
20
100
AcDbEntity
  8
17
  6
Continuous
100
AcDbLine
 10
2331.325366589439
 20
1578.720518716577
 30
0.0
 11
2330.722695765607
 21
1577.65054831288
 31
0.0
  0
LINE
  5
192
330
20
100
AcDbEntity
  8
17
  6
Continuous
100
AcDbLine
 10
2330.722695765607
 20
1577.65054831288
 30
0.0
 11
2330.151441379197
 21
1576.576128546135
 31
0.0
  0
LINE
  5
193
330
20
100
AcDbEntity
  8
17
  6
Continuous
100
AcDbLine
 10
2330.151441379197
 20
1576.576128546135
 30
0.0
 11
2329.619910871803
 21
1575.49683828108
 31
0.0
  0
LINE
  5
194
330
20
100
AcDbEntity
  8
17
  6
Continuous
100
AcDbLine
 10
2329.619910871803
 20
1575.49683828108
 30
0.0
 11
2329.136411685022
 21
1574.412256382454
 31
0.0
  0
LINE
  5
195
330
20
100
AcDbEntity
  8
17
  6
Continuous
100
AcDbLine
 10
2329.136411685022
 20
1574.412256382454
 30
0.0
 11
2328.70925126045
 21
1573.321961714993
 31
0.0
  0
LINE
  5
196
330
20
100
AcDbEntity
  8
17
  6
Continuous
100
AcDbLine
 10
2328.70925126045
 20
1573.321961714993
 30
0.0
 11
2328.346737039679
 21
1572.225533143434
 31
0.0
  0
LINE
  5
197
330
20
100
AcDbEntity
  8
17
  6
Continuous
100
AcDbLine
 10
2328.346737039679
 20
1572.225533143434
 30
0.0
 11
2328.013710733582
 21
1570.938894078731
 31
0.0
  0
LINE
  5
198
330
20
100
AcDbEntity
  8
17
  6
Continuous
100
AcDbLine
 10
2328.013710733582
 20
1570.938894078731
 30
0.0
 11
2327.77492172124
 21
1569.643787593841
 31
0.0
  0
LINE
  5
199
330
20
100
AcDbEntity
  8
17
  6
Continuous
100
AcDbLine
 10
2327.77492172124
 20
1569.643787593841
 30
0.0
 11
2327.625410145088
 21
1568.340659342459
 31
0.0
  0
LINE
  5
19A
330
20
100
AcDbEntity
  8
17
  6
Continuous
100
AcDbLine
 10
2327.625410145088
 20
1568.340659342459
 30
0.0
 11
2327.560216147561
 21
1567.029954978277
 31
0.0
  0
LINE
  5
19B
330
20
100
AcDbEntity
  8
17
  6
Continuous
100
AcDbLine
 10
2327.560216147561
 20
1567.029954978277
 30
0.0
 11
2327.574379871091
 21
1565.712120154991
 31
0.0
  0
LINE
  5
19C
330
20
100
AcDbEntity
  8
17
  6
Continuous
100
AcDbLine
 10
2327.574379871091
 20
1565.712120154991
 30
0.0
 11
2327.662941458112
 21
1564.387600526293
 31
0.0
  0
LINE
  5
19D
330
20
100
AcDbEntity
  8
17
  6
Continuous
100
AcDbLine
 10
2327.662941458112
 20
1564.387600526293
 30
0.0
 11
2327.820941051059
 21
1563.056841745879
 31
0.0
  0
LINE
  5
19E
330
20
100
AcDbEntity
  8
17
  6
Continuous
100
AcDbLine
 10
2327.820941051059
 20
1563.056841745879
 30
0.0
 11
2328.043418792366
 21
1561.720289467443
 31
0.0
  0
LINE
  5
19F
330
20
100
AcDbEntity
  8
17
  6
Continuous
100
AcDbLine
 10
2328.043418792366
 20
1561.720289467443
 30
0.0
 11
2328.325414824465
 21
1560.378389344677
 31
0.0
  0
LINE
  5
1A0
330
20
100
AcDbEntity
  8
17
  6
Continuous
100
AcDbLine
 10
2328.325414824465
 20
1560.378389344677
 30
0.0
 11
2328.661969289791
 21
1559.031587031277
 31
0.0
  0
LINE
  5
1A1
330
20
100
AcDbEntity
  8
17
  6
Continuous
100
AcDbLine
 10
2328.661969289791
 20
1559.031587031277
 30
0.0
 11
2329.048122330778
 21
1557.680328180937
 31
0.0
  0
LINE
  5
1A2
330
20
100
AcDbEntity
  8
17
  6
Continuous
100
AcDbLine
 10
2329.048122330778
 20
1557.680328180937
 30
0.0
 11
2329.478914089861
 21
1556.32505844735
 31
0.0
  0
LINE
  5
1A3
330
20
100
AcDbEntity
  8
17
  6
Continuous
100
AcDbLine
 10
2329.478914089861
 20
1556.32505844735
 30
0.0
 11
2329.949384709472
 21
1554.96622348421
 31
0.0
  0
LINE
  5
1A4
330
20
100
AcDbEntity
  8
17
  6
Continuous
100
AcDbLine
 10
2329.949384709472
 20
1554.96622348421
 30
0.0
 11
2330.454574332046
 21
1553.604268945212
 31
0.0
  0
LINE
  5
1A5
330
20
100
AcDbEntity
  8
17
  6
Continuous
100
AcDbLine
 10
2330.454574332046
 20
1553.604268945212
 30
0.0
 11
2330.989523100017
 21
1552.239640484051
 31
0.0
  0
LINE
  5
1A6
330
20
100
AcDbEntity
  8
17
  6
Continuous
100
AcDbLine
 10
2330.989523100017
 20
1552.239640484051
 30
0.0
 11
2331.549271155818
 21
1550.872783754418
 31
0.0
  0
LINE
  5
1A7
330
20
100
AcDbEntity
  8
17
  6
Continuous
100
AcDbLine
 10
2331.549271155818
 20
1550.872783754418
 30
0.0
 11
2332.128858641883
 21
1549.504144410009
 31
0.0
  0
LINE
  5
1A8
330
20
100
AcDbEntity
  8
17
  6
Continuous
100
AcDbLine
 10
2332.128858641883
 20
1549.504144410009
 30
0.0
 11
2332.723325700647
 21
1548.134168104518
 31
0.0
  0
LINE
  5
1A9
330
20
100
AcDbEntity
  8
17
  6
Continuous
100
AcDbLine
 10
2332.723325700647
 20
1548.134168104518
 30
0.0
 11
2333.327712474543
 21
1546.763300491639
 31
0.0
  0
LINE
  5
1AA
330
20
100
AcDbEntity
  8
17
  6
Continuous
100
AcDbLine
 10
2333.327712474543
 20
1546.763300491639
 30
0.0
 11
2333.937059106006
 21
1545.391987225066
 31
0.0
  0
LINE
  5
1AB
330
20
100
AcDbEntity
  8
17
  6
Continuous
100
AcDbLine
 10
2545.034197179985
 20
1609.784326191903
 30
0.0
 11
2495.034197179986
 21
1609.784326191903
 31
0.0
  0
ARC
  5
1AC
330
20
100
AcDbEntity
  8
17
  6
Continuous
100
AcDbCircle
 10
2495.034197179986
 20
1589.784326191903
 30
0.0
 40
20.0
100
AcDbArc
 50
90.0
 51
180.0
  0
LINE
  5
1AD
330
20
100
AcDbEntity
  8
17
  6
Continuous
100
AcDbLine
 10
2475.034197179986
 20
1589.784326191903
 30
0.0
 11
2475.034197179986
 21
1433.755754763332
 31
0.0
  0
LINE
  5
1AE
330
20
100
AcDbEntity
  8
17
  6
Continuous
100
AcDbLine
 10
2545.034197179985
 20
1614.784326191903
 30
0.0
 11
2545.034197179985
 21
1609.784326191903
 31
0.0
  0
LINE
  5
1AF
330
20
100
AcDbEntity
  8
17
  6
Continuous
100
AcDbLine
 10
2475.034197179986
 20
1433.755754763332
 30
0.0
 11
2474.783330757776
 21
1433.75068860763
 31
0.0
  0
LINE
  5
1B0
330
20
100
AcDbEntity
  8
17
  6
Continuous
100
AcDbLine
 10
2474.783330757776
 20
1433.75068860763
 30
0.0
 11
2474.532477364471
 21
1433.745698634722
 31
0.0
  0
LINE
  5
1B1
330
20
100
AcDbEntity
  8
17
  6
Continuous
100
AcDbLine
 10
2474.532477364471
 20
1433.745698634722
 30
0.0
 11
2474.281650028978
 21
1433.740861027398
 31
0.0
  0
LINE
  5
1B2
330
20
100
AcDbEntity
  8
17
  6
Continuous
100
AcDbLine
 10
2474.281650028978
 20
1433.740861027398
 30
0.0
 11
2474.0308617802
 21
1433.736251968452
 31
0.0
  0
LINE
  5
1B3
330
20
100
AcDbEntity
  8
17
  6
Continuous
100
AcDbLine
 10
2474.0308617802
 20
1433.736251968452
 30
0.0
 11
2473.780125647044
 21
1433.731947640676
 31
0.0
  0
LINE
  5
1B4
330
20
100
AcDbEntity
  8
17
  6
Continuous
100
AcDbLine
 10
2473.780125647044
 20
1433.731947640676
 30
0.0
 11
2473.529454658416
 21
1433.728024226861
 31
0.0
  0
LINE
  5
1B5
330
20
100
AcDbEntity
  8
17
  6
Continuous
100
AcDbLine
 10
2473.529454658416
 20
1433.728024226861
 30
0.0
 11
2473.278861843219
 21
1433.724557909803
 31
0.0
  0
LINE
  5
1B6
330
20
100
AcDbEntity
  8
17
  6
Continuous
100
AcDbLine
 10
2473.278861843219
 20
1433.724557909803
 30
0.0
 11
2473.028360230361
 21
1433.721624872292
 31
0.0
  0
LINE
  5
1B7
330
20
100
AcDbEntity
  8
17
  6
Continuous
100
AcDbLine
 10
2473.028360230361
 20
1433.721624872292
 30
0.0
 11
2472.777962848747
 21
1433.71930129712
 31
0.0
  0
LINE
  5
1B8
330
20
100
AcDbEntity
  8
17
  6
Continuous
100
AcDbLine
 10
2472.777962848747
 20
1433.71930129712
 30
0.0
 11
2472.52768272728
 21
1433.717663367082
 31
0.0
  0
LINE
  5
1B9
330
20
100
AcDbEntity
  8
17
  6
Continuous
100
AcDbLine
 10
2472.52768272728
 20
1433.717663367082
 30
0.0
 11
2472.277532894868
 21
1433.716787264968
 31
0.0
  0
LINE
  5
1BA
330
20
100
AcDbEntity
  8
17
  6
Continuous
100
AcDbLine
 10
2472.277532894868
 20
1433.716787264968
 30
0.0
 11
2472.027526380415
 21
1433.716749173572
 31
0.0
  0
LINE
  5
1BB
330
20
100
AcDbEntity
  8
17
  6
Continuous
100
AcDbLine
 10
2472.027526380415
 20
1433.716749173572
 30
0.0
 11
2471.777676212827
 21
1433.717625275686
 31
0.0
  0
LINE
  5
1BC
330
20
100
AcDbEntity
  8
17
  6
Continuous
100
AcDbLine
 10
2471.777676212827
 20
1433.717625275686
 30
0.0
 11
2471.52799542101
 21
1433.719491754102
 31
0.0
  0
LINE
  5
1BD
330
20
100
AcDbEntity
  8
17
  6
Continuous
100
AcDbLine
 10
2471.52799542101
 20
1433.719491754102
 30
0.0
 11
2471.278497033868
 21
1433.722424791614
 31
0.0
  0
LINE
  5
1BE
330
20
100
AcDbEntity
  8
17
  6
Continuous
100
AcDbLine
 10
2471.278497033868
 20
1433.722424791614
 30
0.0
 11
2471.029194080308
 21
1433.726500571012
 31
0.0
  0
LINE
  5
1BF
330
20
100
AcDbEntity
  8
17
  6
Continuous
100
AcDbLine
 10
2471.029194080308
 20
1433.726500571012
 30
0.0
 11
2470.780099589234
 21
1433.73179527509
 31
0.0
  0
LINE
  5
1C0
330
20
100
AcDbEntity
  8
17
  6
Continuous
100
AcDbLine
 10
2470.780099589234
 20
1433.73179527509
 30
0.0
 11
2470.531226589552
 21
1433.738385086642
 31
0.0
  0
LINE
  5
1C1
330
20
100
AcDbEntity
  8
17
  6
Continuous
100
AcDbLine
 10
2470.531226589552
 20
1433.738385086642
 30
0.0
 11
2470.282588110167
 21
1433.746346188458
 31
0.0
  0
LINE
  5
1C2
330
20
100
AcDbEntity
  8
17
  6
Continuous
100
AcDbLine
 10
2470.282588110167
 20
1433.746346188458
 30
0.0
 11
2470.034197179986
 21
1433.755754763332
 31
0.0
  0
LINE
  5
1C3
330
20
100
AcDbEntity
  8
17
  6
Continuous
100
AcDbLine
 10
2470.034197179986
 20
1433.755754763332
 30
0.0
 11
2469.340317734959
 21
1433.790000055262
 31
0.0
  0
LINE
  5
1C4
330
20
100
AcDbEntity
  8
17
  6
Continuous
100
AcDbLine
 10
2469.340317734959
 20
1433.790000055262
 30
0.0
 11
2468.648181521865
 21
1433.835266419603
 31
0.0
  0
LINE
  5
1C5
330
20
100
AcDbEntity
  8
17
  6
Continuous
100
AcDbLine
 10
2468.648181521865
 20
1433.835266419603
 30
0.0
 11
2467.957490517879
 21
1433.89063927624
 31
0.0
  0
LINE
  5
1C6
330
20
100
AcDbEntity
  8
17
  6
Continuous
100
AcDbLine
 10
2467.957490517879
 20
1433.89063927624
 30
0.0
 11
2467.267946700177
 21
1433.955204045059
 31
0.0
  0
LINE
  5
1C7
330
20
100
AcDbEntity
  8
17
  6
Continuous
100
AcDbLine
 10
2467.267946700177
 20
1433.955204045059
 30
0.0
 11
2466.579252045929
 21
1434.028046145942
 31
0.0
  0
LINE
  5
1C8
330
20
100
AcDbEntity
  8
17
  6
Continuous
100
AcDbLine
 10
2466.579252045929
 20
1434.028046145942
 30
0.0
 11
2465.891108532313
 21
1434.108250998776
 31
0.0
  0
LINE
  5
1C9
330
20
100
AcDbEntity
  8
17
  6
Continuous
100
AcDbLine
 10
2465.891108532313
 20
1434.108250998776
 30
0.0
 11
2465.2032181365
 21
1434.194904023445
 31
0.0
  0
LINE
  5
1CA
330
20
100
AcDbEntity
  8
17
  6
Continuous
100
AcDbLine
 10
2465.2032181365
 20
1434.194904023445
 30
0.0
 11
2464.515282835665
 21
1434.287090639833
 31
0.0
  0
LINE
  5
1CB
330
20
100
AcDbEntity
  8
17
  6
Continuous
100
AcDbLine
 10
2464.515282835665
 20
1434.287090639833
 30
0.0
 11
2463.827004606984
 21
1434.383896267825
 31
0.0
  0
LINE
  5
1CC
330
20
100
AcDbEntity
  8
17
  6
Continuous
100
AcDbLine
 10
2463.827004606984
 20
1434.383896267825
 30
0.0
 11
2463.138085427631
 21
1434.484406327307
 31
0.0
  0
LINE
  5
1CD
330
20
100
AcDbEntity
  8
17
  6
Continuous
100
AcDbLine
 10
2463.138085427631
 20
1434.484406327307
 30
0.0
 11
2462.448227274778
 21
1434.587706238161
 31
0.0
  0
LINE
  5
1CE
330
20
100
AcDbEntity
  8
17
  6
Continuous
100
AcDbLine
 10
2462.448227274778
 20
1434.587706238161
 30
0.0
 11
2461.7571321256
 21
1434.692881420274
 31
0.0
  0
LINE
  5
1CF
330
20
100
AcDbEntity
  8
17
  6
Continuous
100
AcDbLine
 10
2461.7571321256
 20
1434.692881420274
 30
0.0
 11
2461.064501957272
 21
1434.79901729353
 31
0.0
  0
LINE
  5
1D0
330
20
100
AcDbEntity
  8
17
  6
Continuous
100
AcDbLine
 10
2461.064501957272
 20
1434.79901729353
 30
0.0
 11
2460.370038746968
 21
1434.905199277814
 31
0.0
  0
LINE
  5
1D1
330
20
100
AcDbEntity
  8
17
  6
Continuous
100
AcDbLine
 10
2460.370038746968
 20
1434.905199277814
 30
0.0
 11
2459.673444471861
 21
1435.010512793009
 31
0.0
  0
LINE
  5
1D2
330
20
100
AcDbEntity
  8
17
  6
Continuous
100
AcDbLine
 10
2459.673444471861
 20
1435.010512793009
 30
0.0
 11
2458.974421109127
 21
1435.114043259003
 31
0.0
  0
LINE
  5
1D3
330
20
100
AcDbEntity
  8
17
  6
Continuous
100
AcDbLine
 10
2458.974421109127
 20
1435.114043259003
 30
0.0
 11
2458.272670635939
 21
1435.214876095677
 31
0.0
  0
LINE
  5
1D4
330
20
100
AcDbEntity
  8
17
  6
Continuous
100
AcDbLine
 10
2458.272670635939
 20
1435.214876095677
 30
0.0
 11
2457.567895029472
 21
1435.312096722918
 31
0.0
  0
LINE
  5
1D5
330
20
100
AcDbEntity
  8
17
  6
Continuous
100
AcDbLine
 10
2457.567895029472
 20
1435.312096722918
 30
0.0
 11
2456.859796266898
 21
1435.40479056061
 31
0.0
  0
LINE
  5
1D6
330
20
100
AcDbEntity
  8
17
  6
Continuous
100
AcDbLine
 10
2456.859796266898
 20
1435.40479056061
 30
0.0
 11
2456.148076325394
 21
1435.492043028638
 31
0.0
  0
LINE
  5
1D7
330
20
100
AcDbEntity
  8
17
  6
Continuous
100
AcDbLine
 10
2456.148076325394
 20
1435.492043028638
 30
0.0
 11
2455.242236769318
 21
1435.593948467188
 31
0.0
  0
LINE
  5
1D8
330
20
100
AcDbEntity
  8
17
  6
Continuous
100
AcDbLine
 10
2455.242236769318
 20
1435.593948467188
 30
0.0
 11
2454.331585965856
 21
1435.688210547471
 31
0.0
  0
LINE
  5
1D9
330
20
100
AcDbEntity
  8
17
  6
Continuous
100
AcDbLine
 10
2454.331585965856
 20
1435.688210547471
 30
0.0
 11
2453.417587112792
 21
1435.777361467584
 31
0.0
  0
LINE
  5
1DA
330
20
100
AcDbEntity
  8
17
  6
Continuous
100
AcDbLine
 10
2453.417587112792
 20
1435.777361467584
 30
0.0
 11
2452.501703407907
 21
1435.863933425624
 31
0.0
  0
LINE
  5
1DB
330
20
100
AcDbEntity
  8
17
  6
Continuous
100
AcDbLine
 10
2452.501703407907
 20
1435.863933425624
 30
0.0
 11
2451.585398048981
 21
1435.950458619686
 31
0.0
  0
LINE
  5
1DC
330
20
100
AcDbEntity
  8
17
  6
Continuous
100
AcDbLine
 10
2451.585398048981
 20
1435.950458619686
 30
0.0
 11
2450.6701342338
 21
1436.039469247868
 31
0.0
  0
LINE
  5
1DD
330
20
100
AcDbEntity
  8
17
  6
Continuous
100
AcDbLine
 10
2450.6701342338
 20
1436.039469247868
 30
0.0
 11
2449.757375160144
 21
1436.133497508268
 31
0.0
  0
LINE
  5
1DE
330
20
100
AcDbEntity
  8
17
  6
Continuous
100
AcDbLine
 10
2449.757375160144
 20
1436.133497508268
 30
0.0
 11
2448.848584025796
 21
1436.235075598982
 31
0.0
  0
LINE
  5
1DF
330
20
100
AcDbEntity
  8
17
  6
Continuous
100
AcDbLine
 10
2448.848584025796
 20
1436.235075598982
 30
0.0
 11
2447.945224028537
 21
1436.346735718106
 31
0.0
  0
LINE
  5
1E0
330
20
100
AcDbEntity
  8
17
  6
Continuous
100
AcDbLine
 10
2447.945224028537
 20
1436.346735718106
 30
0.0
 11
2447.048758366151
 21
1436.471010063737
 31
0.0
  0
LINE
  5
1E1
330
20
100
AcDbEntity
  8
17
  6
Continuous
100
AcDbLine
 10
2447.048758366151
 20
1436.471010063737
 30
0.0
 11
2446.160650236418
 21
1436.610430833973
 31
0.0
  0
LINE
  5
1E2
330
20
100
AcDbEntity
  8
17
  6
Continuous
100
AcDbLine
 10
2446.160650236418
 20
1436.610430833973
 30
0.0
 11
2445.282362837123
 21
1436.767530226909
 31
0.0
  0
LINE
  5
1E3
330
20
100
AcDbEntity
  8
17
  6
Continuous
100
AcDbLine
 10
2445.282362837123
 20
1436.767530226909
 30
0.0
 11
2444.415359366046
 21
1436.944840440643
 31
0.0
  0
LINE
  5
1E4
330
20
100
AcDbEntity
  8
17
  6
Continuous
100
AcDbLine
 10
2444.415359366046
 20
1436.944840440643
 30
0.0
 11
2443.561103020969
 21
1437.144893673272
 31
0.0
  0
LINE
  5
1E5
330
20
100
AcDbEntity
  8
17
  6
Continuous
100
AcDbLine
 10
2443.561103020969
 20
1437.144893673272
 30
0.0
 11
2442.721056999677
 21
1437.370222122892
 31
0.0
  0
LINE
  5
1E6
330
20
100
AcDbEntity
  8
17
  6
Continuous
100
AcDbLine
 10
2442.721056999677
 20
1437.370222122892
 30
0.0
 11
2441.896684499949
 21
1437.6233579876
 31
0.0
  0
LINE
  5
1E7
330
20
100
AcDbEntity
  8
17
  6
Continuous
100
AcDbLine
 10
2441.896684499949
 20
1437.6233579876
 30
0.0
 11
2441.089448719568
 21
1437.906833465493
 31
0.0
  0
LINE
  5
1E8
330
20
100
AcDbEntity
  8
17
  6
Continuous
100
AcDbLine
 10
2441.089448719568
 20
1437.906833465493
 30
0.0
 11
2440.300812856317
 21
1438.223180754668
 31
0.0
  0
LINE
  5
1E9
330
20
100
AcDbEntity
  8
17
  6
Continuous
100
AcDbLine
 10
2440.300812856317
 20
1438.223180754668
 30
0.0
 11
2439.532240107978
 21
1438.574932053221
 31
0.0
  0
LINE
  5
1EA
330
20
100
AcDbEntity
  8
17
  6
Continuous
100
AcDbLine
 10
2439.532240107978
 20
1438.574932053221
 30
0.0
 11
2438.785193672333
 21
1438.96461955925
 31
0.0
  0
LINE
  5
1EB
330
20
100
AcDbEntity
  8
17
  6
Continuous
100
AcDbLine
 10
2438.785193672333
 20
1438.96461955925
 30
0.0
 11
2437.994908794614
 21
1439.435425393547
 31
0.0
  0
LINE
  5
1EC
330
20
100
AcDbEntity
  8
17
  6
Continuous
100
AcDbLine
 10
2437.994908794614
 20
1439.435425393547
 30
0.0
 11
2437.22989704737
 21
1439.950973946807
 31
0.0
  0
LINE
  5
1ED
330
20
100
AcDbEntity
  8
17
  6
Continuous
100
AcDbLine
 10
2437.22989704737
 20
1439.950973946807
 30
0.0
 11
2436.488007175082
 21
1440.507732826779
 31
0.0
  0
LINE
  5
1EE
330
20
100
AcDbEntity
  8
17
  6
Continuous
100
AcDbLine
 10
2436.488007175082
 20
1440.507732826779
 30
0.0
 11
2435.767087922231
 21
1441.102169641211
 31
0.0
  0
LINE
  5
1EF
330
20
100
AcDbEntity
  8
17
  6
Continuous
100
AcDbLine
 10
2435.767087922231
 20
1441.102169641211
 30
0.0
 11
2435.064988033298
 21
1441.730751997853
 31
0.0
  0
LINE
  5
1F0
330
20
100
AcDbEntity
  8
17
  6
Continuous
100
AcDbLine
 10
2435.064988033298
 20
1441.730751997853
 30
0.0
 11
2434.379556252763
 21
1442.389947504452
 31
0.0
  0
LINE
  5
1F1
330
20
100
AcDbEntity
  8
17
  6
Continuous
100
AcDbLine
 10
2434.379556252763
 20
1442.389947504452
 30
0.0
 11
2433.708641325106
 21
1443.076223768758
 31
0.0
  0
LINE
  5
1F2
330
20
100
AcDbEntity
  8
17
  6
Continuous
100
AcDbLine
 10
2433.708641325106
 20
1443.076223768758
 30
0.0
 11
2433.050091994808
 21
1443.786048398519
 31
0.0
  0
LINE
  5
1F3
330
20
100
AcDbEntity
  8
17
  6
Continuous
100
AcDbLine
 10
2433.050091994808
 20
1443.786048398519
 30
0.0
 11
2432.40175700635
 21
1444.515889001484
 31
0.0
  0
LINE
  5
1F4
330
20
100
AcDbEntity
  8
17
  6
Continuous
100
AcDbLine
 10
2432.40175700635
 20
1444.515889001484
 30
0.0
 11
2431.761485104213
 21
1445.262213185403
 31
0.0
  0
LINE
  5
1F5
330
20
100
AcDbEntity
  8
17
  6
Continuous
100
AcDbLine
 10
2431.761485104213
 20
1445.262213185403
 30
0.0
 11
2431.127125032877
 21
1446.021488558022
 31
0.0
  0
LINE
  5
1F6
330
20
100
AcDbEntity
  8
17
  6
Continuous
100
AcDbLine
 10
2431.127125032877
 20
1446.021488558022
 30
0.0
 11
2430.496525536823
 21
1446.790182727091
 31
0.0
  0
LINE
  5
1F7
330
20
100
AcDbEntity
  8
17
  6
Continuous
100
AcDbLine
 10
2430.496525536823
 20
1446.790182727091
 30
0.0
 11
2429.867535360531
 21
1447.56476330036
 31
0.0
  0
LINE
  5
1F8
330
20
100
AcDbEntity
  8
17
  6
Continuous
100
AcDbLine
 10
2429.867535360531
 20
1447.56476330036
 30
0.0
 11
2429.238003248482
 21
1448.341697885576
 31
0.0
  0
LINE
  5
1F9
330
20
100
AcDbEntity
  8
17
  6
Continuous
100
AcDbLine
 10
2429.238003248482
 20
1448.341697885576
 30
0.0
 11
2428.605777945157
 21
1449.117454090488
 31
0.0
  0
LINE
  5
1FA
330
20
100
AcDbEntity
  8
17
  6
Continuous
100
AcDbLine
 10
2428.605777945157
 20
1449.117454090488
 30
0.0
 11
2427.968708195036
 21
1449.888499522846
 31
0.0
  0
LINE
  5
1FB
330
20
100
AcDbEntity
  8
17
  6
Continuous
100
AcDbLine
 10
2427.968708195036
 20
1449.888499522846
 30
0.0
 11
2427.3246427426
 21
1450.651301790397
 31
0.0
  0
LINE
  5
1FC
330
20
100
AcDbEntity
  8
17
  6
Continuous
100
AcDbLine
 10
2427.3246427426
 20
1450.651301790397
 30
0.0
 11
2426.67143033233
 21
1451.402328500891
 31
0.0
  0
LINE
  5
1FD
330
20
100
AcDbEntity
  8
17
  6
Continuous
100
AcDbLine
 10
2426.67143033233
 20
1451.402328500891
 30
0.0
 11
2426.006919708707
 21
1452.138047262075
 31
0.0
  0
LINE
  5
1FE
330
20
100
AcDbEntity
  8
17
  6
Continuous
100
AcDbLine
 10
2426.006919708707
 20
1452.138047262075
 30
0.0
 11
2425.32895961621
 21
1452.854925681699
 31
0.0
  0
LINE
  5
1FF
330
20
100
AcDbEntity
  8
17
  6
Continuous
100
AcDbLine
 10
2425.32895961621
 20
1452.854925681699
 30
0.0
 11
2424.763858987486
 21
1453.424622038514
 31
0.0
  0
LINE
  5
200
330
20
100
AcDbEntity
  8
17
  6
Continuous
100
AcDbLine
 10
2424.763858987486
 20
1453.424622038514
 30
0.0
 11
2424.188865456079
 21
1453.980131151659
 31
0.0
  0
LINE
  5
201
330
20
100
AcDbEntity
  8
17
  6
Continuous
100
AcDbLine
 10
2424.188865456079
 20
1453.980131151659
 30
0.0
 11
2423.604499701074
 21
1454.522199718169
 31
0.0
  0
LINE
  5
202
330
20
100
AcDbEntity
  8
17
  6
Continuous
100
AcDbLine
 10
2423.604499701074
 20
1454.522199718169
 30
0.0
 11
2423.011282401564
 21
1455.05157443508
 31
0.0
  0
LINE
  5
203
330
20
100
AcDbEntity
  8
17
  6
Continuous
100
AcDbLine
 10
2423.011282401564
 20
1455.05157443508
 30
0.0
 11
2422.409734236633
 21
1455.569001999426
 31
0.0
  0
LINE
  5
204
330
20
100
AcDbEntity
  8
17
  6
Continuous
100
AcDbLine
 10
2422.409734236633
 20
1455.569001999426
 30
0.0
 11
2421.800375885373
 21
1456.075229108243
 31
0.0
  0
LINE
  5
205
330
20
100
AcDbEntity
  8
17
  6
Continuous
100
AcDbLine
 10
2421.800375885373
 20
1456.075229108243
 30
0.0
 11
2421.183728026872
 21
1456.571002458566
 31
0.0
  0
LINE
  5
206
330
20
100
AcDbEntity
  8
17
  6
Continuous
100
AcDbLine
 10
2421.183728026872
 20
1456.571002458566
 30
0.0
 11
2420.560311340219
 21
1457.05706874743
 31
0.0
  0
LINE
  5
207
330
20
100
AcDbEntity
  8
17
  6
Continuous
100
AcDbLine
 10
2420.560311340219
 20
1457.05706874743
 30
0.0
 11
2419.9306465045
 21
1457.534174671873
 31
0.0
  0
LINE
  5
208
330
20
100
AcDbEntity
  8
17
  6
Continuous
100
AcDbLine
 10
2419.9306465045
 20
1457.534174671873
 30
0.0
 11
2419.295254198807
 21
1458.003066928926
 31
0.0
  0
LINE
  5
209
330
20
100
AcDbEntity
  8
17
  6
Continuous
100
AcDbLine
 10
2419.295254198807
 20
1458.003066928926
 30
0.0
 11
2418.654655102228
 21
1458.464492215626
 31
0.0
  0
LINE
  5
20A
330
20
100
AcDbEntity
  8
17
  6
Continuous
100
AcDbLine
 10
2418.654655102228
 20
1458.464492215626
 30
0.0
 11
2418.00936989385
 21
1458.91919722901
 31
0.0
  0
LINE
  5
20B
330
20
100
AcDbEntity
  8
17
  6
Continuous
100
AcDbLine
 10
2418.00936989385
 20
1458.91919722901
 30
0.0
 11
2417.359919252763
 21
1459.367928666111
 31
0.0
  0
LINE
  5
20C
330
20
100
AcDbEntity
  8
17
  6
Continuous
100
AcDbLine
 10
2417.359919252763
 20
1459.367928666111
 30
0.0
 11
2416.706823858055
 21
1459.811433223966
 31
0.0
  0
LINE
  5
20D
330
20
100
AcDbEntity
  8
17
  6
Continuous
100
AcDbLine
 10
2416.706823858055
 20
1459.811433223966
 30
0.0
 11
2416.050604388816
 21
1460.250457599608
 31
0.0
  0
LINE
  5
20E
330
20
100
AcDbEntity
  8
17
  6
Continuous
100
AcDbLine
 10
2416.050604388816
 20
1460.250457599608
 30
0.0
 11
2415.391781524133
 21
1460.685748490075
 31
0.0
  0
LINE
  5
20F
330
20
100
AcDbEntity
  8
17
  6
Continuous
100
AcDbLine
 10
2415.391781524133
 20
1460.685748490075
 30
0.0
 11
2414.730875943094
 21
1461.1180525924
 31
0.0
  0
LINE
  5
210
330
20
100
AcDbEntity
  8
17
  6
Continuous
100
AcDbLine
 10
2414.730875943094
 20
1461.1180525924
 30
0.0
 11
2414.068408324791
 21
1461.54811660362
 31
0.0
  0
LINE
  5
211
330
20
100
AcDbEntity
  8
17
  6
Continuous
100
AcDbLine
 10
2414.068408324791
 20
1461.54811660362
 30
0.0
 11
2413.40489934831
 21
1461.976687220769
 31
0.0
  0
LINE
  5
212
330
20
100
AcDbEntity
  8
17
  6
Continuous
100
AcDbLine
 10
2413.40489934831
 20
1461.976687220769
 30
0.0
 11
2412.74086969274
 21
1462.404511140883
 31
0.0
  0
LINE
  5
213
330
20
100
AcDbEntity
  8
17
  6
Continuous
100
AcDbLine
 10
2470.034197179986
 20
1674.423197365372
 30
0.0
 11
2545.034197179985
 21
1674.423197365372
 31
0.0
  0
LINE
  5
214
330
20
100
AcDbEntity
  8
17
  6
Continuous
100
AcDbLine
 10
2470.034197179986
 20
1674.423197365372
 30
0.0
 11
2489.352713705767
 21
1679.599578267422
 31
0.0
  0
LINE
  5
215
330
20
100
AcDbEntity
  8
17
  6
Continuous
100
AcDbLine
 10
2470.034197179986
 20
1674.423197365372
 30
0.0
 11
2489.352713705767
 21
1669.246816463322
 31
0.0
  0
LINE
  5
216
330
20
100
AcDbEntity
  8
17
  6
Continuous
100
AcDbLine
 10
2545.034197179985
 20
1674.423197365372
 30
0.0
 11
2525.715680654204
 21
1669.246816463322
 31
0.0
  0
LINE
  5
217
330
20
100
AcDbEntity
  8
17
  6
Continuous
100
AcDbLine
 10
2545.034197179985
 20
1674.423197365372
 30
0.0
 11
2525.715680654204
 21
1679.599578267422
 31
0.0
  0
LINE
  5
218
330
20
100
AcDbEntity
  8
17
  6
Continuous
100
AcDbLine
 10
2470.034197179986
 20
1594.784326191903
 30
0.0
 11
2470.034197179986
 21
1679.423197365372
 31
0.0
  0
LINE
  5
219
330
20
100
AcDbEntity
  8
17
  6
Continuous
100
AcDbLine
 10
2545.034197179985
 20
1614.784326191903
 30
0.0
 11
2545.034197179985
 21
1679.423197365372
 31
0.0
  0
TEXT
  5
21A
330
20
100
AcDbEntity
  8
17
100
AcDbText
 10
2497.534092548289
 20
1679.423189889934
 30
0.0
 40
20.0
  1
15
 50
0.00000001
 41
0.75
 51
15.0
 72
     1
 11
2507.534092548289
 21
1679.42318989168
 31
0.0
100
AcDbText
  0
LINE
  5
21B
330
20
100
AcDbEntity
  8
17
  6
Continuous
100
AcDbLine
 10
2477.493530190868
 20
1607.597944622106
 30
0.0
 11
2504.943993485633
 21
1579.720322912019
 31
0.0
  0
LINE
  5
21C
330
20
100
AcDbEntity
  8
17
  6
Continuous
100
AcDbLine
 10
2477.493530190868
 20
1607.597944622106
 30
0.0
 11
2494.736319764508
 21
1597.46452428546
 31
0.0
  0
LINE
  5
21D
330
20
100
AcDbEntity
  8
17
  6
Continuous
100
AcDbLine
 10
2477.493530190868
 20
1607.597944622106
 30
0.0
 11
2487.359513825427
 21
1590.200750396524
 31
0.0
  0
TEXT
  5
21E
330
20
100
AcDbEntity
  8
17
100
AcDbText
 10
2480.571132055838
 20
1570.892132851762
 30
0.0
 40
20.0
  1
R5
 50
314.55765914917
 41
0.75
 51
15.0
 72
     1
 11
2489.341465595164
 21
1561.985323680742
 31
0.0
100
AcDbText
  0
LINE
  5
21F
330
20
100
AcDbEntity
  8
17
  6
Continuous
100
AcDbLine
 10
2584.095000751414
 20
1366.188254763331
 30
0.0
 11
2332.175357894271
 21
1366.188254763331
 31
0.0
  0
TEXT
  5
220
330
20
100
AcDbEntity
  8
17
100
AcDbText
 10
970.9206892279482
 20
794.5641505850397
 30
0.0
 40
30.0
  1
防滴パット
 41
0.6666666666670001
  7
BIGFONT
 72
     1
 11
1026.920689227976
 21
809.5641505850396
 31
0.0
100
AcDbText
 73
     2
  0
TEXT
  5
221
330
20
100
AcDbEntity
  8
17
100
AcDbText
 10
2326.98298577739
 20
1372.689913524492
 30
0.0
 40
30.0
  1
A-A　断面　Ｓ＝１／１
 41
0.6666666666670001
  7
BIGFONT
 72
     1
 11
2458.316319110789
 21
1387.689913524492
 31
0.0
100
AcDbText
 73
     2
  0
LINE
  5
230
330
20
100
AcDbEntity
  8
33
  6
Continuous
100
AcDbLine
 10
967.8244657514138
 20
788.134326191903
 30
0.0
 11
1085.509018608556
 21
788.134326191903
 31
0.0
  0
LINE
  5
231
330
20
100
AcDbEntity
  8
33
  6
Continuous
100
AcDbLine
 10
1085.509018608556
 20
788.134326191903
 30
0.0
 11
1157.920447179985
 21
910.3286119061889
 31
0.0
  0
LINE
  5
232
330
20
100
AcDbEntity
  8
33
  6
Continuous
100
AcDbLine
 10
1157.920447179985
 20
910.3286119061889
 30
0.0
 11
1152.525017942958
 21
891.0701243397101
 31
0.0
  0
LINE
  5
233
330
20
100
AcDbEntity
  8
33
  6
Continuous
100
AcDbLine
 10
1157.920447179985
 20
910.3286119061889
 30
0.0
 11
1143.618624613158
 21
896.347987053665
 31
0.0
  0
LINE
  5
24F
330
20
100
AcDbEntity
  8
33
  6
Continuous
100
AcDbLine
 10
1904.213884679985
 20
794.9931909878215
 30
0.0
 11
1904.213884679985
 21
815.2776297633325
 31
0.0
  0
LINE
  5
250
330
20
100
AcDbEntity
  8
33
  6
Continuous
100
AcDbLine
 10
1383.136875751414
 20
1653.547719049047
 30
0.0
 11
1343.136875751414
 21
1653.547719049047
 31
0.0
  0
LINE
  5
251
330
20
100
AcDbEntity
  8
33
  6
Continuous
100
AcDbLine
 10
1343.136875751414
 20
1653.547719049047
 30
0.0
 11
1363.136875751414
 21
1660.547719049047
 31
0.0
  0
LINE
  5
252
330
20
100
AcDbEntity
  8
33
  6
Continuous
100
AcDbLine
 10
1363.136875751414
 20
1660.547719049047
 30
0.0
 11
1363.136875751414
 21
1646.547719049047
 31
0.0
  0
TEXT
  5
253
330
20
100
AcDbEntity
  8
33
100
AcDbText
 10
1336.235386493601
 20
1647.192110790117
 30
0.0
 40
20.0
  1
A
 50
90.0
 41
0.75
 51
15.0
 72
     1
 11
1336.235386493601
 21
1652.192110790117
 31
0.0
100
AcDbText
  0
LINE
  5
254
330
20
100
AcDbEntity
  8
33
  6
Continuous
100
AcDbLine
 10
1383.136875751414
 20
1599.439326191903
 30
0.0
 11
1343.136875751414
 21
1599.439326191903
 31
0.0
  0
LINE
  5
255
330
20
100
AcDbEntity
  8
33
  6
Continuous
100
AcDbLine
 10
1343.136875751414
 20
1599.439326191903
 30
0.0
 11
1363.136875751414
 21
1592.439326191903
 31
0.0
  0
LINE
  5
256
330
20
100
AcDbEntity
  8
33
  6
Continuous
100
AcDbLine
 10
1363.136875751414
 20
1592.439326191903
 30
0.0
 11
1363.136875751414
 21
1606.439326191903
 31
0.0
  0
TEXT
  5
257
330
20
100
AcDbEntity
  8
33
100
AcDbText
 10
1336.235386493601
 20
1592.457125438555
 30
0.0
 40
20.0
  1
A
 50
90.0
 41
0.75
 51
15.0
 72
     1
 11
1336.235386493601
 21
1597.457125438555
 31
0.0
100
AcDbText
  0
LINE
  5
258
330
20
100
AcDbEntity
  8
33
  6
Continuous
100
AcDbLine
 10
1893.136875751414
 20
1417.547719049047
 30
0.0
 11
1893.136875751414
 21
1457.547719049047
 31
0.0
  0
LINE
  5
259
330
20
100
AcDbEntity
  8
33
  6
Continuous
100
AcDbLine
 10
1893.136875751414
 20
1457.547719049047
 30
0.0
 11
1900.136875751414
 21
1437.547719049047
 31
0.0
  0
LINE
  5
25A
330
20
100
AcDbEntity
  8
33
  6
Continuous
100
AcDbLine
 10
1900.136875751414
 20
1437.547719049047
 30
0.0
 11
1886.136875751414
 21
1437.547719049047
 31
0.0
  0
TEXT
  5
25B
330
20
100
AcDbEntity
  8
33
100
AcDbText
 10
1886.781284931101
 20
1464.449190868242
 30
0.0
 40
20.0
  1
B
 41
0.75
 51
15.0
 72
     1
 11
1891.781284931101
 21
1464.449190868242
 31
0.0
100
AcDbText
  0
LINE
  5
25C
330
20
100
AcDbEntity
  8
33
  6
Continuous
100
AcDbLine
 10
1839.02848289427
 20
1417.547719049047
 30
0.0
 11
1839.02848289427
 21
1457.547719049047
 31
0.0
  0
LINE
  5
25D
330
20
100
AcDbEntity
  8
33
  6
Continuous
100
AcDbLine
 10
1839.02848289427
 20
1457.547719049047
 30
0.0
 11
1832.02848289427
 21
1437.547719049047
 31
0.0
  0
LINE
  5
25E
330
20
100
AcDbEntity
  8
33
  6
Continuous
100
AcDbLine
 10
1832.02848289427
 20
1437.547719049047
 30
0.0
 11
1846.02848289427
 21
1437.547719049047
 31
0.0
  0
TEXT
  5
25F
330
20
100
AcDbEntity
  8
33
100
AcDbText
 10
1832.046299579539
 20
1464.449190868242
 30
0.0
 40
20.0
  1
B
 41
0.75
 51
15.0
 72
     1
 11
1837.046299579539
 21
1464.449190868242
 31
0.0
100
AcDbText
  0
LINE
  5
260
330
20
100
AcDbEntity
  8
17
  6
Continuous
100
AcDbLine
 10
2546.139107894271
 20
1226.697591498025
 30
0.0
 11
2496.139107894271
 21
1226.697591498025
 31
0.0
  0
LINE
  5
261
330
20
100
AcDbEntity
  8
17
  6
Continuous
100
AcDbLine
 10
2471.13910789427
 20
1201.697591498025
 30
0.0
 11
2471.13910789427
 21
1053.037827467413
 31
0.0
  0
ARC
  5
262
330
20
100
AcDbEntity
  8
17
  6
Continuous
100
AcDbCircle
 10
2496.139107894271
 20
1201.697591498025
 30
0.0
 40
25.0
100
AcDbArc
 50
90.0
 51
180.0
  0
LINE
  5
263
330
20
100
AcDbEntity
  8
17
  6
Continuous
100
AcDbLine
 10
2329.576607894271
 20
1226.697591498025
 30
0.0
 11
2497.523036465699
 21
1226.697591498025
 31
0.0
  0
LINE
  5
264
330
20
100
AcDbEntity
  8
17
  6
Continuous
100
AcDbLine
 10
2329.576607894271
 20
1226.697591498025
 30
0.0
 11
2330.383687981582
 21
1225.625596533723
 31
0.0
  0
LINE
  5
265
330
20
100
AcDbEntity
  8
17
  6
Continuous
100
AcDbLine
 10
2330.383687981582
 20
1225.625596533723
 30
0.0
 11
2331.186103420648
 21
1224.553695050692
 31
0.0
  0
LINE
  5
266
330
20
100
AcDbEntity
  8
17
  6
Continuous
100
AcDbLine
 10
2331.186103420648
 20
1224.553695050692
 30
0.0
 11
2331.979189563222
 21
1223.481980530201
 31
0.0
  0
LINE
  5
267
330
20
100
AcDbEntity
  8
17
  6
Continuous
100
AcDbLine
 10
2331.979189563222
 20
1223.481980530201
 30
0.0
 11
2332.758281761057
 21
1222.410546453521
 31
0.0
  0
LINE
  5
268
330
20
100
AcDbEntity
  8
17
  6
Continuous
100
AcDbLine
 10
2332.758281761057
 20
1222.410546453521
 30
0.0
 11
2333.518715365909
 21
1221.339486301922
 31
0.0
  0
LINE
  5
269
330
20
100
AcDbEntity
  8
17
  6
Continuous
100
AcDbLine
 10
2333.518715365909
 20
1221.339486301922
 30
0.0
 11
2334.255825729531
 21
1220.268893556676
 31
0.0
  0
LINE
  5
26A
330
20
100
AcDbEntity
  8
17
  6
Continuous
100
AcDbLine
 10
2334.255825729531
 20
1220.268893556676
 30
0.0
 11
2334.964948203677
 21
1219.198861699052
 31
0.0
  0
LINE
  5
26B
330
20
100
AcDbEntity
  8
17
  6
Continuous
100
AcDbLine
 10
2334.964948203677
 20
1219.198861699052
 30
0.0
 11
2335.641418140101
 21
1218.129484210321
 31
0.0
  0
LINE
  5
26C
330
20
100
AcDbEntity
  8
17
  6
Continuous
100
AcDbLine
 10
2335.641418140101
 20
1218.129484210321
 30
0.0
 11
2336.280570890557
 21
1217.060854571752
 31
0.0
  0
LINE
  5
26D
330
20
100
AcDbEntity
  8
17
  6
Continuous
100
AcDbLine
 10
2336.280570890557
 20
1217.060854571752
 30
0.0
 11
2336.8777418068
 21
1215.993066264618
 31
0.0
  0
LINE
  5
26E
330
20
100
AcDbEntity
  8
17
  6
Continuous
100
AcDbLine
 10
2336.8777418068
 20
1215.993066264618
 30
0.0
 11
2337.428266240583
 21
1214.926212770187
 31
0.0
  0
LINE
  5
26F
330
20
100
AcDbEntity
  8
17
  6
Continuous
100
AcDbLine
 10
2337.428266240583
 20
1214.926212770187
 30
0.0
 11
2337.92747954366
 21
1213.86038756973
 31
0.0
  0
LINE
  5
270
330
20
100
AcDbEntity
  8
17
  6
Continuous
100
AcDbLine
 10
2337.92747954366
 20
1213.86038756973
 30
0.0
 11
2338.370717067785
 21
1212.795684144518
 31
0.0
  0
LINE
  5
271
330
20
100
AcDbEntity
  8
17
  6
Continuous
100
AcDbLine
 10
2338.370717067785
 20
1212.795684144518
 30
0.0
 11
2338.753314164713
 21
1211.732195975821
 31
0.0
  0
LINE
  5
272
330
20
100
AcDbEntity
  8
17
  6
Continuous
100
AcDbLine
 10
2338.753314164713
 20
1211.732195975821
 30
0.0
 11
2339.070606186197
 21
1210.67001654491
 31
0.0
  0
LINE
  5
273
330
20
100
AcDbEntity
  8
17
  6
Continuous
100
AcDbLine
 10
2339.070606186197
 20
1210.67001654491
 30
0.0
 11
2339.317928483991
 21
1209.609239333054
 31
0.0
  0
LINE
  5
274
330
20
100
AcDbEntity
  8
17
  6
Continuous
100
AcDbLine
 10
2339.317928483991
 20
1209.609239333054
 30
0.0
 11
2339.490616409849
 21
1208.549957821524
 31
0.0
  0
LINE
  5
275
330
20
100
AcDbEntity
  8
17
  6
Continuous
100
AcDbLine
 10
2339.490616409849
 20
1208.549957821524
 30
0.0
 11
2339.584005315526
 21
1207.492265491591
 31
0.0
  0
LINE
  5
276
330
20
100
AcDbEntity
  8
17
  6
Continuous
100
AcDbLine
 10
2339.584005315526
 20
1207.492265491591
 30
0.0
 11
2339.593430552776
 21
1206.436255824526
 31
0.0
  0
LINE
  5
277
330
20
100
AcDbEntity
  8
17
  6
Continuous
100
AcDbLine
 10
2339.593430552776
 20
1206.436255824526
 30
0.0
 11
2339.514227473352
 21
1205.382022301597
 31
0.0
  0
LINE
  5
278
330
20
100
AcDbEntity
  8
17
  6
Continuous
100
AcDbLine
 10
2339.514227473352
 20
1205.382022301597
 30
0.0
 11
2339.344007893112
 21
1204.330123777982
 31
0.0
  0
LINE
  5
279
330
20
100
AcDbEntity
  8
17
  6
Continuous
100
AcDbLine
 10
2339.344007893112
 20
1204.330123777982
 30
0.0
 11
2339.088900567961
 21
1203.279671784997
 31
0.0
  0
LINE
  5
27A
330
20
100
AcDbEntity
  8
17
  6
Continuous
100
AcDbLine
 10
2339.088900567961
 20
1203.279671784997
 30
0.0
 11
2338.757212939494
 21
1202.230245187379
 31
0.0
  0
LINE
  5
27B
330
20
100
AcDbEntity
  8
17
  6
Continuous
100
AcDbLine
 10
2338.757212939494
 20
1202.230245187379
 30
0.0
 11
2338.357252449307
 21
1201.181422849866
 31
0.0
  0
LINE
  5
27C
330
20
100
AcDbEntity
  8
17
  6
Continuous
100
AcDbLine
 10
2338.357252449307
 20
1201.181422849866
 30
0.0
 11
2337.897326538993
 21
1200.132783637195
 31
0.0
  0
LINE
  5
27D
330
20
100
AcDbEntity
  8
17
  6
Continuous
100
AcDbLine
 10
2337.897326538993
 20
1200.132783637195
 30
0.0
 11
2337.385742650148
 21
1199.083906414102
 31
0.0
  0
LINE
  5
27E
330
20
100
AcDbEntity
  8
17
  6
Continuous
100
AcDbLine
 10
2337.385742650148
 20
1199.083906414102
 30
0.0
 11
2336.830808224368
 21
1198.034370045327
 31
0.0
  0
LINE
  5
27F
330
20
100
AcDbEntity
  8
17
  6
Continuous
100
AcDbLine
 10
2336.830808224368
 20
1198.034370045327
 30
0.0
 11
2336.240830703249
 21
1196.983753395605
 31
0.0
  0
LINE
  5
280
330
20
100
AcDbEntity
  8
17
  6
Continuous
100
AcDbLine
 10
2336.240830703249
 20
1196.983753395605
 30
0.0
 11
2335.624117528384
 21
1195.931635329674
 31
0.0
  0
LINE
  5
281
330
20
100
AcDbEntity
  8
17
  6
Continuous
100
AcDbLine
 10
2335.624117528384
 20
1195.931635329674
 30
0.0
 11
2334.98897614137
 21
1194.877594712272
 31
0.0
  0
LINE
  5
282
330
20
100
AcDbEntity
  8
17
  6
Continuous
100
AcDbLine
 10
2334.98897614137
 20
1194.877594712272
 30
0.0
 11
2334.343713983802
 21
1193.821210408137
 31
0.0
  0
LINE
  5
283
330
20
100
AcDbEntity
  8
17
  6
Continuous
100
AcDbLine
 10
2334.343713983802
 20
1193.821210408137
 30
0.0
 11
2333.696638497275
 21
1192.762061282005
 31
0.0
  0
LINE
  5
284
330
20
100
AcDbEntity
  8
17
  6
Continuous
100
AcDbLine
 10
2333.696638497275
 20
1192.762061282005
 30
0.0
 11
2333.056057123385
 21
1191.699726198613
 31
0.0
  0
LINE
  5
285
330
20
100
AcDbEntity
  8
17
  6
Continuous
100
AcDbLine
 10
2333.056057123385
 20
1191.699726198613
 30
0.0
 11
2332.430277303725
 21
1190.6337840227
 31
0.0
  0
LINE
  5
286
330
20
100
AcDbEntity
  8
17
  6
Continuous
100
AcDbLine
 10
2332.430277303725
 20
1190.6337840227
 30
0.0
 11
2331.827606479892
 21
1189.563813619002
 31
0.0
  0
LINE
  5
287
330
20
100
AcDbEntity
  8
17
  6
Continuous
100
AcDbLine
 10
2331.827606479892
 20
1189.563813619002
 30
0.0
 11
2331.256352093481
 21
1188.489393852258
 31
0.0
  0
LINE
  5
288
330
20
100
AcDbEntity
  8
17
  6
Continuous
100
AcDbLine
 10
2331.256352093481
 20
1188.489393852258
 30
0.0
 11
2330.724821586088
 21
1187.410103587203
 31
0.0
  0
LINE
  5
289
330
20
100
AcDbEntity
  8
17
  6
Continuous
100
AcDbLine
 10
2330.724821586088
 20
1187.410103587203
 30
0.0
 11
2330.241322399307
 21
1186.325521688577
 31
0.0
  0
LINE
  5
28A
330
20
100
AcDbEntity
  8
17
  6
Continuous
100
AcDbLine
 10
2330.241322399307
 20
1186.325521688577
 30
0.0
 11
2329.814161974734
 21
1185.235227021115
 31
0.0
  0
LINE
  5
28B
330
20
100
AcDbEntity
  8
17
  6
Continuous
100
AcDbLine
 10
2329.814161974734
 20
1185.235227021115
 30
0.0
 11
2329.451647753964
 21
1184.138798449556
 31
0.0
  0
LINE
  5
28C
330
20
100
AcDbEntity
  8
17
  6
Continuous
100
AcDbLine
 10
2329.451647753964
 20
1184.138798449556
 30
0.0
 11
2329.118621447867
 21
1182.852159384854
 31
0.0
  0
LINE
  5
28D
330
20
100
AcDbEntity
  8
17
  6
Continuous
100
AcDbLine
 10
2329.118621447867
 20
1182.852159384854
 30
0.0
 11
2328.879832435526
 21
1181.557052899964
 31
0.0
  0
LINE
  5
28E
330
20
100
AcDbEntity
  8
17
  6
Continuous
100
AcDbLine
 10
2328.879832435526
 20
1181.557052899964
 30
0.0
 11
2328.730320859374
 21
1180.253924648582
 31
0.0
  0
LINE
  5
28F
330
20
100
AcDbEntity
  8
17
  6
Continuous
100
AcDbLine
 10
2328.730320859374
 20
1180.253924648582
 30
0.0
 11
2328.665126861846
 21
1178.943220284399
 31
0.0
  0
LINE
  5
290
330
20
100
AcDbEntity
  8
17
  6
Continuous
100
AcDbLine
 10
2328.665126861846
 20
1178.943220284399
 30
0.0
 11
2328.679290585376
 21
1177.625385461113
 31
0.0
  0
LINE
  5
291
330
20
100
AcDbEntity
  8
17
  6
Continuous
100
AcDbLine
 10
2328.679290585376
 20
1177.625385461113
 30
0.0
 11
2328.767852172398
 21
1176.300865832416
 31
0.0
  0
LINE
  5
292
330
20
100
AcDbEntity
  8
17
  6
Continuous
100
AcDbLine
 10
2328.767852172398
 20
1176.300865832416
 30
0.0
 11
2328.925851765344
 21
1174.970107052002
 31
0.0
  0
LINE
  5
293
330
20
100
AcDbEntity
  8
17
  6
Continuous
100
AcDbLine
 10
2328.925851765344
 20
1174.970107052002
 30
0.0
 11
2329.14832950665
 21
1173.633554773565
 31
0.0
  0
LINE
  5
294
330
20
100
AcDbEntity
  8
17
  6
Continuous
100
AcDbLine
 10
2329.14832950665
 20
1173.633554773565
 30
0.0
 11
2329.43032553875
 21
1172.2916546508
 31
0.0
  0
LINE
  5
295
330
20
100
AcDbEntity
  8
17
  6
Continuous
100
AcDbLine
 10
2329.43032553875
 20
1172.2916546508
 30
0.0
 11
2329.766880004076
 21
1170.9448523374
 31
0.0
  0
LINE
  5
296
330
20
100
AcDbEntity
  8
17
  6
Continuous
100
AcDbLine
 10
2329.766880004076
 20
1170.9448523374
 30
0.0
 11
2330.153033045064
 21
1169.593593487059
 31
0.0
  0
LINE
  5
297
330
20
100
AcDbEntity
  8
17
  6
Continuous
100
AcDbLine
 10
2330.153033045064
 20
1169.593593487059
 30
0.0
 11
2330.583824804147
 21
1168.238323753472
 31
0.0
  0
LINE
  5
298
330
20
100
AcDbEntity
  8
17
  6
Continuous
100
AcDbLine
 10
2330.583824804147
 20
1168.238323753472
 30
0.0
 11
2331.054295423758
 21
1166.879488790333
 31
0.0
  0
LINE
  5
299
330
20
100
AcDbEntity
  8
17
  6
Continuous
100
AcDbLine
 10
2331.054295423758
 20
1166.879488790333
 30
0.0
 11
2331.559485046331
 21
1165.517534251335
 31
0.0
  0
LINE
  5
29A
330
20
100
AcDbEntity
  8
17
  6
Continuous
100
AcDbLine
 10
2331.559485046331
 20
1165.517534251335
 30
0.0
 11
2332.094433814302
 21
1164.152905790172
 31
0.0
  0
LINE
  5
29B
330
20
100
AcDbEntity
  8
17
  6
Continuous
100
AcDbLine
 10
2332.094433814302
 20
1164.152905790172
 30
0.0
 11
2332.654181870104
 21
1162.78604906054
 31
0.0
  0
LINE
  5
29C
330
20
100
AcDbEntity
  8
17
  6
Continuous
100
AcDbLine
 10
2332.654181870104
 20
1162.78604906054
 30
0.0
 11
2333.233769356169
 21
1161.417409716131
 31
0.0
  0
LINE
  5
29D
330
20
100
AcDbEntity
  8
17
  6
Continuous
100
AcDbLine
 10
2333.233769356169
 20
1161.417409716131
 30
0.0
 11
2333.828236414932
 21
1160.04743341064
 31
0.0
  0
LINE
  5
29E
330
20
100
AcDbEntity
  8
17
  6
Continuous
100
AcDbLine
 10
2333.828236414932
 20
1160.04743341064
 30
0.0
 11
2334.432623188829
 21
1158.676565797762
 31
0.0
  0
LINE
  5
29F
330
20
100
AcDbEntity
  8
17
  6
Continuous
100
AcDbLine
 10
2334.432623188829
 20
1158.676565797762
 30
0.0
 11
2335.041969820291
 21
1157.305252531188
 31
0.0
  0
LINE
  5
2A0
330
20
100
AcDbEntity
  8
17
  6
Continuous
100
AcDbLine
 10
2546.139107894271
 20
1221.697591498025
 30
0.0
 11
2496.139107894271
 21
1221.697591498025
 31
0.0
  0
ARC
  5
2A1
330
20
100
AcDbEntity
  8
17
  6
Continuous
100
AcDbCircle
 10
2496.139107894271
 20
1201.697591498025
 30
0.0
 40
20.0
100
AcDbArc
 50
90.0
 51
180.0
  0
LINE
  5
2A2
330
20
100
AcDbEntity
  8
17
  6
Continuous
100
AcDbLine
 10
2476.13910789427
 20
1201.697591498025
 30
0.0
 11
2476.13910789427
 21
1053.037827467413
 31
0.0
  0
LINE
  5
2A3
330
20
100
AcDbEntity
  8
17
  6
Continuous
100
AcDbLine
 10
2546.139107894271
 20
1226.697591498025
 30
0.0
 11
2546.139107894271
 21
1221.697591498025
 31
0.0
  0
LINE
  5
2A4
330
20
100
AcDbEntity
  8
17
  6
Continuous
100
AcDbLine
 10
2476.13910789427
 20
1053.037827467413
 30
0.0
 11
2475.888241472061
 21
1053.032761311712
 31
0.0
  0
LINE
  5
2A5
330
20
100
AcDbEntity
  8
17
  6
Continuous
100
AcDbLine
 10
2475.888241472061
 20
1053.032761311712
 30
0.0
 11
2475.637388078756
 21
1053.027771338803
 31
0.0
  0
LINE
  5
2A6
330
20
100
AcDbEntity
  8
17
  6
Continuous
100
AcDbLine
 10
2475.637388078756
 20
1053.027771338803
 30
0.0
 11
2475.386560743263
 21
1053.02293373148
 31
0.0
  0
LINE
  5
2A7
330
20
100
AcDbEntity
  8
17
  6
Continuous
100
AcDbLine
 10
2475.386560743263
 20
1053.02293373148
 30
0.0
 11
2475.135772494486
 21
1053.018324672533
 31
0.0
  0
LINE
  5
2A8
330
20
100
AcDbEntity
  8
17
  6
Continuous
100
AcDbLine
 10
2475.135772494486
 20
1053.018324672533
 30
0.0
 11
2474.88503636133
 21
1053.014020344757
 31
0.0
  0
LINE
  5
2A9
330
20
100
AcDbEntity
  8
17
  6
Continuous
100
AcDbLine
 10
2474.88503636133
 20
1053.014020344757
 30
0.0
 11
2474.634365372701
 21
1053.010096930943
 31
0.0
  0
LINE
  5
2AA
330
20
100
AcDbEntity
  8
17
  6
Continuous
100
AcDbLine
 10
2474.634365372701
 20
1053.010096930943
 30
0.0
 11
2474.383772557505
 21
1053.006630613885
 31
0.0
  0
LINE
  5
2AB
330
20
100
AcDbEntity
  8
17
  6
Continuous
100
AcDbLine
 10
2474.383772557505
 20
1053.006630613885
 30
0.0
 11
2474.133270944647
 21
1053.003697576373
 31
0.0
  0
LINE
  5
2AC
330
20
100
AcDbEntity
  8
17
  6
Continuous
100
AcDbLine
 10
2474.133270944647
 20
1053.003697576373
 30
0.0
 11
2473.882873563032
 21
1053.001374001202
 31
0.0
  0
LINE
  5
2AD
330
20
100
AcDbEntity
  8
17
  6
Continuous
100
AcDbLine
 10
2473.882873563032
 20
1053.001374001202
 30
0.0
 11
2473.632593441565
 21
1052.999736071163
 31
0.0
  0
LINE
  5
2AE
330
20
100
AcDbEntity
  8
17
  6
Continuous
100
AcDbLine
 10
2473.632593441565
 20
1052.999736071163
 30
0.0
 11
2473.382443609154
 21
1052.99885996905
 31
0.0
  0
LINE
  5
2AF
330
20
100
AcDbEntity
  8
17
  6
Continuous
100
AcDbLine
 10
2473.382443609154
 20
1052.99885996905
 30
0.0
 11
2473.1324370947
 21
1052.998821877653
 31
0.0
  0
LINE
  5
2B0
330
20
100
AcDbEntity
  8
17
  6
Continuous
100
AcDbLine
 10
2473.1324370947
 20
1052.998821877653
 30
0.0
 11
2472.882586927113
 21
1052.999697979767
 31
0.0
  0
LINE
  5
2B1
330
20
100
AcDbEntity
  8
17
  6
Continuous
100
AcDbLine
 10
2472.882586927113
 20
1052.999697979767
 30
0.0
 11
2472.632906135296
 21
1053.001564458183
 31
0.0
  0
LINE
  5
2B2
330
20
100
AcDbEntity
  8
17
  6
Continuous
100
AcDbLine
 10
2472.632906135296
 20
1053.001564458183
 30
0.0
 11
2472.383407748154
 21
1053.004497495695
 31
0.0
  0
LINE
  5
2B3
330
20
100
AcDbEntity
  8
17
  6
Continuous
100
AcDbLine
 10
2472.383407748154
 20
1053.004497495695
 30
0.0
 11
2472.134104794593
 21
1053.008573275093
 31
0.0
  0
LINE
  5
2B4
330
20
100
AcDbEntity
  8
17
  6
Continuous
100
AcDbLine
 10
2472.134104794593
 20
1053.008573275093
 30
0.0
 11
2471.88501030352
 21
1053.013867979172
 31
0.0
  0
LINE
  5
2B5
330
20
100
AcDbEntity
  8
17
  6
Continuous
100
AcDbLine
 10
2471.88501030352
 20
1053.013867979172
 30
0.0
 11
2471.636137303837
 21
1053.020457790723
 31
0.0
  0
LINE
  5
2B6
330
20
100
AcDbEntity
  8
17
  6
Continuous
100
AcDbLine
 10
2471.636137303837
 20
1053.020457790723
 30
0.0
 11
2471.387498824453
 21
1053.028418892539
 31
0.0
  0
LINE
  5
2B7
330
20
100
AcDbEntity
  8
17
  6
Continuous
100
AcDbLine
 10
2471.387498824453
 20
1053.028418892539
 30
0.0
 11
2471.13910789427
 21
1053.037827467413
 31
0.0
  0
LINE
  5
2B8
330
20
100
AcDbEntity
  8
17
  6
Continuous
100
AcDbLine
 10
2471.13910789427
 20
1053.037827467413
 30
0.0
 11
2470.445228449244
 21
1053.072072759343
 31
0.0
  0
LINE
  5
2B9
330
20
100
AcDbEntity
  8
17
  6
Continuous
100
AcDbLine
 10
2470.445228449244
 20
1053.072072759343
 30
0.0
 11
2469.75309223615
 21
1053.117339123685
 31
0.0
  0
LINE
  5
2BA
330
20
100
AcDbEntity
  8
17
  6
Continuous
100
AcDbLine
 10
2469.75309223615
 20
1053.117339123685
 30
0.0
 11
2469.062401232165
 21
1053.172711980322
 31
0.0
  0
LINE
  5
2BB
330
20
100
AcDbEntity
  8
17
  6
Continuous
100
AcDbLine
 10
2469.062401232165
 20
1053.172711980322
 30
0.0
 11
2468.372857414462
 21
1053.23727674914
 31
0.0
  0
LINE
  5
2BC
330
20
100
AcDbEntity
  8
17
  6
Continuous
100
AcDbLine
 10
2468.372857414462
 20
1053.23727674914
 30
0.0
 11
2467.684162760214
 21
1053.310118850024
 31
0.0
  0
LINE
  5
2BD
330
20
100
AcDbEntity
  8
17
  6
Continuous
100
AcDbLine
 10
2467.684162760214
 20
1053.310118850024
 30
0.0
 11
2466.996019246597
 21
1053.390323702858
 31
0.0
  0
LINE
  5
2BE
330
20
100
AcDbEntity
  8
17
  6
Continuous
100
AcDbLine
 10
2466.996019246597
 20
1053.390323702858
 30
0.0
 11
2466.308128850785
 21
1053.476976727526
 31
0.0
  0
LINE
  5
2BF
330
20
100
AcDbEntity
  8
17
  6
Continuous
100
AcDbLine
 10
2466.308128850785
 20
1053.476976727526
 30
0.0
 11
2465.620193549951
 21
1053.569163343914
 31
0.0
  0
LINE
  5
2C0
330
20
100
AcDbEntity
  8
17
  6
Continuous
100
AcDbLine
 10
2465.620193549951
 20
1053.569163343914
 30
0.0
 11
2464.93191532127
 21
1053.665968971907
 31
0.0
  0
LINE
  5
2C1
330
20
100
AcDbEntity
  8
17
  6
Continuous
100
AcDbLine
 10
2464.93191532127
 20
1053.665968971907
 30
0.0
 11
2464.242996141916
 21
1053.766479031388
 31
0.0
  0
LINE
  5
2C2
330
20
100
AcDbEntity
  8
17
  6
Continuous
100
AcDbLine
 10
2464.242996141916
 20
1053.766479031388
 30
0.0
 11
2463.553137989064
 21
1053.869778942243
 31
0.0
  0
LINE
  5
2C3
330
20
100
AcDbEntity
  8
17
  6
Continuous
100
AcDbLine
 10
2463.553137989064
 20
1053.869778942243
 30
0.0
 11
2462.862042839886
 21
1053.974954124356
 31
0.0
  0
LINE
  5
2C4
330
20
100
AcDbEntity
  8
17
  6
Continuous
100
AcDbLine
 10
2462.862042839886
 20
1053.974954124356
 30
0.0
 11
2462.169412671558
 21
1054.081089997612
 31
0.0
  0
LINE
  5
2C5
330
20
100
AcDbEntity
  8
17
  6
Continuous
100
AcDbLine
 10
2462.169412671558
 20
1054.081089997612
 30
0.0
 11
2461.474949461254
 21
1054.187271981896
 31
0.0
  0
LINE
  5
2C6
330
20
100
AcDbEntity
  8
17
  6
Continuous
100
AcDbLine
 10
2461.474949461254
 20
1054.187271981896
 30
0.0
 11
2460.778355186147
 21
1054.292585497091
 31
0.0
  0
LINE
  5
2C7
330
20
100
AcDbEntity
  8
17
  6
Continuous
100
AcDbLine
 10
2460.778355186147
 20
1054.292585497091
 30
0.0
 11
2460.079331823413
 21
1054.396115963084
 31
0.0
  0
LINE
  5
2C8
330
20
100
AcDbEntity
  8
17
  6
Continuous
100
AcDbLine
 10
2460.079331823413
 20
1054.396115963084
 30
0.0
 11
2459.377581350225
 21
1054.496948799759
 31
0.0
  0
LINE
  5
2C9
330
20
100
AcDbEntity
  8
17
  6
Continuous
100
AcDbLine
 10
2459.377581350225
 20
1054.496948799759
 30
0.0
 11
2458.672805743757
 21
1054.594169427
 31
0.0
  0
LINE
  5
2CA
330
20
100
AcDbEntity
  8
17
  6
Continuous
100
AcDbLine
 10
2458.672805743757
 20
1054.594169427
 30
0.0
 11
2457.964706981184
 21
1054.686863264692
 31
0.0
  0
LINE
  5
2CB
330
20
100
AcDbEntity
  8
17
  6
Continuous
100
AcDbLine
 10
2457.964706981184
 20
1054.686863264692
 30
0.0
 11
2457.252987039679
 21
1054.774115732719
 31
0.0
  0
LINE
  5
2CC
330
20
100
AcDbEntity
  8
17
  6
Continuous
100
AcDbLine
 10
2457.252987039679
 20
1054.774115732719
 30
0.0
 11
2456.347147483604
 21
1054.87602117127
 31
0.0
  0
LINE
  5
2CD
330
20
100
AcDbEntity
  8
17
  6
Continuous
100
AcDbLine
 10
2456.347147483604
 20
1054.87602117127
 30
0.0
 11
2455.436496680142
 21
1054.970283251553
 31
0.0
  0
LINE
  5
2CE
330
20
100
AcDbEntity
  8
17
  6
Continuous
100
AcDbLine
 10
2455.436496680142
 20
1054.970283251553
 30
0.0
 11
2454.522497827077
 21
1055.059434171665
 31
0.0
  0
LINE
  5
2CF
330
20
100
AcDbEntity
  8
17
  6
Continuous
100
AcDbLine
 10
2454.522497827077
 20
1055.059434171665
 30
0.0
 11
2453.606614122191
 21
1055.146006129705
 31
0.0
  0
LINE
  5
2D0
330
20
100
AcDbEntity
  8
17
  6
Continuous
100
AcDbLine
 10
2453.606614122191
 20
1055.146006129705
 30
0.0
 11
2452.690308763267
 21
1055.232531323767
 31
0.0
  0
LINE
  5
2D1
330
20
100
AcDbEntity
  8
17
  6
Continuous
100
AcDbLine
 10
2452.690308763267
 20
1055.232531323767
 30
0.0
 11
2451.775044948086
 21
1055.321541951951
 31
0.0
  0
LINE
  5
2D2
330
20
100
AcDbEntity
  8
17
  6
Continuous
100
AcDbLine
 10
2451.775044948086
 20
1055.321541951951
 30
0.0
 11
2450.862285874429
 21
1055.41557021235
 31
0.0
  0
LINE
  5
2D3
330
20
100
AcDbEntity
  8
17
  6
Continuous
100
AcDbLine
 10
2450.862285874429
 20
1055.41557021235
 30
0.0
 11
2449.953494740081
 21
1055.517148303063
 31
0.0
  0
LINE
  5
2D4
330
20
100
AcDbEntity
  8
17
  6
Continuous
100
AcDbLine
 10
2449.953494740081
 20
1055.517148303063
 30
0.0
 11
2449.050134742822
 21
1055.628808422187
 31
0.0
  0
LINE
  5
2D5
330
20
100
AcDbEntity
  8
17
  6
Continuous
100
AcDbLine
 10
2449.050134742822
 20
1055.628808422187
 30
0.0
 11
2448.153669080436
 21
1055.753082767819
 31
0.0
  0
LINE
  5
2D6
330
20
100
AcDbEntity
  8
17
  6
Continuous
100
AcDbLine
 10
2448.153669080436
 20
1055.753082767819
 30
0.0
 11
2447.265560950704
 21
1055.892503538054
 31
0.0
  0
LINE
  5
2D7
330
20
100
AcDbEntity
  8
17
  6
Continuous
100
AcDbLine
 10
2447.265560950704
 20
1055.892503538054
 30
0.0
 11
2446.387273551408
 21
1056.049602930991
 31
0.0
  0
LINE
  5
2D8
330
20
100
AcDbEntity
  8
17
  6
Continuous
100
AcDbLine
 10
2446.387273551408
 20
1056.049602930991
 30
0.0
 11
2445.520270080331
 21
1056.226913144725
 31
0.0
  0
LINE
  5
2D9
330
20
100
AcDbEntity
  8
17
  6
Continuous
100
AcDbLine
 10
2445.520270080331
 20
1056.226913144725
 30
0.0
 11
2444.666013735255
 21
1056.426966377353
 31
0.0
  0
LINE
  5
2DA
330
20
100
AcDbEntity
  8
17
  6
Continuous
100
AcDbLine
 10
2444.666013735255
 20
1056.426966377353
 30
0.0
 11
2443.825967713961
 21
1056.652294826973
 31
0.0
  0
LINE
  5
2DB
330
20
100
AcDbEntity
  8
17
  6
Continuous
100
AcDbLine
 10
2443.825967713961
 20
1056.652294826973
 30
0.0
 11
2443.001595214233
 21
1056.905430691682
 31
0.0
  0
LINE
  5
2DC
330
20
100
AcDbEntity
  8
17
  6
Continuous
100
AcDbLine
 10
2443.001595214233
 20
1056.905430691682
 30
0.0
 11
2442.194359433853
 21
1057.188906169575
 31
0.0
  0
LINE
  5
2DD
330
20
100
AcDbEntity
  8
17
  6
Continuous
100
AcDbLine
 10
2442.194359433853
 20
1057.188906169575
 30
0.0
 11
2441.405723570602
 21
1057.50525345875
 31
0.0
  0
LINE
  5
2DE
330
20
100
AcDbEntity
  8
17
  6
Continuous
100
AcDbLine
 10
2441.405723570602
 20
1057.50525345875
 30
0.0
 11
2440.637150822263
 21
1057.857004757303
 31
0.0
  0
LINE
  5
2DF
330
20
100
AcDbEntity
  8
17
  6
Continuous
100
AcDbLine
 10
2440.637150822263
 20
1057.857004757303
 30
0.0
 11
2439.890104386618
 21
1058.246692263332
 31
0.0
  0
LINE
  5
2E0
330
20
100
AcDbEntity
  8
17
  6
Continuous
100
AcDbLine
 10
2439.890104386618
 20
1058.246692263332
 30
0.0
 11
2439.099819508899
 21
1058.717498097628
 31
0.0
  0
LINE
  5
2E1
330
20
100
AcDbEntity
  8
17
  6
Continuous
100
AcDbLine
 10
2439.099819508899
 20
1058.717498097628
 30
0.0
 11
2438.334807761656
 21
1059.233046650889
 31
0.0
  0
LINE
  5
2E2
330
20
100
AcDbEntity
  8
17
  6
Continuous
100
AcDbLine
 10
2438.334807761656
 20
1059.233046650889
 30
0.0
 11
2437.592917889368
 21
1059.78980553086
 31
0.0
  0
LINE
  5
2E3
330
20
100
AcDbEntity
  8
17
  6
Continuous
100
AcDbLine
 10
2437.592917889368
 20
1059.78980553086
 30
0.0
 11
2436.871998636517
 21
1060.384242345293
 31
0.0
  0
LINE
  5
2E4
330
20
100
AcDbEntity
  8
17
  6
Continuous
100
AcDbLine
 10
2436.871998636517
 20
1060.384242345293
 30
0.0
 11
2436.169898747583
 21
1061.012824701934
 31
0.0
  0
LINE
  5
2E5
330
20
100
AcDbEntity
  8
17
  6
Continuous
100
AcDbLine
 10
2436.169898747583
 20
1061.012824701934
 30
0.0
 11
2435.484466967047
 21
1061.672020208533
 31
0.0
  0
LINE
  5
2E6
330
20
100
AcDbEntity
  8
17
  6
Continuous
100
AcDbLine
 10
2435.484466967047
 20
1061.672020208533
 30
0.0
 11
2434.813552039391
 21
1062.358296472839
 31
0.0
  0
LINE
  5
2E7
330
20
100
AcDbEntity
  8
17
  6
Continuous
100
AcDbLine
 10
2434.813552039391
 20
1062.358296472839
 30
0.0
 11
2434.155002709093
 21
1063.068121102601
 31
0.0
  0
LINE
  5
2E8
330
20
100
AcDbEntity
  8
17
  6
Continuous
100
AcDbLine
 10
2434.155002709093
 20
1063.068121102601
 30
0.0
 11
2433.506667720636
 21
1063.797961705566
 31
0.0
  0
LINE
  5
2E9
330
20
100
AcDbEntity
  8
17
  6
Continuous
100
AcDbLine
 10
2433.506667720636
 20
1063.797961705566
 30
0.0
 11
2432.866395818498
 21
1064.544285889484
 31
0.0
  0
LINE
  5
2EA
330
20
100
AcDbEntity
  8
17
  6
Continuous
100
AcDbLine
 10
2432.866395818498
 20
1064.544285889484
 30
0.0
 11
2432.232035747162
 21
1065.303561262103
 31
0.0
  0
LINE
  5
2EB
330
20
100
AcDbEntity
  8
17
  6
Continuous
100
AcDbLine
 10
2432.232035747162
 20
1065.303561262103
 30
0.0
 11
2431.601436251107
 21
1066.072255431173
 31
0.0
  0
LINE
  5
2EC
330
20
100
AcDbEntity
  8
17
  6
Continuous
100
AcDbLine
 10
2431.601436251107
 20
1066.072255431173
 30
0.0
 11
2430.972446074816
 21
1066.846836004442
 31
0.0
  0
LINE
  5
2ED
330
20
100
AcDbEntity
  8
17
  6
Continuous
100
AcDbLine
 10
2430.972446074816
 20
1066.846836004442
 30
0.0
 11
2430.342913962767
 21
1067.623770589658
 31
0.0
  0
LINE
  5
2EE
330
20
100
AcDbEntity
  8
17
  6
Continuous
100
AcDbLine
 10
2430.342913962767
 20
1067.623770589658
 30
0.0
 11
2429.710688659442
 21
1068.39952679457
 31
0.0
  0
LINE
  5
2EF
330
20
100
AcDbEntity
  8
17
  6
Continuous
100
AcDbLine
 10
2429.710688659442
 20
1068.39952679457
 30
0.0
 11
2429.073618909321
 21
1069.170572226927
 31
0.0
  0
LINE
  5
2F0
330
20
100
AcDbEntity
  8
17
  6
Continuous
100
AcDbLine
 10
2429.073618909321
 20
1069.170572226927
 30
0.0
 11
2428.429553456886
 21
1069.933374494478
 31
0.0
  0
LINE
  5
2F1
330
20
100
AcDbEntity
  8
17
  6
Continuous
100
AcDbLine
 10
2428.429553456886
 20
1069.933374494478
 30
0.0
 11
2427.776341046615
 21
1070.684401204972
 31
0.0
  0
LINE
  5
2F2
330
20
100
AcDbEntity
  8
17
  6
Continuous
100
AcDbLine
 10
2427.776341046615
 20
1070.684401204972
 30
0.0
 11
2427.111830422992
 21
1071.420119966156
 31
0.0
  0
LINE
  5
2F3
330
20
100
AcDbEntity
  8
17
  6
Continuous
100
AcDbLine
 10
2427.111830422992
 20
1071.420119966156
 30
0.0
 11
2426.433870330495
 21
1072.136998385781
 31
0.0
  0
LINE
  5
2F4
330
20
100
AcDbEntity
  8
17
  6
Continuous
100
AcDbLine
 10
2426.433870330495
 20
1072.136998385781
 30
0.0
 11
2425.868769701772
 21
1072.706694742596
 31
0.0
  0
LINE
  5
2F5
330
20
100
AcDbEntity
  8
17
  6
Continuous
100
AcDbLine
 10
2425.868769701772
 20
1072.706694742596
 30
0.0
 11
2425.293776170363
 21
1073.26220385574
 31
0.0
  0
LINE
  5
2F6
330
20
100
AcDbEntity
  8
17
  6
Continuous
100
AcDbLine
 10
2425.293776170363
 20
1073.26220385574
 30
0.0
 11
2424.709410415359
 21
1073.80427242225
 31
0.0
  0
LINE
  5
2F7
330
20
100
AcDbEntity
  8
17
  6
Continuous
100
AcDbLine
 10
2424.709410415359
 20
1073.80427242225
 30
0.0
 11
2424.116193115849
 21
1074.333647139161
 31
0.0
  0
LINE
  5
2F8
330
20
100
AcDbEntity
  8
17
  6
Continuous
100
AcDbLine
 10
2424.116193115849
 20
1074.333647139161
 30
0.0
 11
2423.514644950918
 21
1074.851074703507
 31
0.0
  0
LINE
  5
2F9
330
20
100
AcDbEntity
  8
17
  6
Continuous
100
AcDbLine
 10
2423.514644950918
 20
1074.851074703507
 30
0.0
 11
2422.905286599658
 21
1075.357301812325
 31
0.0
  0
LINE
  5
2FA
330
20
100
AcDbEntity
  8
17
  6
Continuous
100
AcDbLine
 10
2422.905286599658
 20
1075.357301812325
 30
0.0
 11
2422.288638741158
 21
1075.853075162648
 31
0.0
  0
LINE
  5
2FB
330
20
100
AcDbEntity
  8
17
  6
Continuous
100
AcDbLine
 10
2422.288638741158
 20
1075.853075162648
 30
0.0
 11
2421.665222054504
 21
1076.339141451512
 31
0.0
  0
LINE
  5
2FC
330
20
100
AcDbEntity
  8
17
  6
Continuous
100
AcDbLine
 10
2421.665222054504
 20
1076.339141451512
 30
0.0
 11
2421.035557218786
 21
1076.816247375954
 31
0.0
  0
LINE
  5
2FD
330
20
100
AcDbEntity
  8
17
  6
Continuous
100
AcDbLine
 10
2421.035557218786
 20
1076.816247375954
 30
0.0
 11
2420.400164913093
 21
1077.285139633007
 31
0.0
  0
LINE
  5
2FE
330
20
100
AcDbEntity
  8
17
  6
Continuous
100
AcDbLine
 10
2420.400164913093
 20
1077.285139633007
 30
0.0
 11
2419.759565816513
 21
1077.746564919708
 31
0.0
  0
LINE
  5
2FF
330
20
100
AcDbEntity
  8
17
  6
Continuous
100
AcDbLine
 10
2419.759565816513
 20
1077.746564919708
 30
0.0
 11
2419.114280608135
 21
1078.201269933092
 31
0.0
  0
LINE
  5
300
330
20
100
AcDbEntity
  8
17
  6
Continuous
100
AcDbLine
 10
2419.114280608135
 20
1078.201269933092
 30
0.0
 11
2418.464829967048
 21
1078.650001370193
 31
0.0
  0
LINE
  5
301
330
20
100
AcDbEntity
  8
17
  6
Continuous
100
AcDbLine
 10
2418.464829967048
 20
1078.650001370193
 30
0.0
 11
2417.811734572341
 21
1079.093505928047
 31
0.0
  0
LINE
  5
302
330
20
100
AcDbEntity
  8
17
  6
Continuous
100
AcDbLine
 10
2417.811734572341
 20
1079.093505928047
 30
0.0
 11
2417.155515103101
 21
1079.532530303691
 31
0.0
  0
LINE
  5
303
330
20
100
AcDbEntity
  8
17
  6
Continuous
100
AcDbLine
 10
2417.155515103101
 20
1079.532530303691
 30
0.0
 11
2416.496692238418
 21
1079.967821194157
 31
0.0
  0
LINE
  5
304
330
20
100
AcDbEntity
  8
17
  6
Continuous
100
AcDbLine
 10
2416.496692238418
 20
1079.967821194157
 30
0.0
 11
2415.83578665738
 21
1080.400125296482
 31
0.0
  0
LINE
  5
305
330
20
100
AcDbEntity
  8
17
  6
Continuous
100
AcDbLine
 10
2415.83578665738
 20
1080.400125296482
 30
0.0
 11
2415.173319039076
 21
1080.830189307701
 31
0.0
  0
LINE
  5
306
330
20
100
AcDbEntity
  8
17
  6
Continuous
100
AcDbLine
 10
2415.173319039076
 20
1080.830189307701
 30
0.0
 11
2414.509810062595
 21
1081.25875992485
 31
0.0
  0
LINE
  5
307
330
20
100
AcDbEntity
  8
17
  6
Continuous
100
AcDbLine
 10
2414.509810062595
 20
1081.25875992485
 30
0.0
 11
2413.845780407026
 21
1081.686583844964
 31
0.0
  0
LINE
  5
308
330
20
100
AcDbEntity
  8
17
  6
Continuous
100
AcDbLine
 10
2471.13910789427
 20
1286.336462671495
 30
0.0
 11
2546.139107894271
 21
1286.336462671495
 31
0.0
  0
LINE
  5
309
330
20
100
AcDbEntity
  8
17
  6
Continuous
100
AcDbLine
 10
2471.13910789427
 20
1286.336462671495
 30
0.0
 11
2490.457624420052
 21
1291.512843573545
 31
0.0
  0
LINE
  5
30A
330
20
100
AcDbEntity
  8
17
  6
Continuous
100
AcDbLine
 10
2471.13910789427
 20
1286.336462671495
 30
0.0
 11
2490.457624420052
 21
1281.160081769444
 31
0.0
  0
LINE
  5
30B
330
20
100
AcDbEntity
  8
17
  6
Continuous
100
AcDbLine
 10
2546.139107894271
 20
1286.336462671495
 30
0.0
 11
2526.820591368489
 21
1281.160081769444
 31
0.0
  0
LINE
  5
30C
330
20
100
AcDbEntity
  8
17
  6
Continuous
100
AcDbLine
 10
2546.139107894271
 20
1286.336462671495
 30
0.0
 11
2526.820591368489
 21
1291.512843573545
 31
0.0
  0
LINE
  5
30D
330
20
100
AcDbEntity
  8
17
  6
Continuous
100
AcDbLine
 10
2471.13910789427
 20
1206.697591498026
 30
0.0
 11
2471.13910789427
 21
1291.336462671495
 31
0.0
  0
LINE
  5
30E
330
20
100
AcDbEntity
  8
17
  6
Continuous
100
AcDbLine
 10
2546.139107894271
 20
1226.697591498025
 30
0.0
 11
2546.139107894271
 21
1291.336462671495
 31
0.0
  0
TEXT
  5
30F
330
20
100
AcDbEntity
  8
17
100
AcDbText
 10
2498.639073017039
 20
1291.33651996806
 30
0.0
 40
20.0
  1
15
 50
0.00000001
 41
0.75
 51
15.0
 72
     1
 11
2508.639073017039
 21
1291.336519969805
 31
0.0
100
AcDbText
  0
LINE
  5
310
330
20
100
AcDbEntity
  8
17
  6
Continuous
100
AcDbLine
 10
2478.598440905152
 20
1219.511209928228
 30
0.0
 11
2506.048904199918
 21
1191.633588218142
 31
0.0
  0
LINE
  5
311
330
20
100
AcDbEntity
  8
17
  6
Continuous
100
AcDbLine
 10
2478.598440905152
 20
1219.511209928228
 30
0.0
 11
2495.841230478794
 21
1209.377789591583
 31
0.0
  0
LINE
  5
312
330
20
100
AcDbEntity
  8
17
  6
Continuous
100
AcDbLine
 10
2478.598440905152
 20
1219.511209928228
 30
0.0
 11
2488.464424539712
 21
1202.114015702647
 31
0.0
  0
TEXT
  5
313
330
20
100
AcDbEntity
  8
17
100
AcDbText
 10
2481.675990454275
 20
1182.805462929887
 30
0.0
 40
20.0
  1
R5
 50
314.55765914917
 41
0.75
 51
15.0
 72
     1
 11
2490.446323993602
 21
1173.898653758867
 31
0.0
100
AcDbText
  0
LINE
  5
314
330
20
100
AcDbEntity
  8
17
  6
Continuous
100
AcDbLine
 10
2584.810982894271
 20
996.0343261919032
 30
0.0
 11
2332.891340037128
 21
996.0343261919032
 31
0.0
  0
TEXT
  5
315
330
20
100
AcDbEntity
  8
17
100
AcDbText
 10
2327.698928160202
 20
1002.535860790117
 30
0.0
 40
30.0
  1
B-B　断面　Ｓ＝１／１
 41
0.6666666666670001
  7
BIGFONT
 72
     1
 11
2459.032261493601
 21
1017.535860790117
 31
0.0
100
AcDbText
 73
     2
  0
LINE
  5
324
330
20
100
AcDbEntity
  8
33
  6
HIDDEN
100
AcDbLine
 10
1336.235357894271
 20
1672.48718333476
 30
0.0
 11
1336.235357894271
 21
1624.224683334761
 31
0.0
  0
LINE
  5
325
330
20
100
AcDbEntity
  8
33
  6
HIDDEN
100
AcDbLine
 10
1336.235357894271
 20
1608.38468333476
 30
0.0
 11
1336.235357894271
 21
1588.402846600066
 31
0.0
  0
LINE
  5
326
330
20
100
AcDbEntity
  8
33
  6
HIDDEN
100
AcDbLine
 10
1847.973840037127
 20
1464.44923690619
 30
0.0
 11
1827.992003302433
 21
1464.44923690619
 31
0.0
  0
LINE
  5
327
330
20
100
AcDbEntity
  8
33
  6
HIDDEN
100
AcDbLine
 10
1841.686182192741
 20
1502.71481088578
 30
0.0
 11
1841.686182192741
 21
1387.172719049046
 31
0.0
  0
LINE
  5
328
330
20
100
AcDbEntity
  8
33
  6
HIDDEN
100
AcDbLine
 10
2320.105944628964
 20
1624.412833844964
 30
0.0
 11
2320.105944628964
 21
865.812706293944
 31
0.0
  0
MTEXT
  5
357
330
20
100
AcDbEntity
  8
一般
100
AcDbMText
 10
322.7537775584292
 20
463.4763561126241
 30
0.0
 40
30.0
 41
0.0
 71
     1
 72
     1
  3
{\C7;\l\U+203B\U+5b9f\U+5bf8\U+306b\U+306f\U+88fd\U+9020\U+4e0a\U+306e\U+8aa4\U+5dee\U+304c\U+591a\U+5c11\U+751f\U+305a\U+308b\U+5834\U+5408\U+304c\U+3042\U+308a\U+307e\U+3059\U+3002\U+30b7\U+30f3\U+30af\U+306e\U+7a74\U+3042\U+3051\U+52a0\U+5de5\U+30
  1
6f\U+73fe\U+7269\U+5408\U+308f\U+305b\U+306b\U+3066\U+304a\U+9858\U+3044\U+3057\U+307e\U+3059\U+3002}
  7
ＭＳ ゴシック
 73
     1
 44
0.7922963146858743
1001
ACAD
1000
MTEXTBEGIN
1070
    73
1070
     1
1070
    44
1040
0.7922963146858743
1070
    74
1070
     0
1000
MTEXTEND
  0
MTEXT
  5
358
330
20
100
AcDbEntity
  8
一般
 62
     0
100
AcDbMText
 10
2699.698222002874
 20
455.7380312395282
 30
0.0
 40
32.57682291666667
 41
0.0
 71
     5
 72
     1
  1
{\fArial|b0|i0|c0|p32;950A\fMS Gothic|b0|i0|c128|p0;ボール}
  7
ＭＳ ゴシック
 73
     1
 44
0.9002507491896516
1001
ACAD
1000
MTEXTBEGIN
1070
    73
1070
     1
1070
    44
1040
0.9002507491896516
1070
    74
1070
     0
1000
MTEXTEND
  0
MTEXT
  5
359
330
20
100
AcDbEntity
  8
一般
 62
     0
100
AcDbMText
 10
2798.253777558429
 20
2136.839033843696
 30
0.0
 40
35.29155815972223
 41
0.0
 71
     1
 72
     1
  1
{\fMS Gothic|b0|i0|c128|p0;0.7\fArial|b0|i0|c0|p32;mm}
  7
ＭＳ ゴシック
 73
     1
 44
0.7828267384257841
1001
ACAD
1000
MTEXTBEGIN
1070
    73
1070
     1
1070
    44
1040
0.7828267384257841
1070
    74
1070
     0
1000
MTEXTEND
  0
MTEXT
  5
35A
330
20
100
AcDbEntity
  8
一般
 62
     0
100
AcDbMText
 10
2535.753777558429
 20
2136.839033843696
 30
0.0
 40
35.29155815972223
 41
0.0
 71
     1
 72
     1
  1
SUS304
  7
ＭＳ ゴシック
 73
     1
 44
0.7828267384257841
1001
ACAD
1000
MTEXTBEGIN
1070
    73
1070
     1
1070
    44
1040
0.7828267384257841
1070
    74
1070
     0
1000
MTEXTEND
  0
MTEXT
  5
35B
330
20
100
AcDbEntity
  8
一般
 62
     0
100
AcDbMText
 10
2780.753777558429
 20
2199.059305002207
 30
0.0
 40
35.29155815972223
 41
0.0
 71
     1
 72
     1
  1
\U+7d20\U+6750\U+65b9\U+6cd5
  7
ＭＳ ゴシック
 73
     1
 44
0.7828267384257841
1001
ACAD
1000
MTEXTBEGIN
1070
    73
1070
     1
1070
    44
1040
0.7828267384257841
1070
    74
1070
     0
1000
MTEXTEND
  0
MTEXT
  5
35C
330
20
100
AcDbEntity
  8
一般
 62
     0
100
AcDbMText
 10
2555.753777558429
 20
2199.059305002207
 30
0.0
 40
35.29155815972223
 41
0.0
 71
     1
 72
     1
  1
\U+6750\U+8cea
  7
ＭＳ ゴシック
 73
     1
 44
0.7828267384257841
1001
ACAD
1000
MTEXTBEGIN
1070
    73
1070
     1
1070
    44
1040
0.7828267384257841
1070
    74
1070
     0
1000
MTEXTEND
  0
MTEXT
  5
35D
330
20
100
AcDbEntity
  8
一般
 62
     0
100
AcDbMText
 10
2305.753777558429
 20
2136.839033843696
 30
0.0
 40
35.29155815972223
 41
0.0
 71
     1
 72
     1
  1
\U+30dc\U+30fc\U+30eb
  7
ＭＳ ゴシック
 73
     1
 44
0.7828267384257841
1001
ACAD
1000
MTEXTBEGIN
1070
    73
1070
     1
1070
    44
1040
0.7828267384257841
1070
    74
1070
     0
1000
MTEXTEND
  0
MTEXT
  5
35E
330
20
100
AcDbEntity
  8
一般
 62
     0
100
AcDbMText
 10
2313.253777558429
 20
2198.264592281439
 30
0.0
 40
33.79825020482697
 41
0.0
 71
     1
 72
     1
  1
\U+90e8\U+54c1\U+540d
  7
ＭＳ ゴシック
 73
     1
 44
0.7828267384257847
1001
ACAD
1000
MTEXTBEGIN
1070
    73
1070
     1
1070
    44
1040
0.7828267384257847
1070
    74
1070
     0
1000
MTEXTEND
  0
MTEXT
  5
35F
330
20
100
AcDbEntity
  8
一般
 62
     0
100
AcDbMText
 10
2308.324555741429
 20
409.036950510362
 30
0.0
 40
35.29155815972223
 41
0.0
 71
     1
 72
     1
  1
\U+5c3a\U+5ea6
  7
ＭＳ ゴシック
 73
     1
 44
0.7828267384257841
1001
ACAD
1000
MTEXTBEGIN
1070
    73
1070
     1
1070
    44
1040
0.7828267384257841
1070
    74
1070
     0
1000
MTEXTEND
  0
MTEXT
  5
360
330
20
100
AcDbEntity
  8
一般
 62
     0
100
AcDbMText
 10
2305.753777558429
 20
476.8390338436952
 30
0.0
 40
35.29155815972223
 41
0.0
 71
     1
 72
     1
  1
\U+54c1\U+756a
  7
ＭＳ ゴシック
 73
     1
 44
0.7828267384257841
1001
ACAD
1000
MTEXTBEGIN
1070
    73
1070
     1
1070
    44
1040
0.7828267384257841
1070
    74
1070
     0
1000
MTEXTEND
  0
MTEXT
  5
361
330
20
100
AcDbEntity
  8
一般
 62
     0
100
AcDbMText
 10
2413.253777558429
 20
341.9076782302695
 30
0.0
 40
35.36964699074076
 41
0.0
 71
     1
 72
     1
  1
e-KITCHEN {\H0.3571x;\lU-ARCHITECTURE WORKS}
  7
Arial
 73
     1
 44
0.9673603504928808
1001
ACAD
1000
MTEXTBEGIN
1070
    73
1070
     1
1070
    44
1040
0.9673603504928808
1070
    74
1070
     0
1000
MTEXTEND
  0
MTEXT
  5
362
330
20
100
AcDbEntity
  8
一般
 62
     0
100
AcDbMText
 10
2703.63509675015
 20
406.8733104273457
 30
0.0
 40
35.0
 41
0.0
 71
     2
 72
     1
  1
1\U+ff1a10
  7
ＭＳ ゴシック
 73
     1
 44
0.7859706209094222
1001
ACAD
1000
MTEXTBEGIN
1070
    73
1070
     1
1070
    44
1040
0.7859706209094222
1070
    74
1070
     0
1000
MTEXTEND
  0
LINE
  5
363
330
20
100
AcDbEntity
  8
一般
 62
     0
100
AcDbLine
 10
2737.753777558429
 20
2085.988031239529
 30
0.0
 11
2737.753777558429
 21
2215.98803123953
 31
0.0
  0
LINE
  5
364
330
20
100
AcDbEntity
  8
一般
 62
     0
100
AcDbLine
 10
2462.753777558429
 20
2085.988031239529
 30
0.0
 11
2462.753777558429
 21
2215.98803123953
 31
0.0
  0
LINE
  5
365
330
20
100
AcDbEntity
  8
一般
 62
     0
100
AcDbLine
 10
2292.753777558429
 20
2085.988031239529
 30
0.0
 11
2292.753777558429
 21
2215.98803123953
 31
0.0
  0
LINE
  5
366
330
20
100
AcDbEntity
  8
一般
 62
     0
100
AcDbLine
 10
3012.753777558429
 20
2085.988031239529
 30
0.0
 11
2292.753777558429
 21
2085.988031239529
 31
0.0
  0
LINE
  5
367
330
20
100
AcDbEntity
  8
一般
 62
     0
100
AcDbLine
 10
3012.753777558429
 20
2150.988031239529
 30
0.0
 11
2292.753777558429
 21
2150.988031239529
 31
0.0
  0
LINE
  5
368
330
20
100
AcDbEntity
  8
一般
 62
     0
100
AcDbLine
 10
2292.753777558429
 20
295.9880312395287
 30
0.0
 11
2292.753777558429
 21
490.9880312395286
 31
0.0
  0
LINE
  5
369
330
20
100
AcDbEntity
  8
一般
 62
     0
100
AcDbLine
 10
2292.753777558429
 20
360.9880312395287
 30
0.0
 11
3012.753777558429
 21
360.9880312395287
 31
0.0
  0
LINE
  5
36A
330
20
100
AcDbEntity
  8
一般
 62
     0
100
AcDbLine
 10
3012.753777558429
 20
425.9880312395287
 30
0.0
 11
3012.753777558429
 21
490.9880312395286
 31
0.0
  0
LINE
  5
36B
330
20
100
AcDbEntity
  8
一般
 62
     0
100
AcDbLine
 10
3012.753777558429
 20
295.9880312395287
 30
0.0
 11
3012.753777558429
 21
360.9880312395287
 31
0.0
  0
LINE
  5
36C
330
20
100
AcDbEntity
  8
一般
 62
     0
100
AcDbLine
 10
2292.753777558429
 20
490.9880312395286
 30
0.0
 11
3012.753777558429
 21
490.9880312395286
 31
0.0
  0
LINE
  5
36D
330
20
100
AcDbEntity
  8
一般
 62
     0
100
AcDbLine
 10
2292.753777558429
 20
425.9880312395287
 30
0.0
 11
3012.753777558429
 21
425.9880312395287
 31
0.0
  0
LINE
  5
36E
330
20
100
AcDbEntity
  8
一般
 62
     0
100
AcDbLine
 10
2412.753777558429
 20
360.9880312395287
 30
0.0
 11
3012.753777558429
 21
360.9880312395287
 31
0.0
  0
LINE
  5
36F
330
20
100
AcDbEntity
  8
一般
 62
     0
100
AcDbLine
 10
2412.753777558429
 20
360.9880312395287
 30
0.0
 11
2412.753777558429
 21
490.9880312395286
 31
0.0
  0
LINE
  5
370
330
20
100
AcDbEntity
  8
一般
100
AcDbLine
 10
3012.753777558429
 20
295.9880312395287
 30
0.0
 11
3012.753777558429
 21
2215.98803123953
 31
0.0
  0
LINE
  5
371
330
20
100
AcDbEntity
  8
一般
100
AcDbLine
 10
3012.753777558429
 20
2215.98803123953
 30
0.0
 11
232.7537775584292
 21
2215.98803123953
 31
0.0
  0
LINE
  5
372
330
20
100
AcDbEntity
  8
一般
100
AcDbLine
 10
232.7537775584292
 20
2215.98803123953
 30
0.0
 11
232.7537775584292
 21
295.9880312395287
 31
0.0
  0
LINE
  5
373
330
20
100
AcDbEntity
  8
一般
100
AcDbLine
 10
232.7537775584292
 20
295.9880312395287
 30
0.0
 11
3012.753777558429
 21
295.9880312395287
 31
0.0
  0
TEXT
  5
374
330
20
100
AcDbEntity
  8
2
 62
     2
100
AcDbText
 10
-3342.488229864241
 20
1721.339913196806
 30
0.0
 40
20.0
  1

 50
90.0
 41
0.75
 51
15.0
 72
     1
 11
-3342.488229864241
 21
1721.339913196806
 31
0.0
100
AcDbText
  0
ENDSEC
  0
SECTION
  2
OBJECTS
  0
DICTIONARY
  5
C
330
0
100
AcDbDictionary
281
     1
  3
ACAD_COLOR
350
1B
  3
ACAD_GROUP
350
D
  3
ACAD_LAYOUT
350
19
  3
ACAD_MATERIAL
350
1A
  3
ACAD_MLINESTYLE
350
16
  3
ACAD_PLOTSETTINGS
350
18
  3
ACAD_PLOTSTYLENAME
350
E
  3
ACDBHEADERROUNDTRIPXREC
350
386
  3
AcDbVariableDictionary
350
382
  0
DICTIONARY
  5
1B
102
{ACAD_REACTORS
330
C
102
}
330
C
100
AcDbDictionary
281
     1
  0
DICTIONARY
  5
D
102
{ACAD_REACTORS
330
C
102
}
330
C
100
AcDbDictionary
281
     1
  0
DICTIONARY
  5
19
102
{ACAD_REACTORS
330
C
102
}
330
C
100
AcDbDictionary
281
     1
  3
Model
350
23
  3
レイアウト1
350
1F
  0
DICTIONARY
  5
1A
102
{ACAD_REACTORS
330
C
102
}
330
C
100
AcDbDictionary
281
     1
  0
DICTIONARY
  5
16
102
{ACAD_REACTORS
330
C
102
}
330
C
100
AcDbDictionary
281
     1
  3
Standard
350
17
  0
DICTIONARY
  5
18
102
{ACAD_REACTORS
330
C
102
}
330
C
100
AcDbDictionary
281
     1
  0
ACDBDICTIONARYWDFLT
  5
E
102
{ACAD_REACTORS
330
C
102
}
330
C
100
AcDbDictionary
281
     1
  3
Normal
350
F
100
AcDbDictionaryWithDefault
340
F
  0
DICTIONARY
  5
386
102
{ACAD_REACTORS
330
C
102
}
330
C
100
AcDbDictionary
281
     1
  3
COLORDICT
350
388
  3
MATERIALDICT
350
387
  0
DICTIONARY
  5
382
102
{ACAD_REACTORS
330
C
102
}
330
C
100
AcDbDictionary
281
     1
  3
DIMASSOC
350
383
  3
PROJECTNAME
350
384
  0
LAYOUT
  5
23
102
{ACAD_XDICTIONARY
360
38B
102
}
102
{ACAD_REACTORS
330
19
102
}
330
19
100
AcDbPlotSettings
  1

  2
Adobe PDF
  4

  6

 40
0.0
 41
0.0
 42
0.0
 43
0.0
 44
0.0
 45
0.0
 46
0.0
 47
0.0
 48
0.0
 49
0.0
140
0.0
141
0.0
142
1.0
143
1.0
 70
  1712
 72
     0
 73
     0
 74
     0
  7

 75
     0
147
1.0
148
0.0
149
0.0
100
AcDbLayout
  1
Model
 70
     1
 71
     0
 10
0.0
 20
0.0
 11
12.0
 21
9.0
 12
0.0
 22
0.0
 32
0.0
 14
0.0
 24
0.0
 34
0.0
 15
0.0
 25
0.0
 35
0.0
146
0.0
 13
0.0
 23
0.0
 33
0.0
 16
1.0
 26
0.0
 36
0.0
 17
0.0
 27
1.0
 37
0.0
 76
     0
330
20
  0
LAYOUT
  5
1F
102
{ACAD_XDICTIONARY
360
389
102
}
102
{ACAD_REACTORS
330
19
102
}
330
19
100
AcDbPlotSettings
  1

  2
Adobe PDF
  4

  6

 40
0.0
 41
0.0
 42
0.0
 43
0.0
 44
0.0
 45
0.0
 46
0.0
 47
0.0
 48
0.0
 49
0.0
140
0.0
141
0.0
142
1.0
143
1.0
 70
   688
 72
     0
 73
     0
 74
     5
  7

 75
    16
147
1.0
148
0.0
149
0.0
100
AcDbLayout
  1
レイアウト1
 70
     1
 71
     1
 10
0.0
 20
0.0
 11
12.0
 21
9.0
 12
0.0
 22
0.0
 32
0.0
 14
1.000000000000000E+20
 24
1.000000000000000E+20
 34
1.000000000000000E+20
 15
-1.000000000000000E+20
 25
-1.000000000000000E+20
 35
-1.000000000000000E+20
146
0.0
 13
0.0
 23
0.0
 33
0.0
 16
1.0
 26
0.0
 36
0.0
 17
0.0
 27
1.0
 37
0.0
 76
     0
330
1C
  0
MLINESTYLE
  5
17
102
{ACAD_REACTORS
330
16
102
}
330
16
100
AcDbMlineStyle
  2
STANDARD
 70
     0
  3

 62
   256
 51
90.0
 52
90.0
 71
     2
 49
0.5
 62
   256
  6
BYLAYER
 49
-0.5
 62
   256
  6
BYLAYER
  0
ACDBPLACEHOLDER
  5
F
102
{ACAD_REACTORS
330
E
102
}
330
E
  0
XRECORD
  5
388
102
{ACAD_REACTORS
330
386
102
}
330
386
100
AcDbXrecord
280
     1
340
1B
  0
XRECORD
  5
387
102
{ACAD_REACTORS
330
386
102
}
330
386
100
AcDbXrecord
280
     1
340
1A
  0
DICTIONARYVAR
  5
383
102
{ACAD_REACTORS
330
382
102
}
330
382
100
DictionaryVariables
280
     0
  1
1
  0
DICTIONARYVAR
  5
384
102
{ACAD_REACTORS
330
382
102
}
330
382
100
DictionaryVariables
280
     0
  1

  0
DICTIONARY
  5
38B
330
23
100
AcDbDictionary
280
     1
281
     1
  3
ACAD_XREC_ROUNDTRIP
360
38C
  0
DICTIONARY
  5
389
330
1F
100
AcDbDictionary
280
     1
281
     1
  3
ACAD_XREC_ROUNDTRIP
360
38A
  0
XRECORD
  5
38C
102
{ACAD_REACTORS
330
38B
102
}
330
38B
100
AcDbXrecord
280
     1
102
SHADEPLOT
 70
     0
102
SHADEPLOTRESLEVEL
 70
     2
102
SHADEPLOTCUSTOMDPI
 70
   300
  0
XRECORD
  5
38A
102
{ACAD_REACTORS
330
389
102
}
330
389
100
AcDbXrecord
280
     1
102
SHADEPLOT
 70
     0
102
SHADEPLOTRESLEVEL
 70
     2
102
SHADEPLOTCUSTOMDPI
 70
   300
  0
ENDSEC
  0
EOF
