  0
SECTION
  2
HEADER
  9
$ACADVER
  1
AC1015
  9
$ACADMAINTVER
 70
    20
  9
$DWGCODEPAGE
  3
ANSI_932
  9
$INSBASE
 10
0.0
 20
0.0
 30
0.0
  9
$EXTMIN
 10
-120.291128056464
 20
228.5417247104242
 30
-0.0015258207003583
  9
$EXTMAX
 10
2659.799202321794
 20
2149.144140480952
 30
0.0000000349246037
  9
$LIMMIN
 10
0.0
 20
0.0
  9
$LIMMAX
 10
12.0
 20
9.0
  9
$ORTHOMODE
 70
     1
  9
$REGENMODE
 70
     1
  9
$FILLMODE
 70
     1
  9
$QTEXTMODE
 70
     0
  9
$MIRRTEXT
 70
     0
  9
$LTSCALE
 40
150.0
  9
$ATTMODE
 70
     1
  9
$TEXTSIZE
 40
1.0
  9
$TRACEWID
 40
0.05
  9
$TEXTSTYLE
  7
STANDARD
  9
$CLAYER
  8
0
  9
$CELTYPE
  6
CONTINUOUS
  9
$CECOLOR
 62
   256
  9
$CELTSCALE
 40
1.0
  9
$DISPSILH
 70
     0
  9
$DIMSCALE
 40
1.0
  9
$DIMASZ
 40
0.18
  9
$DIMEXO
 40
0.0625
  9
$DIMDLI
 40
0.38
  9
$DIMRND
 40
0.0
  9
$DIMDLE
 40
0.0
  9
$DIMEXE
 40
0.18
  9
$DIMTP
 40
0.0
  9
$DIMTM
 40
0.0
  9
$DIMTXT
 40
0.18
  9
$DIMCEN
 40
0.09
  9
$DIMTSZ
 40
0.0
  9
$DIMTOL
 70
     0
  9
$DIMLIM
 70
     0
  9
$DIMTIH
 70
     1
  9
$DIMTOH
 70
     1
  9
$DIMSE1
 70
     0
  9
$DIMSE2
 70
     0
  9
$DIMTAD
 70
     0
  9
$DIMZIN
 70
     0
  9
$DIMBLK
  1

  9
$DIMASO
 70
     1
  9
$DIMSHO
 70
     1
  9
$DIMPOST
  1

  9
$DIMAPOST
  1

  9
$DIMALT
 70
     0
  9
$DIMALTD
 70
     2
  9
$DIMALTF
 40
25.4
  9
$DIMLFAC
 40
1.0
  9
$DIMTOFL
 70
     0
  9
$DIMTVP
 40
0.0
  9
$DIMTIX
 70
     0
  9
$DIMSOXD
 70
     0
  9
$DIMSAH
 70
     0
  9
$DIMBLK1
  1

  9
$DIMBLK2
  1

  9
$DIMSTYLE
  2
Standard
  9
$DIMCLRD
 70
     0
  9
$DIMCLRE
 70
     0
  9
$DIMCLRT
 70
     0
  9
$DIMTFAC
 40
1.0
  9
$DIMGAP
 40
0.09
  9
$DIMJUST
 70
     0
  9
$DIMSD1
 70
     0
  9
$DIMSD2
 70
     0
  9
$DIMTOLJ
 70
     1
  9
$DIMTZIN
 70
     0
  9
$DIMALTZ
 70
     0
  9
$DIMALTTZ
 70
     0
  9
$DIMUPT
 70
     0
  9
$DIMDEC
 70
     4
  9
$DIMTDEC
 70
     4
  9
$DIMALTU
 70
     2
  9
$DIMALTTD
 70
     2
  9
$DIMTXSTY
  7
STANDARD
  9
$DIMAUNIT
 70
     0
  9
$DIMADEC
 70
     0
  9
$DIMALTRND
 40
0.0
  9
$DIMAZIN
 70
     0
  9
$DIMDSEP
 70
    46
  9
$DIMATFIT
 70
     3
  9
$DIMFRAC
 70
     0
  9
$DIMLDRBLK
  1

  9
$DIMLUNIT
 70
     2
  9
$DIMLWD
 70
    -2
  9
$DIMLWE
 70
    -2
  9
$DIMTMOVE
 70
     0
  9
$LUNITS
 70
     2
  9
$LUPREC
 70
     4
  9
$SKETCHINC
 40
0.1
  9
$FILLETRAD
 40
0.0
  9
$AUNITS
 70
     0
  9
$AUPREC
 70
     0
  9
$MENU
  1
.
  9
$ELEVATION
 40
0.0
  9
$PELEVATION
 40
0.0
  9
$THICKNESS
 40
0.0
  9
$LIMCHECK
 70
     0
  9
$CHAMFERA
 40
0.0
  9
$CHAMFERB
 40
0.0
  9
$CHAMFERC
 40
0.0
  9
$CHAMFERD
 40
0.0
  9
$SKPOLY
 70
     0
  9
$TDCREATE
 40
2453857.397238496
  9
$TDUCREATE
 40
2453857.022238495
  9
$TDUPDATE
 40
2453857.405501840
  9
$TDUUPDATE
 40
2453857.030501840
  9
$TDINDWG
 40
0.0082693171
  9
$TDUSRTIMER
 40
0.0082693171
  9
$USRTIMER
 70
     1
  9
$ANGBASE
 50
0.0
  9
$ANGDIR
 70
     0
  9
$PDMODE
 70
     0
  9
$PDSIZE
 40
0.0
  9
$PLINEWID
 40
0.0
  9
$SPLFRAME
 70
     0
  9
$SPLINETYPE
 70
     6
  9
$SPLINESEGS
 70
     8
  9
$HANDSEED
  5
488
  9
$SURFTAB1
 70
     6
  9
$SURFTAB2
 70
     6
  9
$SURFTYPE
 70
     6
  9
$SURFU
 70
     6
  9
$SURFV
 70
     6
  9
$UCSBASE
  2

  9
$UCSNAME
  2

  9
$UCSORG
 10
0.0
 20
0.0
 30
0.0
  9
$UCSXDIR
 10
1.0
 20
0.0
 30
0.0
  9
$UCSYDIR
 10
0.0
 20
1.0
 30
0.0
  9
$UCSORTHOREF
  2

  9
$UCSORTHOVIEW
 70
     0
  9
$UCSORGTOP
 10
0.0
 20
0.0
 30
0.0
  9
$UCSORGBOTTOM
 10
0.0
 20
0.0
 30
0.0
  9
$UCSORGLEFT
 10
0.0
 20
0.0
 30
0.0
  9
$UCSORGRIGHT
 10
0.0
 20
0.0
 30
0.0
  9
$UCSORGFRONT
 10
0.0
 20
0.0
 30
0.0
  9
$UCSORGBACK
 10
0.0
 20
0.0
 30
0.0
  9
$PUCSBASE
  2

  9
$PUCSNAME
  2

  9
$PUCSORG
 10
0.0
 20
0.0
 30
0.0
  9
$PUCSXDIR
 10
1.0
 20
0.0
 30
0.0
  9
$PUCSYDIR
 10
0.0
 20
1.0
 30
0.0
  9
$PUCSORTHOREF
  2

  9
$PUCSORTHOVIEW
 70
     0
  9
$PUCSORGTOP
 10
0.0
 20
0.0
 30
0.0
  9
$PUCSORGBOTTOM
 10
0.0
 20
0.0
 30
0.0
  9
$PUCSORGLEFT
 10
0.0
 20
0.0
 30
0.0
  9
$PUCSORGRIGHT
 10
0.0
 20
0.0
 30
0.0
  9
$PUCSORGFRONT
 10
0.0
 20
0.0
 30
0.0
  9
$PUCSORGBACK
 10
0.0
 20
0.0
 30
0.0
  9
$USERI1
 70
     0
  9
$USERI2
 70
     0
  9
$USERI3
 70
     0
  9
$USERI4
 70
     0
  9
$USERI5
 70
     0
  9
$USERR1
 40
0.0
  9
$USERR2
 40
0.0
  9
$USERR3
 40
0.0
  9
$USERR4
 40
0.0
  9
$USERR5
 40
0.0
  9
$WORLDVIEW
 70
     1
  9
$SHADEDGE
 70
     3
  9
$SHADEDIF
 70
    70
  9
$TILEMODE
 70
     1
  9
$MAXACTVP
 70
    64
  9
$PINSBASE
 10
0.0
 20
0.0
 30
0.0
  9
$PLIMCHECK
 70
     0
  9
$PEXTMIN
 10
1.000000000000000E+20
 20
1.000000000000000E+20
 30
1.000000000000000E+20
  9
$PEXTMAX
 10
-1.000000000000000E+20
 20
-1.000000000000000E+20
 30
-1.000000000000000E+20
  9
$PLIMMIN
 10
0.0
 20
0.0
  9
$PLIMMAX
 10
12.0
 20
9.0
  9
$UNITMODE
 70
     0
  9
$VISRETAIN
 70
     1
  9
$PLINEGEN
 70
     0
  9
$PSLTSCALE
 70
     1
  9
$TREEDEPTH
 70
  3020
  9
$CMLSTYLE
  2
Standard
  9
$CMLJUST
 70
     0
  9
$CMLSCALE
 40
1.0
  9
$PROXYGRAPHICS
 70
     1
  9
$MEASUREMENT
 70
     0
  9
$CELWEIGHT
370
    -1
  9
$ENDCAPS
280
     0
  9
$JOINSTYLE
280
     0
  9
$LWDISPLAY
290
     0
  9
$INSUNITS
 70
     0
  9
$HYPERLINKBASE
  1

  9
$STYLESHEET
  1

  9
$XEDIT
290
     1
  9
$CEPSNTYPE
380
     0
  9
$PSTYLEMODE
290
     1
  9
$FINGERPRINTGUID
  2
{AF2DFC64-8847-46B7-859C-AB366C07893B}
  9
$VERSIONGUID
  2
{8A0FC4B4-D1C9-4F1B-9160-5067D7846ACB}
  9
$EXTNAMES
290
     1
  9
$PSVPSCALE
 40
0.0
  9
$OLESTARTUP
290
     0
  0
ENDSEC
  0
SECTION
  2
CLASSES
  0
CLASS
  1
ACDBDICTIONARYWDFLT
  2
AcDbDictionaryWithDefault
  3
ObjectDBX Classes
 90
        0
280
     0
281
     0
  0
CLASS
  1
WIPEOUT
  2
AcDbWipeout
  3
"WipeOut|Product Desc: Object Enabler for WipeOut entity^I^I^I^I^I^I|Company: Autodesk, Inc.^I^I^I^I^I^I|WEB Address: www.autodesk.com"
 90
      127
280
     0
281
     1
  0
CLASS
  1
WIPEOUTVARIABLES
  2
AcDbWipeoutVariables
  3
"WipeOut|Product Desc:     WipeOut Dbx Application|Company:          Autodesk, Inc.|WEB Address:      www.autodesk.com"
 90
        0
280
     0
281
     0
  0
CLASS
  1
DICTIONARYVAR
  2
AcDbDictionaryVar
  3
ObjectDBX Classes
 90
        0
280
     0
281
     0
  0
CLASS
  1
ACDBPLACEHOLDER
  2
AcDbPlaceHolder
  3
ObjectDBX Classes
 90
        0
280
     0
281
     0
  0
CLASS
  1
LAYOUT
  2
AcDbLayout
  3
ObjectDBX Classes
 90
        0
280
     0
281
     0
  0
ENDSEC
  0
SECTION
  2
TABLES
  0
TABLE
  2
VPORT
  5
8
330
0
100
AcDbSymbolTable
 70
     4
  0
VPORT
  5
480
330
8
100
AcDbSymbolTableRecord
100
AcDbViewportTableRecord
  2
*Active
 70
     0
 10
0.0
 20
0.0
 11
1.0
 21
1.0
 12
1269.754037132665
 22
1188.842932595688
 13
0.0
 23
0.0
 14
1.0
 24
1.0
 15
0.0
 25
0.0
 16
0.0
 26
0.0
 36
1.0
 17
0.0
 27
0.0
 37
0.0
 40
1945.016853259136
 41
1.993630573248407
 42
50.0
 43
0.0
 44
0.0
 50
0.0
 51
0.0
 71
     0
 72
   100
 73
     1
 74
     1
 75
     0
 76
     0
 77
     0
 78
     0
281
     0
 65
     1
110
0.0
120
0.0
130
0.0
111
1.0
121
0.0
131
0.0
112
0.0
122
1.0
132
0.0
 79
     0
146
0.0
  0
ENDTAB
  0
TABLE
  2
LTYPE
  5
5
330
0
100
AcDbSymbolTable
 70
     6
  0
LTYPE
  5
13
330
5
100
AcDbSymbolTableRecord
100
AcDbLinetypeTableRecord
  2
ByBlock
 70
     0
  3

 72
    65
 73
     0
 40
0.0
  0
LTYPE
  5
14
330
5
100
AcDbSymbolTableRecord
100
AcDbLinetypeTableRecord
  2
ByLayer
 70
     0
  3

 72
    65
 73
     0
 40
0.0
  0
LTYPE
  5
15
330
5
100
AcDbSymbolTableRecord
100
AcDbLinetypeTableRecord
  2
CONTINUOUS
 70
     0
  3
Solid line
 72
    65
 73
     0
 40
0.0
  0
LTYPE
  5
24
330
5
100
AcDbSymbolTableRecord
100
AcDbLinetypeTableRecord
  2
DASHED
 70
     0
  3
__ __ __ __ __ __ __ __ __ __ __ __ __ __ __
 72
    65
 73
     2
 40
0.75
 49
0.5
 74
     0
 49
-0.25
 74
     0
  0
LTYPE
  5
25
330
5
100
AcDbSymbolTableRecord
100
AcDbLinetypeTableRecord
  2
HIDDEN
 70
     0
  3
_ _ _ _ _ _ _ _ _ _ _ _ _ _ _ _ _ _ _ _ _ _ _
 72
    65
 73
     2
 40
0.375
 49
0.25
 74
     0
 49
-0.125
 74
     0
  0
LTYPE
  5
26
330
5
100
AcDbSymbolTableRecord
100
AcDbLinetypeTableRecord
  2
DOT
 70
     0
  3
...............................................
 72
    65
 73
     2
 40
0.25
 49
0.0
 74
     0
 49
-0.25
 74
     0
  0
LTYPE
  5
27
330
5
100
AcDbSymbolTableRecord
100
AcDbLinetypeTableRecord
  2
DASHDOT
 70
     0
  3
__ . __ . __ . __ . __ . __ . __ . __ . __ . __
 72
    65
 73
     4
 40
1.0
 49
0.5
 74
     0
 49
-0.25
 74
     0
 49
0.0
 74
     0
 49
-0.25
 74
     0
  0
LTYPE
  5
28
330
5
100
AcDbSymbolTableRecord
100
AcDbLinetypeTableRecord
  2
DIVIDE
 70
     0
  3
__ . . __ . . __ . . __ . . __ . . __ . . __
 72
    65
 73
     6
 40
1.25
 49
0.5
 74
     0
 49
-0.25
 74
     0
 49
0.0
 74
     0
 49
-0.25
 74
     0
 49
0.0
 74
     0
 49
-0.25
 74
     0
  0
ENDTAB
  0
TABLE
  2
LAYER
  5
2
330
0
100
AcDbSymbolTable
 70
     5
  0
LAYER
  5
10
330
2
100
AcDbSymbolTableRecord
100
AcDbLayerTableRecord
  2
0
 70
     0
 62
     7
  6
CONTINUOUS
370
    -3
390
F
  0
LAYER
  5
29
330
2
100
AcDbSymbolTableRecord
100
AcDbLayerTableRecord
  2
1
 70
     0
 62
     7
  6
CONTINUOUS
370
    -3
390
F
  0
LAYER
  5
2A
330
2
100
AcDbSymbolTableRecord
100
AcDbLayerTableRecord
  2
17
 70
     0
 62
     7
  6
CONTINUOUS
370
    -3
390
F
  0
LAYER
  5
2B
330
2
100
AcDbSymbolTableRecord
100
AcDbLayerTableRecord
  2
33
 70
     0
 62
     7
  6
CONTINUOUS
370
    -3
390
F
  0
LAYER
  5
41C
330
2
100
AcDbSymbolTableRecord
100
AcDbLayerTableRecord
  2
一般
 70
     0
 62
     7
  6
CONTINUOUS
370
     5
390
F
  0
ENDTAB
  0
TABLE
  2
STYLE
  5
3
330
0
100
AcDbSymbolTable
 70
     4
  0
STYLE
  5
11
330
3
100
AcDbSymbolTableRecord
100
AcDbTextStyleTableRecord
  2
STANDARD
 70
     0
 40
1.0
 41
1.0
 50
0.0
 71
     0
 42
1.0
  3
TXT
  4

  0
STYLE
  5
2C
330
3
100
AcDbSymbolTableRecord
100
AcDbTextStyleTableRecord
  2
BIGFONT
 70
     0
 40
1.0
 41
1.0
 50
0.0
 71
     0
 42
1.0
  3
TXT
  4
BIGFONT
  0
STYLE
  5
41D
330
3
100
AcDbSymbolTableRecord
100
AcDbTextStyleTableRecord
  2
Arial
 70
     0
 40
0.0
 41
1.0
 50
0.0
 71
     0
 42
0.0
  3
ARIAL.TTF
  4

1001
ACAD
1000
Arial
1071
        0
  0
STYLE
  5
41E
330
3
100
AcDbSymbolTableRecord
100
AcDbTextStyleTableRecord
  2
ＭＳ ゴシック
 70
     0
 40
0.0
 41
1.0
 50
0.0
 71
     0
 42
0.0
  3
MS Gothic.ttf
  4

1001
ACAD
1000
ＭＳ ゴシック
1071
        0
  0
ENDTAB
  0
TABLE
  2
VIEW
  5
6
330
0
100
AcDbSymbolTable
 70
     0
  0
ENDTAB
  0
TABLE
  2
UCS
  5
7
330
0
100
AcDbSymbolTable
 70
     0
  0
ENDTAB
  0
TABLE
  2
APPID
  5
9
330
0
100
AcDbSymbolTable
 70
     1
  0
APPID
  5
12
330
9
100
AcDbSymbolTableRecord
100
AcDbRegAppTableRecord
  2
ACAD
 70
     0
  0
ENDTAB
  0
TABLE
  2
DIMSTYLE
  5
A
330
0
100
AcDbSymbolTable
 70
     1
100
AcDbDimStyleTable
 71
     0
  0
DIMSTYLE
105
41A
330
A
100
AcDbSymbolTableRecord
100
AcDbDimStyleTableRecord
  2
Standard
 70
     0
340
11
  0
ENDTAB
  0
TABLE
  2
BLOCK_RECORD
  5
1
330
0
100
AcDbSymbolTable
 70
     1
  0
BLOCK_RECORD
  5
20
330
1
100
AcDbSymbolTableRecord
100
AcDbBlockTableRecord
  2
*Model_Space
340
23
  0
BLOCK_RECORD
  5
1C
330
1
100
AcDbSymbolTableRecord
100
AcDbBlockTableRecord
  2
*Paper_Space
340
1F
  0
ENDTAB
  0
ENDSEC
  0
SECTION
  2
BLOCKS
  0
BLOCK
  5
21
330
20
100
AcDbEntity
  8
0
100
AcDbBlockBegin
  2
*Model_Space
 70
     0
 10
0.0
 20
0.0
 30
0.0
  3
*Model_Space
  1

  0
ENDBLK
  5
22
330
20
100
AcDbEntity
  8
0
100
AcDbBlockEnd
  0
BLOCK
  5
1D
330
1C
100
AcDbEntity
 67
     1
  8
0
100
AcDbBlockBegin
  2
*Paper_Space
 70
     0
 10
0.0
 20
0.0
 30
0.0
  3
*Paper_Space
  1

  0
ENDBLK
  5
1E
330
1C
100
AcDbEntity
 67
     1
  8
0
100
AcDbBlockEnd
  0
ENDSEC
  0
SECTION
  2
ENTITIES
  0
LINE
  5
7A
330
20
100
AcDbEntity
  8
33
  6
Continuous
100
AcDbLine
 10
705.9352914632881
 20
1730.452659930559
 30
0.0
 11
1435.935291463288
 21
1730.452659930559
 31
0.0
  0
LINE
  5
7B
330
20
100
AcDbEntity
  8
33
  6
Continuous
100
AcDbLine
 10
1535.935291463288
 20
1630.452659930559
 30
0.0
 11
1535.935291463288
 21
1420.452659930559
 31
0.0
  0
LINE
  5
7C
330
20
100
AcDbEntity
  8
33
  6
Continuous
100
AcDbLine
 10
1435.935291463288
 20
1320.452659930559
 30
0.0
 11
705.9352914632881
 21
1320.452659930559
 31
0.0
  0
LINE
  5
7D
330
20
100
AcDbEntity
  8
33
  6
Continuous
100
AcDbLine
 10
605.9352914632881
 20
1420.452659930559
 30
0.0
 11
605.9352914632881
 21
1630.452659930559
 31
0.0
  0
LINE
  5
7E
330
20
100
AcDbEntity
  8
33
  6
DASHDOT
100
AcDbLine
 10
1070.935291463288
 20
1300.452659930559
 30
0.0
 11
1070.935291463288
 21
1750.452659930559
 31
0.0
  0
LINE
  5
7F
330
20
100
AcDbEntity
  8
33
  6
DASHDOT
100
AcDbLine
 10
605.9352914632881
 20
1525.452659930559
 30
0.0
 11
585.9352914632881
 21
1525.452659930559
 31
0.0
  0
LINE
  5
80
330
20
100
AcDbEntity
  8
33
  6
DASHDOT
100
AcDbLine
 10
585.9352914632881
 20
1525.452659930559
 30
0.0
 11
1555.935291463288
 21
1525.452659930559
 31
0.0
  0
ARC
  5
81
330
20
100
AcDbEntity
  8
33
  6
Continuous
100
AcDbCircle
 10
705.9352914632881
 20
1630.452659930559
 30
0.0
 40
100.0
100
AcDbArc
 50
90.0
 51
180.0
  0
ARC
  5
82
330
20
100
AcDbEntity
  8
33
  6
Continuous
100
AcDbCircle
 10
1435.935291463288
 20
1630.452659930559
 30
0.0
 40
100.0
100
AcDbArc
 50
0.0
 51
90.0
  0
ARC
  5
83
330
20
100
AcDbEntity
  8
33
  6
Continuous
100
AcDbCircle
 10
1435.935291463288
 20
1420.452659930559
 30
0.0
 40
100.0
100
AcDbArc
 50
270.0
 51
0.0
  0
ARC
  5
84
330
20
100
AcDbEntity
  8
33
  6
Continuous
100
AcDbCircle
 10
705.9352914632881
 20
1420.452659930559
 30
0.0
 40
100.0
100
AcDbArc
 50
180.0
 51
270.0
  0
LINE
  5
85
330
20
100
AcDbEntity
  8
33
  6
Continuous
100
AcDbLine
 10
705.9352914632881
 20
1745.452659930559
 30
0.0
 11
1435.935291463288
 21
1745.452659930559
 31
0.0
  0
ARC
  5
86
330
20
100
AcDbEntity
  8
33
  6
Continuous
100
AcDbCircle
 10
1435.935291463288
 20
1630.452659930559
 30
0.0
 40
115.0
100
AcDbArc
 50
0.0
 51
90.0
  0
LINE
  5
87
330
20
100
AcDbEntity
  8
33
  6
Continuous
100
AcDbLine
 10
1550.935291463288
 20
1630.452659930559
 30
0.0
 11
1550.935291463288
 21
1420.452659930559
 31
0.0
  0
ARC
  5
88
330
20
100
AcDbEntity
  8
33
  6
Continuous
100
AcDbCircle
 10
1435.935291463288
 20
1420.452659930559
 30
0.0
 40
115.0
100
AcDbArc
 50
270.0
 51
0.0
  0
LINE
  5
89
330
20
100
AcDbEntity
  8
33
  6
Continuous
100
AcDbLine
 10
1435.935291463288
 20
1305.452659930559
 30
0.0
 11
705.9352914632881
 21
1305.452659930559
 31
0.0
  0
ARC
  5
8A
330
20
100
AcDbEntity
  8
33
  6
Continuous
100
AcDbCircle
 10
705.9352914632881
 20
1420.452659930559
 30
0.0
 40
115.0
100
AcDbArc
 50
180.0
 51
270.0
  0
LINE
  5
8B
330
20
100
AcDbEntity
  8
33
  6
Continuous
100
AcDbLine
 10
590.9352914632882
 20
1420.452659930559
 30
0.0
 11
590.9352914632882
 21
1630.452659930559
 31
0.0
  0
ARC
  5
8C
330
20
100
AcDbEntity
  8
33
  6
Continuous
100
AcDbCircle
 10
705.9352914632881
 20
1630.452659930559
 30
0.0
 40
115.0
100
AcDbArc
 50
90.0
 51
180.0
  0
LINE
  5
8D
330
20
100
AcDbEntity
  8
33
  6
Continuous
100
AcDbLine
 10
1435.935291463288
 20
1722.452659930558
 30
0.0
 11
705.9352914632881
 21
1722.452659930558
 31
0.0
  0
ARC
  5
8E
330
20
100
AcDbEntity
  8
33
  6
Continuous
100
AcDbCircle
 10
705.9352914632881
 20
1630.452659930559
 30
0.0
 40
92.0
100
AcDbArc
 50
90.0
 51
180.0
  0
LINE
  5
8F
330
20
100
AcDbEntity
  8
33
  6
Continuous
100
AcDbLine
 10
613.9352914632882
 20
1630.452659930559
 30
0.0
 11
613.9352914632882
 21
1420.452659930559
 31
0.0
  0
ARC
  5
90
330
20
100
AcDbEntity
  8
33
  6
Continuous
100
AcDbCircle
 10
705.9352914632881
 20
1420.452659930559
 30
0.0
 40
92.0
100
AcDbArc
 50
180.0
 51
270.0
  0
LINE
  5
91
330
20
100
AcDbEntity
  8
33
  6
Continuous
100
AcDbLine
 10
705.9352914632881
 20
1328.452659930559
 30
0.0
 11
1435.935291463288
 21
1328.452659930559
 31
0.0
  0
ARC
  5
92
330
20
100
AcDbEntity
  8
33
  6
Continuous
100
AcDbCircle
 10
1435.935291463288
 20
1420.452659930559
 30
0.0
 40
92.0
100
AcDbArc
 50
270.0
 51
0.0
  0
LINE
  5
93
330
20
100
AcDbEntity
  8
33
  6
Continuous
100
AcDbLine
 10
1527.935291463288
 20
1420.452659930559
 30
0.0
 11
1527.935291463288
 21
1630.452659930559
 31
0.0
  0
ARC
  5
94
330
20
100
AcDbEntity
  8
33
  6
Continuous
100
AcDbCircle
 10
1435.935291463288
 20
1630.452659930559
 30
0.0
 40
92.0
100
AcDbArc
 50
0.0
 51
90.0
  0
LINE
  5
95
330
20
100
AcDbEntity
  8
33
  6
DASHDOT
100
AcDbLine
 10
1384.935291463287
 20
1405.452659930559
 30
0.0
 11
1384.935291463287
 21
1645.452659930558
 31
0.0
  0
CIRCLE
  5
96
330
20
100
AcDbEntity
  8
33
  6
Continuous
100
AcDbCircle
 10
1384.935291463287
 20
1525.452659930559
 30
0.0
 40
79.5
  0
CIRCLE
  5
97
330
20
100
AcDbEntity
  8
33
  6
Continuous
100
AcDbCircle
 10
1384.935291463287
 20
1525.452659930559
 30
0.0
 40
90.5
  0
LINE
  5
98
330
20
100
AcDbEntity
  8
33
  6
DASHDOT
100
AcDbLine
 10
569.5527914632881
 20
1525.452659930559
 30
0.0
 11
590.9352914632882
 21
1525.452659930559
 31
0.0
  0
LINE
  5
99
330
20
100
AcDbEntity
  8
33
  6
DASHDOT
100
AcDbLine
 10
1581.757077177574
 20
1525.452659930559
 30
0.0
 11
1550.935291463288
 21
1525.452659930559
 31
0.0
  0
LINE
  5
9A
330
20
100
AcDbEntity
  8
33
  6
DASHDOT
100
AcDbLine
 10
1070.935291463288
 20
1287.074088501988
 30
0.0
 11
1070.935291463288
 21
1305.452659930559
 31
0.0
  0
LINE
  5
9B
330
20
100
AcDbEntity
  8
33
  6
DASHDOT
100
AcDbLine
 10
1070.935291463288
 20
1767.93123135913
 30
0.0
 11
1070.935291463288
 21
1745.452659930559
 31
0.0
  0
LINE
  5
9C
330
20
100
AcDbEntity
  8
33
  6
Continuous
100
AcDbLine
 10
569.5527914632881
 20
1525.452659930559
 30
0.0
 11
569.5527914632881
 21
1575.452659930559
 31
0.0
  0
LINE
  5
9D
330
20
100
AcDbEntity
  8
33
  6
Continuous
100
AcDbLine
 10
569.5527914632881
 20
1575.452659930559
 30
0.0
 11
559.5527914632881
 21
1545.452659930559
 31
0.0
  0
LINE
  5
9E
330
20
100
AcDbEntity
  8
33
  6
Continuous
100
AcDbLine
 10
559.5527914632881
 20
1545.452659930559
 30
0.0
 11
574.5527914632881
 21
1545.452659930559
 31
0.0
  0
LINE
  5
9F
330
20
100
AcDbEntity
  8
33
  6
Continuous
100
AcDbLine
 10
634.4685057490021
 20
1525.452659930559
 30
0.0
 11
634.4685057490021
 21
1575.452659930559
 31
0.0
  0
LINE
  5
A0
330
20
100
AcDbEntity
  8
33
  6
Continuous
100
AcDbLine
 10
634.4685057490021
 20
1575.452659930559
 30
0.0
 11
644.4685057490021
 21
1545.452659930559
 31
0.0
  0
LINE
  5
A1
330
20
100
AcDbEntity
  8
33
  6
Continuous
100
AcDbLine
 10
644.4685057490021
 20
1545.452659930559
 30
0.0
 11
629.4685057490021
 21
1545.452659930559
 31
0.0
  0
LINE
  5
A2
330
20
100
AcDbEntity
  8
33
  6
Continuous
100
AcDbLine
 10
1070.935291463288
 20
1287.074088501988
 30
0.0
 11
1020.935291463288
 21
1287.074088501988
 31
0.0
  0
LINE
  5
A3
330
20
100
AcDbEntity
  8
33
  6
Continuous
100
AcDbLine
 10
1020.935291463288
 20
1287.074088501988
 30
0.0
 11
1050.935291463288
 21
1277.074088501988
 31
0.0
  0
LINE
  5
A4
330
20
100
AcDbEntity
  8
33
  6
Continuous
100
AcDbLine
 10
1050.935291463288
 20
1277.074088501988
 30
0.0
 11
1050.935291463288
 21
1292.074088501988
 31
0.0
  0
LINE
  5
A5
330
20
100
AcDbEntity
  8
33
  6
Continuous
100
AcDbLine
 10
1070.935291463288
 20
1356.798374216273
 30
0.0
 11
1020.935291463288
 21
1356.798374216273
 31
0.0
  0
LINE
  5
A6
330
20
100
AcDbEntity
  8
33
  6
Continuous
100
AcDbLine
 10
1020.935291463288
 20
1356.798374216273
 30
0.0
 11
1050.935291463288
 21
1366.798374216273
 31
0.0
  0
LINE
  5
A7
330
20
100
AcDbEntity
  8
33
  6
Continuous
100
AcDbLine
 10
1050.935291463288
 20
1366.798374216273
 30
0.0
 11
1050.935291463288
 21
1351.798374216273
 31
0.0
  0
LINE
  5
A8
330
20
100
AcDbEntity
  8
33
  6
DASHDOT
100
AcDbLine
 10
1485.585648606145
 20
1373.628374216273
 30
0.0
 11
1538.47993432043
 21
1327.946945644844
 31
0.0
  0
LINE
  5
A9
330
20
100
AcDbEntity
  8
33
  6
Continuous
100
AcDbLine
 10
1538.47993432043
 20
1327.946945644844
 30
0.0
 11
1578.47993432043
 21
1367.946945644844
 31
0.0
  0
LINE
  5
AA
330
20
100
AcDbEntity
  8
33
  6
Continuous
100
AcDbLine
 10
1578.47993432043
 20
1367.946945644844
 30
0.0
 11
1563.804750965839
 21
1342.247015797906
 31
0.0
  0
LINE
  5
AB
330
20
100
AcDbEntity
  8
33
  6
Continuous
100
AcDbLine
 10
1563.804750965839
 20
1342.247015797906
 30
0.0
 11
1550.352199945431
 21
1355.699566818314
 31
0.0
  0
LINE
  5
AC
330
20
100
AcDbEntity
  8
33
  6
Continuous
100
AcDbLine
 10
605.9352914632881
 20
1415.452659930559
 30
0.0
 11
605.9352914632881
 21
1243.711588501988
 31
0.0
  0
LINE
  5
AD
330
20
100
AcDbEntity
  8
33
  6
Continuous
100
AcDbLine
 10
799.2388628918596
 20
1320.452659930559
 30
0.0
 11
508.1227914632881
 21
1320.452659930559
 31
0.0
  0
LINE
  5
AE
330
20
100
AcDbEntity
  8
33
  6
Continuous
100
AcDbLine
 10
1622.453148606145
 20
1525.452659930559
 30
0.0
 11
1622.453148606145
 21
1730.452659930559
 31
0.0
  0
LINE
  5
AF
330
20
100
AcDbEntity
  8
33
  6
Continuous
100
AcDbLine
 10
1622.453148606145
 20
1525.452659930559
 30
0.0
 11
1617.276767704095
 21
1544.77117645634
 31
0.0
  0
LINE
  5
B0
330
20
100
AcDbEntity
  8
33
  6
Continuous
100
AcDbLine
 10
1622.453148606145
 20
1525.452659930559
 30
0.0
 11
1627.629529508196
 21
1544.77117645634
 31
0.0
  0
LINE
  5
B1
330
20
100
AcDbEntity
  8
33
  6
Continuous
100
AcDbLine
 10
1622.453148606145
 20
1730.452659930559
 30
0.0
 11
1627.629529508196
 21
1711.134143404777
 31
0.0
  0
LINE
  5
B2
330
20
100
AcDbEntity
  8
33
  6
Continuous
100
AcDbLine
 10
1622.453148606145
 20
1730.452659930559
 30
0.0
 11
1617.276767704095
 21
1711.134143404777
 31
0.0
  0
LINE
  5
B3
330
20
100
AcDbEntity
  8
33
  6
Continuous
100
AcDbLine
 10
1446.247791463288
 20
1525.452659930559
 30
0.0
 11
1627.453148606145
 21
1525.452659930559
 31
0.0
  0
LINE
  5
B4
330
20
100
AcDbEntity
  8
33
  6
Continuous
100
AcDbLine
 10
1406.471005749003
 20
1730.452659930559
 30
0.0
 11
1627.453148606145
 21
1730.452659930559
 31
0.0
  0
TEXT
  5
B5
330
20
100
AcDbEntity
  8
33
100
AcDbText
 10
1617.453131167529
 20
1589.202625053327
 30
0.0
 40
20.0
  1
205%%p1_
 50
90.0
 41
0.75
 51
15.0
 72
     1
 11
1617.453131167529
 21
1627.952625053327
 31
0.0
100
AcDbText
  0
LINE
  5
B6
330
20
100
AcDbEntity
  8
33
  6
Continuous
100
AcDbLine
 10
1322.94561372605
 20
1591.388460934515
 30
0.0
 11
1446.924969200526
 21
1459.516858926602
 31
0.0
  0
LINE
  5
B7
330
20
100
AcDbEntity
  8
33
  6
Continuous
100
AcDbLine
 10
1322.94561372605
 20
1591.388460934515
 30
0.0
 11
1300.237665833906
 21
1615.541945644844
 31
0.0
  0
LINE
  5
B8
330
20
100
AcDbEntity
  8
33
  6
Continuous
100
AcDbLine
 10
1322.94561372605
 20
1591.388460934515
 30
0.0
 11
1305.941664169443
 21
1601.917739137524
 31
0.0
  0
LINE
  5
B9
330
20
100
AcDbEntity
  8
33
  6
Continuous
100
AcDbLine
 10
1322.94561372605
 20
1591.388460934515
 30
0.0
 11
1313.484400546863
 21
1609.009058120139
 31
0.0
  0
LINE
  5
BA
330
20
100
AcDbEntity
  8
33
  6
Continuous
100
AcDbLine
 10
1300.237665833906
 20
1615.541945644844
 30
0.0
 11
1230.237665833907
 21
1615.541945644844
 31
0.0
  0
LINE
  5
BB
330
20
100
AcDbEntity
  8
33
  6
Continuous
100
AcDbLine
 10
1446.924969200526
 20
1459.516858926602
 30
0.0
 11
1467.474033643809
 21
1437.659687323081
 31
0.0
  0
LINE
  5
BC
330
20
100
AcDbEntity
  8
33
  6
Continuous
100
AcDbLine
 10
1446.924969200526
 20
1459.516858926602
 30
0.0
 11
1463.928918757133
 21
1448.987580723594
 31
0.0
  0
LINE
  5
BD
330
20
100
AcDbEntity
  8
33
  6
Continuous
100
AcDbLine
 10
1446.924969200526
 20
1459.516858926602
 30
0.0
 11
1456.386182379712
 21
1441.896261740979
 31
0.0
  0
TEXT
  5
BE
330
20
100
AcDbEntity
  8
33
100
AcDbText
 10
1200.656256167529
 20
1621.106311576764
 30
0.0
 40
20.0
  1
%%c181%%p0.5_
 41
0.75
 51
15.0
 72
     1
 11
1254.406256167529
 21
1621.106311576764
 31
0.0
100
AcDbText
  0
LINE
  5
BF
330
20
100
AcDbEntity
  8
33
  6
Continuous
100
AcDbLine
 10
1328.88028203896
 20
1469.078145134966
 30
0.0
 11
1440.990300887616
 21
1581.827174726151
 31
0.0
  0
LINE
  5
C0
330
20
100
AcDbEntity
  8
33
  6
Continuous
100
AcDbLine
 10
1328.88028203896
 20
1469.078145134966
 30
0.0
 11
1304.380411905775
 21
1444.438629318314
 31
0.0
  0
LINE
  5
C1
330
20
100
AcDbEntity
  8
33
  6
Continuous
100
AcDbLine
 10
1328.88028203896
 20
1469.078145134966
 30
0.0
 11
1318.929544124916
 21
1451.729288833584
 31
0.0
  0
LINE
  5
C2
330
20
100
AcDbEntity
  8
33
  6
Continuous
100
AcDbLine
 10
1328.88028203896
 20
1469.078145134966
 30
0.0
 11
1311.588262068306
 21
1459.028963808385
 31
0.0
  0
LINE
  5
C3
330
20
100
AcDbEntity
  8
33
  6
Continuous
100
AcDbLine
 10
1304.380411905775
 20
1444.438629318314
 30
0.0
 11
1234.380411905775
 21
1444.438629318314
 31
0.0
  0
LINE
  5
C4
330
20
100
AcDbEntity
  8
33
  6
Continuous
100
AcDbLine
 10
1440.990300887616
 20
1581.827174726151
 30
0.0
 11
1462.143134632645
 21
1603.100576535809
 31
0.0
  0
LINE
  5
C5
330
20
100
AcDbEntity
  8
33
  6
Continuous
100
AcDbLine
 10
1440.990300887616
 20
1581.827174726151
 30
0.0
 11
1450.94103880166
 21
1599.176031027534
 31
0.0
  0
LINE
  5
C6
330
20
100
AcDbEntity
  8
33
  6
Continuous
100
AcDbLine
 10
1440.990300887616
 20
1581.827174726151
 30
0.0
 11
1458.28232085827
 21
1591.876356052733
 31
0.0
  0
TEXT
  5
C7
330
20
100
AcDbEntity
  8
33
100
AcDbText
 10
1200.050421206591
 20
1451.581470268171
 30
0.0
 40
20.0
  1
%%c159%%p0.5_
 41
0.75
 51
15.0
 72
     1
 11
1256.300421206592
 21
1451.581470268171
 31
0.0
100
AcDbText
  0
LINE
  5
C8
330
20
100
AcDbEntity
  8
33
  6
Continuous
100
AcDbLine
 10
618.1255734499211
 20
1704.712025820748
 30
0.0
 11
698.879328453084
 21
1636.419782371411
 31
0.0
  0
LINE
  5
C9
330
20
100
AcDbEntity
  8
33
  6
Continuous
100
AcDbLine
 10
618.1255734499211
 20
1704.712025820748
 30
0.0
 11
636.2190365104236
 21
1696.189901996358
 31
0.0
  0
LINE
  5
CA
330
20
100
AcDbEntity
  8
33
  6
Continuous
100
AcDbLine
 10
618.1255734499211
 20
1704.712025820748
 30
0.0
 11
629.5339101905566
 21
1688.284918564378
 31
0.0
  0
TEXT
  5
CB
330
20
100
AcDbEntity
  8
33
100
AcDbText
 10
654.9864397383956
 20
1679.560855448408
 30
0.0
 40
20.0
  1
R115
 50
319.779296875
 41
0.75
 51
15.0
 72
     1
 11
672.1666016265137
 21
1665.031848686139
 31
0.0
100
AcDbText
  0
LINE
  5
CC
330
20
100
AcDbEntity
  8
33
  6
Continuous
100
AcDbLine
 10
1509.171005909901
 20
1698.544730904307
 30
0.0
 11
1452.619164231145
 21
1645.964756142224
 31
0.0
  0
LINE
  5
CD
330
20
100
AcDbEntity
  8
33
  6
Continuous
100
AcDbLine
 10
1509.171005909901
 20
1698.544730904307
 30
0.0
 11
1498.547657269455
 21
1681.599393384403
 31
0.0
  0
LINE
  5
CE
330
20
100
AcDbEntity
  8
33
  6
Continuous
100
AcDbLine
 10
1509.171005909901
 20
1698.544730904307
 30
0.0
 11
1491.498247354063
 21
1689.181312456591
 31
0.0
  0
TEXT
  5
CF
330
20
100
AcDbEntity
  8
33
100
AcDbText
 10
1452.344846833242
 20
1652.538402752009
 30
0.0
 40
20.0
  1
R100
 50
42.91563415527299
 41
0.75
 51
15.0
 72
     1
 11
1468.822882144091
 21
1667.859119193952
 31
0.0
100
AcDbText
  0
LINE
  5
D0
330
20
100
AcDbEntity
  8
33
  6
Continuous
100
AcDbLine
 10
638.8029052086161
 20
1357.54604091671
 30
0.0
 11
681.536176348492
 21
1397.589390435283
 31
0.0
  0
LINE
  5
D1
330
20
100
AcDbEntity
  8
33
  6
Continuous
100
AcDbLine
 10
638.8029052086161
 20
1357.54604091671
 30
0.0
 11
649.3601822955746
 21
1374.53262092886
 31
0.0
  0
LINE
  5
D2
330
20
100
AcDbEntity
  8
33
  6
Continuous
100
AcDbLine
 10
638.8029052086161
 20
1357.54604091671
 30
0.0
 11
656.4390653667885
 21
1366.97821218717
 31
0.0
  0
TEXT
  5
D3
330
20
100
AcDbEntity
  8
33
100
AcDbText
 10
650.5440252609322
 20
1376.286950662212
 30
0.0
 40
20.0
  1
R90
 50
43.138763427734
 41
0.75
 51
15.0
 72
     1
 11
664.2258972808106
 21
1389.107593315046
 31
0.0
100
AcDbText
  0
TEXT
  5
D4
330
20
100
AcDbEntity
  8
33
100
AcDbText
 10
1011.626471011279
 20
1349.247567273376
 30
0.0
 40
30.0
  1
A
 50
90.0
 41
0.6666666666670001
 72
     1
 11
996.6264710112792
 21
1355.914233940046
 31
0.0
100
AcDbText
 73
     2
  0
TEXT
  5
D5
330
20
100
AcDbEntity
  8
33
100
AcDbText
 10
1014.151983706591
 20
1281.479683972594
 30
0.0
 40
30.0
  1
A
 50
90.0
 41
0.6666666666670001
 72
     1
 11
999.1519837065917
 21
1288.146350639264
 31
0.0
100
AcDbText
 73
     2
  0
TEXT
  5
D6
330
20
100
AcDbEntity
  8
33
100
AcDbText
 10
631.9095418934369
 20
1585.577014701764
 30
0.0
 40
30.0
  1
B
 41
0.6666666666670001
 72
     1
 11
638.576208560107
 21
1600.577014701764
 31
0.0
100
AcDbText
 73
     2
  0
TEXT
  5
D7
330
20
100
AcDbEntity
  8
33
100
AcDbText
 10
560.8532369617965
 20
1585.577014701764
 30
0.0
 40
30.0
  1
B
 41
0.6666666666670001
 72
     1
 11
567.5199036284666
 21
1600.577014701764
 31
0.0
100
AcDbText
 73
     2
  0
TEXT
  5
D8
330
20
100
AcDbEntity
  8
33
100
AcDbText
 10
1578.773353382443
 20
1383.261484559066
 30
0.0
 40
30.0
  1
C
 50
315.0
 41
0.6666666666670001
 72
     1
 11
1594.094000308154
 21
1389.154041068952
 31
0.0
100
AcDbText
 73
     2
  0
TEXT
  5
D9
330
20
100
AcDbEntity
  8
33
100
AcDbText
 10
1494.957923694943
 20
1450.003305848128
 30
0.0
 40
30.0
  1
C
 50
315.0
 41
0.6666666666670001
 72
     1
 11
1510.278570620654
 21
1455.895862358014
 31
0.0
100
AcDbText
 73
     2
  0
LINE
  5
DA
330
20
100
AcDbEntity
  8
33
  6
Continuous
100
AcDbLine
 10
1803.658505749002
 20
1305.452659930559
 30
0.0
 11
1803.658505749002
 21
1317.452659930559
 31
0.0
  0
LINE
  5
DB
330
20
100
AcDbEntity
  8
33
  6
Continuous
100
AcDbLine
 10
1806.658505749002
 20
1320.452659930559
 30
0.0
 11
1815.658505749002
 21
1320.452659930559
 31
0.0
  0
LINE
  5
DC
330
20
100
AcDbEntity
  8
33
  6
Continuous
100
AcDbLine
 10
1818.658505749002
 20
1323.452659930559
 30
0.0
 11
1818.658505749002
 21
1325.452659930559
 31
0.0
  0
LINE
  5
DD
330
20
100
AcDbEntity
  8
33
  6
Continuous
100
AcDbLine
 10
1821.658505749002
 20
1328.452659930559
 30
0.0
 11
1964.301074710871
 21
1328.452659930559
 31
0.0
  0
LINE
  5
DE
330
20
100
AcDbEntity
  8
33
  6
Continuous
100
AcDbLine
 10
1998.658505749002
 20
1434.952659930559
 30
0.0
 11
1998.658505749002
 21
1615.952659930563
 31
0.0
  0
LINE
  5
DF
330
20
100
AcDbEntity
  8
33
  6
Continuous
100
AcDbLine
 10
1964.301074710872
 20
1722.452659930559
 30
0.0
 11
1821.658505749002
 21
1722.452659930559
 31
0.0
  0
LINE
  5
E0
330
20
100
AcDbEntity
  8
33
  6
Continuous
100
AcDbLine
 10
1818.658505749002
 20
1725.452659930559
 30
0.0
 11
1818.658505749002
 21
1727.452659930559
 31
0.0
  0
LINE
  5
E1
330
20
100
AcDbEntity
  8
33
  6
Continuous
100
AcDbLine
 10
1815.658505749002
 20
1730.452659930559
 30
0.0
 11
1806.658505749002
 21
1730.452659930559
 31
0.0
  0
LINE
  5
E2
330
20
100
AcDbEntity
  8
33
  6
Continuous
100
AcDbLine
 10
1803.658505749002
 20
1733.452659930559
 30
0.0
 11
1803.658505749002
 21
1755.452659930559
 31
0.0
  0
ARC
  5
E3
330
20
100
AcDbEntity
  8
33
  6
Continuous
100
AcDbCircle
 10
1806.658505749002
 20
1317.452659930559
 30
0.0
 40
3.0
100
AcDbArc
 50
90.0
 51
180.0
  0
ARC
  5
E4
330
20
100
AcDbEntity
  8
33
  6
Continuous
100
AcDbCircle
 10
1815.658505749002
 20
1323.452659930559
 30
0.0
 40
3.0
100
AcDbArc
 50
270.0
 51
0.0
  0
ARC
  5
E5
330
20
100
AcDbEntity
  8
33
  6
Continuous
100
AcDbCircle
 10
1821.658505749002
 20
1325.452659930559
 30
0.0
 40
3.0
100
AcDbArc
 50
90.0
 51
180.0
  0
ARC
  5
E6
330
20
100
AcDbEntity
  8
33
  6
Continuous
100
AcDbCircle
 10
1806.658505749002
 20
1733.452659930559
 30
0.0
 40
3.0
100
AcDbArc
 50
180.0
 51
270.0
  0
ARC
  5
E7
330
20
100
AcDbEntity
  8
33
  6
Continuous
100
AcDbCircle
 10
1815.658505749002
 20
1727.452659930559
 30
0.0
 40
3.0
100
AcDbArc
 50
0.0
 51
90.0
  0
ARC
  5
E8
330
20
100
AcDbEntity
  8
33
  6
Continuous
100
AcDbCircle
 10
1821.658505749002
 20
1725.452659930559
 30
0.0
 40
3.0
100
AcDbArc
 50
180.0
 51
270.0
  0
LINE
  5
E9
330
20
100
AcDbEntity
  8
33
  6
Continuous
100
AcDbLine
 10
1803.658505749002
 20
1733.452659930559
 30
0.0
 11
1803.658505749002
 21
1320.452659930559
 31
0.0
  0
LINE
  5
EA
330
20
100
AcDbEntity
  8
33
  6
Continuous
100
AcDbLine
 10
1818.658505749002
 20
1725.452659930559
 30
0.0
 11
1818.658505749002
 21
1328.452659930559
 31
0.0
  0
LINE
  5
EB
330
20
100
AcDbEntity
  8
33
  6
DASHDOT
100
AcDbLine
 10
1772.721005749002
 20
1525.452659930559
 30
0.0
 11
1998.658505749002
 21
1525.452659930559
 31
0.0
  0
LINE
  5
EC
330
20
100
AcDbEntity
  8
33
  6
DASHDOT
100
AcDbLine
 10
2025.863942611247
 20
1525.452659930559
 30
0.0
 11
1998.658505749002
 21
1525.452659930559
 31
0.0
  0
LINE
  5
ED
330
20
100
AcDbEntity
  8
33
  6
Continuous
100
AcDbLine
 10
1998.658505749002
 20
1615.952659930559
 30
0.0
 11
2005.658505749003
 21
1615.952659930559
 31
0.0
  0
LINE
  5
EE
330
20
100
AcDbEntity
  8
33
  6
Continuous
100
AcDbLine
 10
2005.658505749003
 20
1615.952659930559
 30
0.0
 11
2005.658505749003
 21
1434.952659930559
 31
0.0
  0
LINE
  5
EF
330
20
100
AcDbEntity
  8
33
  6
Continuous
100
AcDbLine
 10
2005.658505749003
 20
1434.952659930559
 30
0.0
 11
1998.658505749002
 21
1434.952659930559
 31
0.0
  0
LINE
  5
F0
330
20
100
AcDbEntity
  8
33
  6
Continuous
100
AcDbLine
 10
1994.253578144373
 20
1356.76519494839
 30
0.0
 11
1998.658505749002
 21
1434.952659930559
 31
0.0
  0
LINE
  5
F1
330
20
100
AcDbEntity
  8
33
  6
Continuous
100
AcDbLine
 10
1994.253578144373
 20
1694.140124912728
 30
0.0
 11
1998.658505749002
 21
1615.952659930559
 31
0.0
  0
ARC
  5
F2
330
20
100
AcDbEntity
  8
33
  6
Continuous
100
AcDbCircle
 10
1964.301074710872
 20
1692.452659930559
 30
0.0
 40
30.0
100
AcDbArc
 50
3.224522606519999
 51
90.0
  0
ARC
  5
F3
330
20
100
AcDbEntity
  8
33
  6
Continuous
100
AcDbCircle
 10
1964.301074710871
 20
1358.452659930559
 30
0.0
 40
30.0
100
AcDbArc
 50
270.0
 51
356.77547739348
  0
LINE
  5
F4
330
20
100
AcDbEntity
  8
33
  6
Continuous
100
AcDbLine
 10
1803.658505749002
 20
1313.819394168897
 30
0.0
 11
1803.658505749002
 21
1320.937800236682
 31
0.0
  0
LINE
  5
F5
330
20
100
AcDbEntity
  8
33
  6
Continuous
100
AcDbLine
 10
1818.658505749002
 20
1323.452659930559
 30
0.0
 11
1818.658505749002
 21
1328.452659930559
 31
0.0
  0
LINE
  5
F6
330
20
100
AcDbEntity
  8
33
  6
DIVIDE
100
AcDbLine
 10
1858.658505749002
 20
1328.452659930559
 30
0.0
 11
1858.658505749002
 21
1722.452659930558
 31
0.0
  0
LINE
  5
F7
330
20
100
AcDbEntity
  8
33
  6
Continuous
100
AcDbLine
 10
1993.643015599973
 20
1290.500413267385
 30
0.0
 11
1998.658505749002
 21
1290.500413267385
 31
0.0
  0
LINE
  5
F8
330
20
100
AcDbEntity
  8
33
  6
Continuous
100
AcDbLine
 10
1993.643015599973
 20
1347.203619615403
 30
0.0
 11
1993.643015599973
 21
1285.500413267385
 31
0.0
  0
LINE
  5
F9
330
20
100
AcDbEntity
  8
33
  6
Continuous
100
AcDbLine
 10
1998.658505749002
 20
1429.952659930559
 30
0.0
 11
1998.658505749002
 21
1285.500413267385
 31
0.0
  0
LINE
  5
FA
330
20
100
AcDbEntity
  8
33
  6
Continuous
100
AcDbLine
 10
1963.643015599973
 20
1290.500413267385
 30
0.0
 11
1993.643015599973
 21
1290.500413267385
 31
0.0
  0
LINE
  5
FB
330
20
100
AcDbEntity
  8
33
  6
Continuous
100
AcDbLine
 10
1993.643015599973
 20
1290.500413267385
 30
0.0
 11
1974.324499074192
 21
1285.324032365334
 31
0.0
  0
LINE
  5
FC
330
20
100
AcDbEntity
  8
33
  6
Continuous
100
AcDbLine
 10
1993.643015599973
 20
1290.500413267385
 30
0.0
 11
1974.324499074192
 21
1295.676794169435
 31
0.0
  0
LINE
  5
FD
330
20
100
AcDbEntity
  8
33
  6
Continuous
100
AcDbLine
 10
1998.658505749002
 20
1290.500413267385
 30
0.0
 11
1998.770963469256
 21
1290.500413267385
 31
0.0
  0
LINE
  5
FE
330
20
100
AcDbEntity
  8
33
  6
Continuous
100
AcDbLine
 10
1998.658505749002
 20
1290.500413267385
 30
0.0
 11
2017.977022274784
 21
1295.676794169435
 31
0.0
  0
LINE
  5
FF
330
20
100
AcDbEntity
  8
33
  6
Continuous
100
AcDbLine
 10
1998.658505749002
 20
1290.500413267385
 30
0.0
 11
2017.977022274784
 21
1285.324032365334
 31
0.0
  0
TEXT
  5
100
330
20
100
AcDbEntity
  8
33
100
AcDbText
 10
1987.137213198779
 20
1297.112293017277
 30
0.0
 40
20.0
  1
6%%p2_
 50
0.00000001
 41
0.75
 51
15.0
 72
     1
 11
2014.637213198779
 21
1297.112293022077
 31
0.0
100
AcDbText
  0
LINE
  5
101
330
20
100
AcDbEntity
  8
33
  6
Continuous
100
AcDbLine
 10
2028.409183363798
 20
1290.500413267385
 30
0.0
 11
1998.658505749002
 21
1290.500413267385
 31
0.0
  0
LINE
  5
102
330
20
100
AcDbEntity
  8
33
  6
Continuous
100
AcDbLine
 10
1985.439318573266
 20
1337.164760869967
 30
0.0
 11
1961.449531649275
 21
1361.324391435661
 31
0.0
  0
LINE
  5
103
330
20
100
AcDbEntity
  8
33
  6
Continuous
100
AcDbLine
 10
1985.439318573266
 20
1337.164760869967
 30
0.0
 11
1968.154192322476
 21
1347.225795135601
 31
0.0
  0
LINE
  5
104
330
20
100
AcDbEntity
  8
33
  6
Continuous
100
AcDbLine
 10
1985.439318573266
 20
1337.164760869967
 30
0.0
 11
1975.500477265277
 21
1354.520435257747
 31
0.0
  0
TEXT
  5
105
330
20
100
AcDbEntity
  8
33
100
AcDbText
 10
1944.194124112594
 20
1383.942196075239
 30
0.0
 40
20.0
  1
R30
 50
314.797882080078
 41
0.75
 51
15.0
 72
     1
 11
1957.405523745654
 21
1370.637256400983
 31
0.0
100
AcDbText
  0
LINE
  5
106
330
20
100
AcDbEntity
  8
33
  6
Continuous
100
AcDbLine
 10
1751.158505749003
 20
1577.952659930559
 30
0.0
 11
1766.158505749003
 21
1577.952659930559
 31
0.0
  0
LINE
  5
107
330
20
100
AcDbEntity
  8
33
  6
Continuous
100
AcDbLine
 10
1800.12297184307
 20
1528.988193836491
 30
0.0
 11
1747.62297184307
 21
1581.488193836492
 31
0.0
  0
LINE
  5
108
330
20
100
AcDbEntity
  8
33
  6
Continuous
100
AcDbLine
 10
1815.12297184307
 20
1528.988193836491
 30
0.0
 11
1762.62297184307
 21
1581.488193836492
 31
0.0
  0
LINE
  5
109
330
20
100
AcDbEntity
  8
33
  6
Continuous
100
AcDbLine
 10
1711.158505749003
 20
1577.952659930559
 30
0.0
 11
1751.158505749003
 21
1577.952659930559
 31
0.0
  0
LINE
  5
10A
330
20
100
AcDbEntity
  8
33
  6
Continuous
100
AcDbLine
 10
1751.158505749003
 20
1577.952659930559
 30
0.0
 11
1731.839989223222
 21
1572.776279028509
 31
0.0
  0
LINE
  5
10B
330
20
100
AcDbEntity
  8
33
  6
Continuous
100
AcDbLine
 10
1751.158505749003
 20
1577.952659930559
 30
0.0
 11
1731.839989223222
 21
1583.129040832609
 31
0.0
  0
TEXT
  5
10C
330
20
100
AcDbEntity
  8
33
100
AcDbText
 10
1701.158453433154
 20
1582.952625048091
 30
0.0
 40
20.0
  1
15%%p1_
 50
0.00000001
 41
0.75
 51
15.0
 72
     1
 11
1731.158453433154
 21
1582.952625053327
 31
0.0
100
AcDbText
  0
LINE
  5
10D
330
20
100
AcDbEntity
  8
33
  6
Continuous
100
AcDbLine
 10
1766.158505749003
 20
1577.952659930559
 30
0.0
 11
1946.158505749003
 21
1577.952659930559
 31
0.0
  0
LINE
  5
10E
330
20
100
AcDbEntity
  8
33
  6
Continuous
100
AcDbLine
 10
1766.158505749003
 20
1577.952659930559
 30
0.0
 11
1785.477022274784
 21
1583.129040832609
 31
0.0
  0
LINE
  5
10F
330
20
100
AcDbEntity
  8
33
  6
Continuous
100
AcDbLine
 10
1766.158505749003
 20
1577.952659930559
 30
0.0
 11
1785.477022274784
 21
1572.776279028509
 31
0.0
  0
LINE
  5
110
330
20
100
AcDbEntity
  8
33
  6
Continuous
100
AcDbLine
 10
1946.158505749003
 20
1577.952659930559
 30
0.0
 11
1926.839989223221
 21
1572.776279028509
 31
0.0
  0
LINE
  5
111
330
20
100
AcDbEntity
  8
33
  6
Continuous
100
AcDbLine
 10
1946.158505749003
 20
1577.952659930559
 30
0.0
 11
1926.839989223221
 21
1583.129040832609
 31
0.0
  0
LINE
  5
112
330
20
100
AcDbEntity
  8
33
  6
Continuous
100
AcDbLine
 10
1995.12297184307
 20
1528.988193836491
 30
0.0
 11
1942.62297184307
 21
1581.488193836492
 31
0.0
  0
TEXT
  5
113
330
20
100
AcDbEntity
  8
33
100
AcDbText
 10
1812.115130472607
 20
1583.925037157244
 30
0.0
 40
20.184024810791
  1
180%%p2_
 50
0.00000001
 41
0.5996517089670001
 51
15.0
 72
     1
 11
1843.382208315966
 21
1583.925037162702
 31
0.0
100
AcDbText
  0
LINE
  5
114
330
20
100
AcDbEntity
  8
33
  6
Continuous
100
AcDbLine
 10
1946.158505749003
 20
1577.952659930559
 30
0.0
 11
1953.158505749002
 21
1577.952659930559
 31
0.0
  0
LINE
  5
115
330
20
100
AcDbEntity
  8
33
  6
Continuous
100
AcDbLine
 10
2002.122971843069
 20
1528.988193836491
 30
0.0
 11
1949.622971843069
 21
1581.488193836492
 31
0.0
  0
LINE
  5
116
330
20
100
AcDbEntity
  8
33
  6
Continuous
100
AcDbLine
 10
1953.158505749002
 20
1577.952659930559
 30
0.0
 11
1978.158505749002
 21
1577.952659930559
 31
0.0
  0
LINE
  5
117
330
20
100
AcDbEntity
  8
33
  6
Continuous
100
AcDbLine
 10
1953.158505749002
 20
1577.952659930559
 30
0.0
 11
1972.477022274784
 21
1583.129040832609
 31
0.0
  0
LINE
  5
118
330
20
100
AcDbEntity
  8
33
  6
Continuous
100
AcDbLine
 10
1953.158505749002
 20
1577.952659930559
 30
0.0
 11
1972.477022274784
 21
1572.776279028509
 31
0.0
  0
TEXT
  5
119
330
20
100
AcDbEntity
  8
33
100
AcDbText
 10
1926.908453433154
 20
1582.952625046563
 30
0.0
 40
20.0
  1
7+1_-0
 50
0.00000001
 41
0.75
 51
15.0
 72
     1
 11
1965.658453433154
 21
1582.952625053327
 31
0.0
100
AcDbText
  0
LINE
  5
11A
330
20
100
AcDbEntity
  8
33
  6
Continuous
100
AcDbLine
 10
1920.502813784716
 20
1634.94763760913
 30
0.0
 11
2029.888974499002
 21
1693.692057251988
 31
0.0
  0
LINE
  5
11B
330
20
100
AcDbEntity
  8
33
  6
Continuous
100
AcDbLine
 10
2029.888974499002
 20
1693.692057251988
 30
0.0
 11
2143.153371820431
 21
1693.692057251988
 31
0.0
  0
LINE
  5
11C
330
20
100
AcDbEntity
  8
33
  6
Continuous
100
AcDbLine
 10
1934.284601890584
 20
1647.788936237957
 30
0.0
 11
1920.502813784716
 21
1634.94763760913
 31
0.0
  0
LINE
  5
11D
330
20
100
AcDbEntity
  8
33
  6
Continuous
100
AcDbLine
 10
1920.502813784716
 20
1634.94763760913
 30
0.0
 11
1938.504746979869
 21
1639.348646059386
 31
0.0
  0
TEXT
  5
11E
330
20
100
AcDbEntity
  8
33
100
AcDbText
 10
2032.950811831564
 20
1698.859607475202
 30
0.0
 40
30.0
  1
防滴パット
 41
0.6666666666670001
  7
BIGFONT
 72
     1
 11
2088.950811831592
 21
1713.859607475202
 31
0.0
100
AcDbText
 73
     2
  0
LINE
  5
11F
330
20
100
AcDbEntity
  8
33
  6
Continuous
100
AcDbLine
 10
590.9352914632882
 20
1091.046409930559
 30
0.0
 11
602.9352914632881
 21
1091.046409930559
 31
0.0
  0
LINE
  5
120
330
20
100
AcDbEntity
  8
33
  6
Continuous
100
AcDbLine
 10
1535.935291463288
 20
1088.046409930559
 30
0.0
 11
1535.935291463288
 21
1079.046409930559
 31
0.0
  0
LINE
  5
121
330
20
100
AcDbEntity
  8
33
  6
Continuous
100
AcDbLine
 10
1532.935291463288
 20
1076.046409930559
 30
0.0
 11
1530.935291463288
 21
1076.046409930559
 31
0.0
  0
LINE
  5
122
330
20
100
AcDbEntity
  8
33
  6
Continuous
100
AcDbLine
 10
1527.935291463288
 20
1073.046409930559
 30
0.0
 11
1527.935291463288
 21
927.2459819498672
 31
0.0
  0
LINE
  5
123
330
20
100
AcDbEntity
  8
33
  6
Continuous
100
AcDbLine
 10
1475.435291463288
 20
896.0464099305593
 30
0.0
 11
1294.435291463289
 21
896.0464099305593
 31
0.0
  0
LINE
  5
124
330
20
100
AcDbEntity
  8
33
  6
Continuous
100
AcDbLine
 10
613.9352914632882
 20
940.3924187273947
 30
0.0
 11
613.9352914632882
 21
1073.046409930559
 31
0.0
  0
LINE
  5
125
330
20
100
AcDbEntity
  8
33
  6
Continuous
100
AcDbLine
 10
610.9352914632881
 20
1076.046409930559
 30
0.0
 11
608.9352914632882
 21
1076.046409930559
 31
0.0
  0
LINE
  5
126
330
20
100
AcDbEntity
  8
33
  6
Continuous
100
AcDbLine
 10
605.9352914632881
 20
1079.046409930559
 30
0.0
 11
605.9352914632881
 21
1088.046409930559
 31
0.0
  0
LINE
  5
127
330
20
100
AcDbEntity
  8
33
  6
Continuous
100
AcDbLine
 10
1538.935291463288
 20
1091.046409930559
 30
0.0
 11
1550.935291463288
 21
1091.046409930559
 31
0.0
  0
ARC
  5
128
330
20
100
AcDbEntity
  8
33
  6
Continuous
100
AcDbCircle
 10
610.9352914632881
 20
1073.046409930559
 30
0.0
 40
3.0
100
AcDbArc
 50
0.0
 51
90.0
  0
ARC
  5
129
330
20
100
AcDbEntity
  8
33
  6
Continuous
100
AcDbCircle
 10
608.9352914632882
 20
1079.046409930559
 30
0.0
 40
3.0
100
AcDbArc
 50
180.0
 51
270.0
  0
ARC
  5
12A
330
20
100
AcDbEntity
  8
33
  6
Continuous
100
AcDbCircle
 10
602.9352914632881
 20
1088.046409930559
 30
0.0
 40
3.0
100
AcDbArc
 50
0.0
 51
90.0
  0
ARC
  5
12B
330
20
100
AcDbEntity
  8
33
  6
Continuous
100
AcDbCircle
 10
1530.935291463288
 20
1073.046409930559
 30
0.0
 40
3.0
100
AcDbArc
 50
90.0
 51
180.0
  0
ARC
  5
12C
330
20
100
AcDbEntity
  8
33
  6
Continuous
100
AcDbCircle
 10
1532.935291463288
 20
1079.046409930559
 30
0.0
 40
3.0
100
AcDbArc
 50
270.0
 51
0.0
  0
ARC
  5
12D
330
20
100
AcDbEntity
  8
33
  6
Continuous
100
AcDbCircle
 10
1538.935291463288
 20
1088.046409930559
 30
0.0
 40
3.0
100
AcDbArc
 50
90.0
 51
180.0
  0
LINE
  5
12E
330
20
100
AcDbEntity
  8
33
  6
Continuous
100
AcDbLine
 10
1538.935291463288
 20
1091.046409930559
 30
0.0
 11
590.9352914632882
 21
1091.046409930559
 31
0.0
  0
LINE
  5
12F
330
20
100
AcDbEntity
  8
33
  6
Continuous
100
AcDbLine
 10
1530.935291463288
 20
1076.046409930559
 30
0.0
 11
613.9352914632882
 21
1076.046409930559
 31
0.0
  0
LINE
  5
130
330
20
100
AcDbEntity
  8
33
  6
Continuous
100
AcDbLine
 10
609.7791071890761
 20
1076.046409930559
 30
0.0
 11
614.3442186823341
 21
1076.046409930559
 31
0.0
  0
LINE
  5
131
330
20
100
AcDbEntity
  8
33
  6
DASHDOT
100
AcDbLine
 10
1384.935291463287
 20
1121.983909930559
 30
0.0
 11
1384.935291463287
 21
856.8053385019878
 31
0.0
  0
LINE
  5
132
330
20
100
AcDbEntity
  8
33
  6
Continuous
100
AcDbLine
 10
1294.435291463288
 20
896.0464099305593
 30
0.0
 11
1294.435291463288
 21
889.0464099305592
 31
0.0
  0
LINE
  5
133
330
20
100
AcDbEntity
  8
33
  6
Continuous
100
AcDbLine
 10
1294.435291463288
 20
889.0464099305592
 30
0.0
 11
1475.435291463288
 21
889.0464099305592
 31
0.0
  0
LINE
  5
134
330
20
100
AcDbEntity
  8
33
  6
Continuous
100
AcDbLine
 10
1475.435291463288
 20
889.0464099305592
 30
0.0
 11
1475.435291463288
 21
896.0464099305593
 31
0.0
  0
LINE
  5
135
330
20
100
AcDbEntity
  8
33
  6
Continuous
100
AcDbLine
 10
643.274173583027
 20
910.3997042262296
 30
0.0
 11
1294.435291463288
 21
896.0464099305593
 31
0.0
  0
LINE
  5
136
330
20
100
AcDbEntity
  8
33
  6
Continuous
100
AcDbLine
 10
1475.435291463288
 20
896.0464099305593
 30
0.0
 11
1499.479569747784
 21
897.2857549049992
 31
0.0
  0
ARC
  5
137
330
20
100
AcDbEntity
  8
33
  6
Continuous
100
AcDbCircle
 10
1497.935291463288
 20
927.2459819498672
 30
0.0
 40
30.0
100
AcDbArc
 50
272.950658345153
 51
0.0
  0
ARC
  5
138
330
20
100
AcDbEntity
  8
33
  6
Continuous
100
AcDbCircle
 10
643.935291463288
 20
940.3924187273947
 30
0.0
 40
30.0
100
AcDbArc
 50
180.0
 51
268.7372556358861
  0
LINE
  5
139
330
20
100
AcDbEntity
  8
33
  6
Continuous
100
AcDbLine
 10
543.0526128918595
 20
896.0464099305593
 30
0.0
 11
543.0526128918595
 21
910.3997042262296
 31
0.0
  0
LINE
  5
13A
330
20
100
AcDbEntity
  8
33
  6
Continuous
100
AcDbLine
 10
1289.435291463288
 20
896.0464099305593
 30
0.0
 11
538.0526128918595
 21
896.0464099305593
 31
0.0
  0
LINE
  5
13B
330
20
100
AcDbEntity
  8
33
  6
Continuous
100
AcDbLine
 10
638.274173583027
 20
910.3997042262296
 30
0.0
 11
538.0526128918595
 21
910.3997042262296
 31
0.0
  0
LINE
  5
13C
330
20
100
AcDbEntity
  8
33
  6
Continuous
100
AcDbLine
 10
543.0526128918595
 20
866.0464099305594
 30
0.0
 11
543.0526128918595
 21
896.0464099305593
 31
0.0
  0
LINE
  5
13D
330
20
100
AcDbEntity
  8
33
  6
Continuous
100
AcDbLine
 10
543.0526128918595
 20
896.0464099305593
 30
0.0
 11
548.2289937939096
 21
876.7278934047778
 31
0.0
  0
LINE
  5
13E
330
20
100
AcDbEntity
  8
33
  6
Continuous
100
AcDbLine
 10
543.0526128918595
 20
896.0464099305593
 30
0.0
 11
537.8762319898092
 21
876.7278934047778
 31
0.0
  0
LINE
  5
13F
330
20
100
AcDbEntity
  8
33
  6
Continuous
100
AcDbLine
 10
543.0526128918595
 20
910.3997042262296
 30
0.0
 11
543.0526128918595
 21
940.3997042262297
 31
0.0
  0
LINE
  5
140
330
20
100
AcDbEntity
  8
33
  6
Continuous
100
AcDbLine
 10
543.0526128918595
 20
910.3997042262296
 30
0.0
 11
537.8762319898092
 21
929.7182207520112
 31
0.0
  0
LINE
  5
141
330
20
100
AcDbEntity
  8
33
  6
Continuous
100
AcDbLine
 10
543.0526128918595
 20
910.3997042262296
 30
0.0
 11
548.2289937939096
 21
929.7182207520112
 31
0.0
  0
TEXT
  5
142
330
20
100
AcDbEntity
  8
33
100
AcDbText
 10
535.6321777983886
 20
871.0488469771545
 30
0.0
 40
20.0
  1
15%%p2_
 50
90.0
 41
0.75
 51
15.0
 72
     1
 11
535.6321777983886
 21
903.5488469771546
 31
0.0
100
AcDbText
  0
LINE
  5
143
330
20
100
AcDbEntity
  8
33
  6
Continuous
100
AcDbLine
 10
1520.123766223323
 20
907.0551031224548
 30
0.0
 11
1490.968773606145
 21
933.5853143926682
 31
0.0
  0
LINE
  5
144
330
20
100
AcDbEntity
  8
33
  6
Continuous
100
AcDbLine
 10
1520.123766223323
 20
907.0551031224548
 30
0.0
 11
1502.351629693608
 21
916.2284974325856
 31
0.0
  0
LINE
  5
145
330
20
100
AcDbEntity
  8
33
  6
Continuous
100
AcDbLine
 10
1520.123766223323
 20
907.0551031224548
 30
0.0
 11
1509.31934166413
 21
923.8855638988177
 31
0.0
  0
TEXT
  5
146
330
20
100
AcDbEntity
  8
33
100
AcDbText
 10
1477.100959466683
 20
952.3981267396058
 30
0.0
 40
20.0
  1
R30
 50
317.698699951172
 41
0.75
 51
15.0
 72
     1
 11
1490.968756167529
 21
939.7788274459045
 31
0.0
100
AcDbText
  0
LINE
  5
147
330
20
100
AcDbEntity
  8
33
  6
Continuous
100
AcDbLine
 10
622.2635739088486
 20
919.6478614113036
 30
0.0
 11
651.3550140398185
 21
947.4947104526211
 31
0.0
  0
LINE
  5
148
330
20
100
AcDbEntity
  8
33
  6
Continuous
100
AcDbLine
 10
622.2635739088486
 20
919.6478614113036
 30
0.0
 11
632.6396973556816
 21
936.7456993511156
 31
0.0
  0
LINE
  5
149
330
20
100
AcDbEntity
  8
33
  6
Continuous
100
AcDbLine
 10
622.2635739088486
 20
919.6478614113036
 30
0.0
 11
639.7984793765155
 21
929.2669616935537
 31
0.0
  0
TEXT
  5
14A
330
20
100
AcDbEntity
  8
33
100
AcDbText
 10
636.3896006521582
 20
940.7170128170019
 30
0.0
 40
20.0
  1
R30
 50
43.74779510498
 41
0.75
 51
15.0
 72
     1
 11
649.9344238921387
 21
953.6823613814517
 31
0.0
100
AcDbText
  0
LINE
  5
14B
330
20
100
AcDbEntity
  8
33
  6
Continuous
100
AcDbLine
 10
1985.737511277686
 20
1713.440255965286
 30
0.0
 11
1951.203547203084
 21
1679.629371156309
 31
0.0
  0
LINE
  5
14C
330
20
100
AcDbEntity
  8
33
  6
Continuous
100
AcDbLine
 10
1985.737511277686
 20
1713.440255965286
 30
0.0
 11
1975.554832518494
 21
1696.226509909094
 31
0.0
  0
LINE
  5
14D
330
20
100
AcDbEntity
  8
33
  6
Continuous
100
AcDbLine
 10
1985.737511277686
 20
1713.440255965286
 30
0.0
 11
1968.312179765554
 21
1703.624053965926
 31
0.0
  0
TEXT
  5
14E
330
20
100
AcDbEntity
  8
33
100
AcDbText
 10
1935.753844590737
 20
1672.9851578568
 30
0.0
 40
20.0
  1
R30
 50
44.39384078979499
 41
0.75
 51
15.0
 72
     1
 11
1949.151617495654
 21
1686.102405326764
 31
0.0
100
AcDbText
  0
LINE
  5
14F
330
20
100
AcDbEntity
  8
33
  6
DIVIDE
100
AcDbLine
 10
1527.935291463287
 20
1036.046409930559
 30
0.0
 11
1127.935291463288
 21
1036.046409930559
 31
0.0
  0
LINE
  5
150
330
20
100
AcDbEntity
  8
33
  6
DIVIDE
100
AcDbLine
 10
613.9352914632882
 20
1036.046409930559
 30
0.0
 11
1135.602970034716
 21
1036.046409930559
 31
0.0
  0
LINE
  5
151
330
20
100
AcDbEntity
  8
17
  6
Continuous
100
AcDbLine
 10
1616.234666463287
 20
1034.872302787702
 30
0.0
 11
1676.234666463287
 21
1034.872302787702
 31
0.0
  0
LINE
  5
152
330
20
100
AcDbEntity
  8
17
  6
Continuous
100
AcDbLine
 10
1691.234666463287
 20
1019.872302787701
 30
0.0
 11
1691.234666463287
 21
974.8723027877018
 31
0.0
  0
LINE
  5
153
330
20
100
AcDbEntity
  8
17
  6
Continuous
100
AcDbLine
 10
1706.234666463287
 20
959.8723027877017
 30
0.0
 11
1716.234666463287
 21
959.8723027877017
 31
0.0
  0
LINE
  5
154
330
20
100
AcDbEntity
  8
17
  6
Continuous
100
AcDbLine
 10
1731.234666463288
 20
944.8723027877017
 30
0.0
 11
1731.234666463288
 21
859.8723027877017
 31
0.0
  0
LINE
  5
155
330
20
100
AcDbEntity
  8
17
  6
Continuous
100
AcDbLine
 10
1867.765648606145
 20
1034.872302787702
 30
0.0
 11
1927.765648606145
 21
1034.872302787702
 31
0.0
  0
LINE
  5
156
330
20
100
AcDbEntity
  8
17
  6
Continuous
100
AcDbLine
 10
1942.765648606145
 20
1019.872302787701
 30
0.0
 11
1942.765648606145
 21
974.8723027877018
 31
0.0
  0
LINE
  5
157
330
20
100
AcDbEntity
  8
17
  6
Continuous
100
AcDbLine
 10
1957.765648606145
 20
959.8723027877017
 30
0.0
 11
1967.765648606145
 21
959.8723027877017
 31
0.0
  0
LINE
  5
158
330
20
100
AcDbEntity
  8
17
  6
Continuous
100
AcDbLine
 10
1982.765648606145
 20
944.8723027877017
 30
0.0
 11
1982.765648606145
 21
859.8723027877017
 31
0.0
  0
LINE
  5
159
330
20
100
AcDbEntity
  8
17
  6
Continuous
100
AcDbLine
 10
2088.747791463288
 20
1034.872302787702
 30
0.0
 11
2148.747791463288
 21
1034.872302787702
 31
0.0
  0
LINE
  5
15A
330
20
100
AcDbEntity
  8
17
  6
Continuous
100
AcDbLine
 10
2163.747791463288
 20
1019.872302787701
 30
0.0
 11
2163.747791463288
 21
999.8723027877018
 31
0.0
  0
LINE
  5
15B
330
20
100
AcDbEntity
  8
17
  6
Continuous
100
AcDbLine
 10
2203.747791463289
 20
946.9572765664096
 30
0.0
 11
2203.747791463289
 21
859.8723027877017
 31
0.0
  0
ARC
  5
15C
330
20
100
AcDbEntity
  8
17
  6
Continuous
100
AcDbCircle
 10
1676.234666463287
 20
1019.872302787701
 30
0.0
 40
15.0
100
AcDbArc
 50
0.0
 51
90.0
  0
ARC
  5
15D
330
20
100
AcDbEntity
  8
17
  6
Continuous
100
AcDbCircle
 10
1706.234666463287
 20
974.8723027877018
 30
0.0
 40
15.0
100
AcDbArc
 50
180.0
 51
270.0
  0
ARC
  5
15E
330
20
100
AcDbEntity
  8
17
  6
Continuous
100
AcDbCircle
 10
1716.234666463287
 20
944.8723027877017
 30
0.0
 40
15.0
100
AcDbArc
 50
0.0
 51
90.0
  0
ARC
  5
15F
330
20
100
AcDbEntity
  8
17
  6
Continuous
100
AcDbCircle
 10
1927.765648606145
 20
1019.872302787701
 30
0.0
 40
15.0
100
AcDbArc
 50
0.0
 51
90.0
  0
ARC
  5
160
330
20
100
AcDbEntity
  8
17
  6
Continuous
100
AcDbCircle
 10
1957.765648606145
 20
974.8723027877018
 30
0.0
 40
15.0
100
AcDbArc
 50
180.0
 51
270.0
  0
ARC
  5
161
330
20
100
AcDbEntity
  8
17
  6
Continuous
100
AcDbCircle
 10
1967.765648606145
 20
944.8723027877017
 30
0.0
 40
15.0
100
AcDbArc
 50
0.0
 51
90.0
  0
ARC
  5
162
330
20
100
AcDbEntity
  8
17
  6
Continuous
100
AcDbCircle
 10
2148.747791463288
 20
1019.872302787701
 30
0.0
 40
15.0
100
AcDbArc
 50
0.0
 51
90.0
  0
ARC
  5
163
330
20
100
AcDbEntity
  8
17
  6
Continuous
100
AcDbCircle
 10
2203.747791463289
 20
999.8723027877018
 30
0.0
 40
40.0
100
AcDbArc
 50
180.0
 51
254.173379868128
  0
ARC
  5
164
330
20
100
AcDbEntity
  8
17
  6
Continuous
100
AcDbCircle
 10
2188.747791463288
 20
946.9572765664096
 30
0.0
 40
15.0
100
AcDbArc
 50
0.0
 51
74.17337986812801
  0
LINE
  5
165
330
20
100
AcDbEntity
  8
17
  6
Continuous
100
AcDbLine
 10
2088.747791463288
 20
1029.872302787701
 30
0.0
 11
2148.747791463288
 21
1029.872302787701
 31
0.0
  0
ARC
  5
166
330
20
100
AcDbEntity
  8
17
  6
Continuous
100
AcDbCircle
 10
2148.747791463288
 20
1019.872302787701
 30
0.0
 40
10.0
100
AcDbArc
 50
0.0
 51
90.0
  0
LINE
  5
167
330
20
100
AcDbEntity
  8
17
  6
Continuous
100
AcDbLine
 10
2158.747791463288
 20
1019.872302787701
 30
0.0
 11
2158.747791463288
 21
999.8723027877018
 31
0.0
  0
ARC
  5
168
330
20
100
AcDbEntity
  8
17
  6
Continuous
100
AcDbCircle
 10
2203.747791463289
 20
999.8723027877018
 30
0.0
 40
45.0
100
AcDbArc
 50
180.0
 51
254.173379868128
  0
ARC
  5
169
330
20
100
AcDbEntity
  8
17
  6
Continuous
100
AcDbCircle
 10
2188.747791463288
 20
946.9572765664096
 30
0.0
 40
10.0
100
AcDbArc
 50
0.0
 51
74.173379868127
  0
LINE
  5
16A
330
20
100
AcDbEntity
  8
17
  6
Continuous
100
AcDbLine
 10
2198.747791463288
 20
946.9572765664096
 30
0.0
 11
2198.747791463288
 21
859.8723027877017
 31
0.0
  0
LINE
  5
16B
330
20
100
AcDbEntity
  8
17
  6
Continuous
100
AcDbLine
 10
1616.234666463287
 20
1029.872302787701
 30
0.0
 11
1676.234666463287
 21
1029.872302787701
 31
0.0
  0
ARC
  5
16C
330
20
100
AcDbEntity
  8
17
  6
Continuous
100
AcDbCircle
 10
1676.234666463287
 20
1019.872302787701
 30
0.0
 40
10.0
100
AcDbArc
 50
0.0
 51
90.0
  0
LINE
  5
16D
330
20
100
AcDbEntity
  8
17
  6
Continuous
100
AcDbLine
 10
1686.234666463288
 20
1019.872302787701
 30
0.0
 11
1686.234666463288
 21
974.8723027877018
 31
0.0
  0
ARC
  5
16E
330
20
100
AcDbEntity
  8
17
  6
Continuous
100
AcDbCircle
 10
1706.234666463287
 20
974.8723027877018
 30
0.0
 40
20.0
100
AcDbArc
 50
180.0
 51
270.0
  0
LINE
  5
16F
330
20
100
AcDbEntity
  8
17
  6
Continuous
100
AcDbLine
 10
1706.234666463287
 20
954.8723027877016
 30
0.0
 11
1716.234666463287
 21
954.8723027877016
 31
0.0
  0
ARC
  5
170
330
20
100
AcDbEntity
  8
17
  6
Continuous
100
AcDbCircle
 10
1716.234666463287
 20
944.8723027877017
 30
0.0
 40
10.0
100
AcDbArc
 50
0.0
 51
90.0
  0
LINE
  5
171
330
20
100
AcDbEntity
  8
17
  6
Continuous
100
AcDbLine
 10
1726.234666463287
 20
944.8723027877017
 30
0.0
 11
1726.234666463287
 21
859.8723027877017
 31
0.0
  0
LINE
  5
172
330
20
100
AcDbEntity
  8
17
  6
Continuous
100
AcDbLine
 10
1867.765648606145
 20
1029.872302787701
 30
0.0
 11
1927.765648606145
 21
1029.872302787701
 31
0.0
  0
ARC
  5
173
330
20
100
AcDbEntity
  8
17
  6
Continuous
100
AcDbCircle
 10
1927.765648606145
 20
1019.872302787701
 30
0.0
 40
10.0
100
AcDbArc
 50
0.0
 51
90.0
  0
LINE
  5
174
330
20
100
AcDbEntity
  8
17
  6
Continuous
100
AcDbLine
 10
1937.765648606145
 20
1019.872302787701
 30
0.0
 11
1937.765648606145
 21
974.8723027877018
 31
0.0
  0
ARC
  5
175
330
20
100
AcDbEntity
  8
17
  6
Continuous
100
AcDbCircle
 10
1957.765648606145
 20
974.8723027877018
 30
0.0
 40
20.0
100
AcDbArc
 50
180.0
 51
270.0
  0
LINE
  5
176
330
20
100
AcDbEntity
  8
17
  6
Continuous
100
AcDbLine
 10
1957.765648606145
 20
954.8723027877016
 30
0.0
 11
1967.765648606145
 21
954.8723027877016
 31
0.0
  0
ARC
  5
177
330
20
100
AcDbEntity
  8
17
  6
Continuous
100
AcDbCircle
 10
1967.765648606145
 20
944.8723027877017
 30
0.0
 40
10.0
100
AcDbArc
 50
0.0
 51
90.0
  0
LINE
  5
178
330
20
100
AcDbEntity
  8
17
  6
Continuous
100
AcDbLine
 10
1977.765648606145
 20
944.8723027877017
 30
0.0
 11
1977.765648606145
 21
859.8723027877017
 31
0.0
  0
LINE
  5
179
330
20
100
AcDbEntity
  8
17
  6
Continuous
100
AcDbLine
 10
1616.234666463287
 20
1034.872302787702
 30
0.0
 11
1616.234666463287
 21
1029.872302787701
 31
0.0
  0
LINE
  5
17A
330
20
100
AcDbEntity
  8
17
  6
Continuous
100
AcDbLine
 10
1867.765648606145
 20
1034.872302787702
 30
0.0
 11
1867.765648606145
 21
1029.872302787701
 31
0.0
  0
LINE
  5
17B
330
20
100
AcDbEntity
  8
17
  6
Continuous
100
AcDbLine
 10
2088.747791463288
 20
1034.872302787702
 30
0.0
 11
2088.747791463288
 21
1029.872302787701
 31
0.0
  0
LINE
  5
17C
330
20
100
AcDbEntity
  8
17
  6
Continuous
100
AcDbLine
 10
1816.213595034717
 20
1034.872302787702
 30
0.0
 11
1676.234666463287
 21
1034.872302787702
 31
0.0
  0
LINE
  5
17D
330
20
100
AcDbEntity
  8
17
  6
Continuous
100
AcDbLine
 10
1814.32198789186
 20
959.8723027877017
 30
0.0
 11
1706.234666463287
 21
959.8723027877017
 31
0.0
  0
LINE
  5
17E
330
20
100
AcDbEntity
  8
17
  6
Continuous
100
AcDbLine
 10
2054.556095034717
 20
1034.872302787702
 30
0.0
 11
1925.926809320431
 21
1034.872302787702
 31
0.0
  0
LINE
  5
17F
330
20
100
AcDbEntity
  8
17
  6
Continuous
100
AcDbLine
 10
2058.339309320431
 20
959.8723027877017
 30
0.0
 11
1957.765648606145
 21
959.8723027877017
 31
0.0
  0
LINE
  5
180
330
20
100
AcDbEntity
  8
17
  6
Continuous
100
AcDbLine
 10
2281.548952177574
 20
1034.872302787702
 30
0.0
 11
2141.570023606146
 21
1034.872302787702
 31
0.0
  0
LINE
  5
181
330
20
100
AcDbEntity
  8
17
  6
Continuous
100
AcDbLine
 10
2196.376821395288
 20
959.8723027877017
 30
0.0
 11
2281.548952177574
 21
959.8723027877017
 31
0.0
  0
LINE
  5
182
330
20
100
AcDbEntity
  8
17
  6
Continuous
100
AcDbLine
 10
1816.213595034717
 20
1034.872302787702
 30
0.0
 11
1816.209138949789
 21
1033.158373804035
 31
0.0
  0
LINE
  5
183
330
20
100
AcDbEntity
  8
17
  6
Continuous
100
AcDbLine
 10
1816.209138949789
 20
1033.158373804035
 30
0.0
 11
1816.203929082839
 21
1031.444358293269
 31
0.0
  0
LINE
  5
184
330
20
100
AcDbEntity
  8
17
  6
Continuous
100
AcDbLine
 10
1816.203929082839
 20
1031.444358293269
 30
0.0
 11
1816.19721165185
 21
1029.730169728307
 31
0.0
  0
LINE
  5
185
330
20
100
AcDbEntity
  8
17
  6
Continuous
100
AcDbLine
 10
1816.19721165185
 20
1029.730169728307
 30
0.0
 11
1816.188232874799
 21
1028.015721582048
 31
0.0
  0
LINE
  5
186
330
20
100
AcDbEntity
  8
17
  6
Continuous
100
AcDbLine
 10
1816.188232874799
 20
1028.015721582048
 30
0.0
 11
1816.176238969667
 21
1026.300927327397
 31
0.0
  0
LINE
  5
187
330
20
100
AcDbEntity
  8
17
  6
Continuous
100
AcDbLine
 10
1816.176238969667
 20
1026.300927327397
 30
0.0
 11
1816.160476154433
 21
1024.585700437253
 31
0.0
  0
LINE
  5
188
330
20
100
AcDbEntity
  8
17
  6
Continuous
100
AcDbLine
 10
1816.160476154433
 20
1024.585700437253
 30
0.0
 11
1816.140190647076
 21
1022.869954384518
 31
0.0
  0
LINE
  5
189
330
20
100
AcDbEntity
  8
17
  6
Continuous
100
AcDbLine
 10
1816.140190647076
 20
1022.869954384518
 30
0.0
 11
1816.114628665577
 21
1021.153602642095
 31
0.0
  0
LINE
  5
18A
330
20
100
AcDbEntity
  8
17
  6
Continuous
100
AcDbLine
 10
1816.114628665577
 20
1021.153602642095
 30
0.0
 11
1816.083036427913
 21
1019.436558682883
 31
0.0
  0
LINE
  5
18B
330
20
100
AcDbEntity
  8
17
  6
Continuous
100
AcDbLine
 10
1816.083036427913
 20
1019.436558682883
 30
0.0
 11
1816.044660152066
 21
1017.718735979786
 31
0.0
  0
LINE
  5
18C
330
20
100
AcDbEntity
  8
17
  6
Continuous
100
AcDbLine
 10
1816.044660152066
 20
1017.718735979786
 30
0.0
 11
1815.998746056015
 21
1016.000048005704
 31
0.0
  0
LINE
  5
18D
330
20
100
AcDbEntity
  8
17
  6
Continuous
100
AcDbLine
 10
1815.998746056015
 20
1016.000048005704
 30
0.0
 11
1815.94454035774
 21
1014.280408233539
 31
0.0
  0
LINE
  5
18E
330
20
100
AcDbEntity
  8
17
  6
Continuous
100
AcDbLine
 10
1815.94454035774
 20
1014.280408233539
 30
0.0
 11
1815.881289275219
 21
1012.559730136192
 31
0.0
  0
LINE
  5
18F
330
20
100
AcDbEntity
  8
17
  6
Continuous
100
AcDbLine
 10
1815.881289275219
 20
1012.559730136192
 30
0.0
 11
1815.808239026434
 21
1010.837927186566
 31
0.0
  0
LINE
  5
190
330
20
100
AcDbEntity
  8
17
  6
Continuous
100
AcDbLine
 10
1815.808239026434
 20
1010.837927186566
 30
0.0
 11
1815.724635829362
 21
1009.114912857561
 31
0.0
  0
LINE
  5
191
330
20
100
AcDbEntity
  8
17
  6
Continuous
100
AcDbLine
 10
1815.724635829362
 20
1009.114912857561
 30
0.0
 11
1815.629725901984
 21
1007.39060062208
 31
0.0
  0
LINE
  5
192
330
20
100
AcDbEntity
  8
17
  6
Continuous
100
AcDbLine
 10
1815.629725901984
 20
1007.39060062208
 30
0.0
 11
1815.522755462279
 21
1005.664903953022
 31
0.0
  0
LINE
  5
193
330
20
100
AcDbEntity
  8
17
  6
Continuous
100
AcDbLine
 10
1815.522755462279
 20
1005.664903953022
 30
0.0
 11
1815.402970728229
 21
1003.937736323292
 31
0.0
  0
LINE
  5
194
330
20
100
AcDbEntity
  8
17
  6
Continuous
100
AcDbLine
 10
1815.402970728229
 20
1003.937736323292
 30
0.0
 11
1815.26961791781
 21
1002.209011205789
 31
0.0
  0
LINE
  5
195
330
20
100
AcDbEntity
  8
17
  6
Continuous
100
AcDbLine
 10
1815.26961791781
 20
1002.209011205789
 30
0.0
 11
1815.121943249002
 21
1000.478642073415
 31
0.0
  0
LINE
  5
196
330
20
100
AcDbEntity
  8
17
  6
Continuous
100
AcDbLine
 10
1815.121943249002
 20
1000.478642073415
 30
0.0
 11
1814.929281207874
 21
998.4342239677708
 31
0.0
  0
LINE
  5
197
330
20
100
AcDbEntity
  8
17
  6
Continuous
100
AcDbLine
 10
1814.929281207874
 20
998.4342239677708
 30
0.0
 11
1814.72091410054
 21
996.3879515900321
 31
0.0
  0
LINE
  5
198
330
20
100
AcDbEntity
  8
17
  6
Continuous
100
AcDbLine
 10
1814.72091410054
 20
996.3879515900321
 30
0.0
 11
1814.502137758617
 21
994.3403813739951
 31
0.0
  0
LINE
  5
199
330
20
100
AcDbEntity
  8
17
  6
Continuous
100
AcDbLine
 10
1814.502137758617
 20
994.3403813739951
 30
0.0
 11
1814.278248013724
 21
992.2920697534527
 31
0.0
  0
LINE
  5
19A
330
20
100
AcDbEntity
  8
17
  6
Continuous
100
AcDbLine
 10
1814.278248013724
 20
992.2920697534527
 30
0.0
 11
1814.054540697479
 21
990.2435731621988
 31
0.0
  0
LINE
  5
19B
330
20
100
AcDbEntity
  8
17
  6
Continuous
100
AcDbLine
 10
1814.054540697479
 20
990.2435731621988
 30
0.0
 11
1813.8363116415
 21
988.1954480340267
 31
0.0
  0
LINE
  5
19C
330
20
100
AcDbEntity
  8
17
  6
Continuous
100
AcDbLine
 10
1813.8363116415
 20
988.1954480340267
 30
0.0
 11
1813.628856677405
 21
986.1482508027304
 31
0.0
  0
LINE
  5
19D
330
20
100
AcDbEntity
  8
17
  6
Continuous
100
AcDbLine
 10
1813.628856677405
 20
986.1482508027304
 30
0.0
 11
1813.437471636811
 21
984.1025379021031
 31
0.0
  0
LINE
  5
19E
330
20
100
AcDbEntity
  8
17
  6
Continuous
100
AcDbLine
 10
1813.437471636811
 20
984.1025379021031
 30
0.0
 11
1813.267452351339
 21
982.0588657659394
 31
0.0
  0
LINE
  5
19F
330
20
100
AcDbEntity
  8
17
  6
Continuous
100
AcDbLine
 10
1813.267452351339
 20
982.0588657659394
 30
0.0
 11
1813.124094652604
 21
980.0177908280323
 31
0.0
  0
LINE
  5
1A0
330
20
100
AcDbEntity
  8
17
  6
Continuous
100
AcDbLine
 10
1813.124094652604
 20
980.0177908280323
 30
0.0
 11
1813.012694372226
 21
977.9798695221758
 31
0.0
  0
LINE
  5
1A1
330
20
100
AcDbEntity
  8
17
  6
Continuous
100
AcDbLine
 10
1813.012694372226
 20
977.9798695221758
 30
0.0
 11
1812.938547341823
 21
975.9456582821638
 31
0.0
  0
LINE
  5
1A2
330
20
100
AcDbEntity
  8
17
  6
Continuous
100
AcDbLine
 10
1812.938547341823
 20
975.9456582821638
 30
0.0
 11
1812.906949393013
 21
973.9157135417892
 31
0.0
  0
LINE
  5
1A3
330
20
100
AcDbEntity
  8
17
  6
Continuous
100
AcDbLine
 10
1812.906949393013
 20
973.9157135417892
 30
0.0
 11
1812.923196357413
 21
971.8905917348468
 31
0.0
  0
LINE
  5
1A4
330
20
100
AcDbEntity
  8
17
  6
Continuous
100
AcDbLine
 10
1812.923196357413
 20
971.8905917348468
 30
0.0
 11
1812.992584066643
 21
969.8708492951292
 31
0.0
  0
LINE
  5
1A5
330
20
100
AcDbEntity
  8
17
  6
Continuous
100
AcDbLine
 10
1812.992584066643
 20
969.8708492951292
 30
0.0
 11
1813.120408352319
 21
967.8570426564307
 31
0.0
  0
LINE
  5
1A6
330
20
100
AcDbEntity
  8
17
  6
Continuous
100
AcDbLine
 10
1813.120408352319
 20
967.8570426564307
 30
0.0
 11
1813.311965046061
 21
965.8497282525454
 31
0.0
  0
LINE
  5
1A7
330
20
100
AcDbEntity
  8
17
  6
Continuous
100
AcDbLine
 10
1813.311965046061
 20
965.8497282525454
 30
0.0
 11
1813.572549979486
 21
963.8494625172663
 31
0.0
  0
LINE
  5
1A8
330
20
100
AcDbEntity
  8
17
  6
Continuous
100
AcDbLine
 10
1813.572549979486
 20
963.8494625172663
 30
0.0
 11
1813.907458984212
 21
961.8568018843872
 31
0.0
  0
LINE
  5
1A9
330
20
100
AcDbEntity
  8
17
  6
Continuous
100
AcDbLine
 10
1813.907458984212
 20
961.8568018843872
 30
0.0
 11
1814.32198789186
 21
959.8723027877017
 31
0.0
  0
LINE
  5
1AA
330
20
100
AcDbEntity
  8
17
  6
Continuous
100
AcDbLine
 10
1814.32198789186
 20
959.8723027877017
 30
0.0
 11
1814.646531381861
 21
958.5448295391822
 31
0.0
  0
LINE
  5
1AB
330
20
100
AcDbEntity
  8
17
  6
Continuous
100
AcDbLine
 10
1814.646531381861
 20
958.5448295391822
 30
0.0
 11
1815.004623219434
 21
957.2209727516908
 31
0.0
  0
LINE
  5
1AC
330
20
100
AcDbEntity
  8
17
  6
Continuous
100
AcDbLine
 10
1815.004623219434
 20
957.2209727516908
 30
0.0
 11
1815.391541825206
 21
955.9004198608937
 31
0.0
  0
LINE
  5
1AD
330
20
100
AcDbEntity
  8
17
  6
Continuous
100
AcDbLine
 10
1815.391541825206
 20
955.9004198608937
 30
0.0
 11
1815.80256561981
 21
954.5828583024597
 31
0.0
  0
LINE
  5
1AE
330
20
100
AcDbEntity
  8
17
  6
Continuous
100
AcDbLine
 10
1815.80256561981
 20
954.5828583024597
 30
0.0
 11
1816.232973023877
 21
953.2679755120552
 31
0.0
  0
LINE
  5
1AF
330
20
100
AcDbEntity
  8
17
  6
Continuous
100
AcDbLine
 10
1816.232973023877
 20
953.2679755120552
 30
0.0
 11
1816.678042458035
 21
951.9554589253482
 31
0.0
  0
LINE
  5
1B0
330
20
100
AcDbEntity
  8
17
  6
Continuous
100
AcDbLine
 10
1816.678042458035
 20
951.9554589253482
 30
0.0
 11
1817.133052342915
 21
950.6449959780063
 31
0.0
  0
LINE
  5
1B1
330
20
100
AcDbEntity
  8
17
  6
Continuous
100
AcDbLine
 10
1817.133052342915
 20
950.6449959780063
 30
0.0
 11
1817.59328109915
 21
949.3362741056957
 31
0.0
  0
LINE
  5
1B2
330
20
100
AcDbEntity
  8
17
  6
Continuous
100
AcDbLine
 10
1817.59328109915
 20
949.3362741056957
 30
0.0
 11
1818.054007147367
 21
948.0289807440852
 31
0.0
  0
LINE
  5
1B3
330
20
100
AcDbEntity
  8
17
  6
Continuous
100
AcDbLine
 10
1818.054007147367
 20
948.0289807440852
 30
0.0
 11
1818.5105089082
 21
946.7228033288417
 31
0.0
  0
LINE
  5
1B4
330
20
100
AcDbEntity
  8
17
  6
Continuous
100
AcDbLine
 10
1818.5105089082
 20
946.7228033288417
 30
0.0
 11
1818.958064802276
 21
945.4174292956322
 31
0.0
  0
LINE
  5
1B5
330
20
100
AcDbEntity
  8
17
  6
Continuous
100
AcDbLine
 10
1818.958064802276
 20
945.4174292956322
 30
0.0
 11
1819.391953250227
 21
944.1125460801247
 31
0.0
  0
LINE
  5
1B6
330
20
100
AcDbEntity
  8
17
  6
Continuous
100
AcDbLine
 10
1819.391953250227
 20
944.1125460801247
 30
0.0
 11
1819.807452672685
 21
942.8078411179862
 31
0.0
  0
LINE
  5
1B7
330
20
100
AcDbEntity
  8
17
  6
Continuous
100
AcDbLine
 10
1819.807452672685
 20
942.8078411179862
 30
0.0
 11
1820.199841490277
 21
941.5030018448842
 31
0.0
  0
LINE
  5
1B8
330
20
100
AcDbEntity
  8
17
  6
Continuous
100
AcDbLine
 10
1820.199841490277
 20
941.5030018448842
 30
0.0
 11
1820.564398123638
 21
940.1977156964868
 31
0.0
  0
LINE
  5
1B9
330
20
100
AcDbEntity
  8
17
  6
Continuous
100
AcDbLine
 10
1820.564398123638
 20
940.1977156964868
 30
0.0
 11
1820.896400993395
 21
938.8916701084603
 31
0.0
  0
LINE
  5
1BA
330
20
100
AcDbEntity
  8
17
  6
Continuous
100
AcDbLine
 10
1820.896400993395
 20
938.8916701084603
 30
0.0
 11
1821.191128520178
 21
937.5845525164722
 31
0.0
  0
LINE
  5
1BB
330
20
100
AcDbEntity
  8
17
  6
Continuous
100
AcDbLine
 10
1821.191128520178
 20
937.5845525164722
 30
0.0
 11
1821.443859124622
 21
936.2760503561908
 31
0.0
  0
LINE
  5
1BC
330
20
100
AcDbEntity
  8
17
  6
Continuous
100
AcDbLine
 10
1821.443859124622
 20
936.2760503561908
 30
0.0
 11
1821.649871227353
 21
934.9658510632828
 31
0.0
  0
LINE
  5
1BD
330
20
100
AcDbEntity
  8
17
  6
Continuous
100
AcDbLine
 10
1821.649871227353
 20
934.9658510632828
 30
0.0
 11
1821.804443249002
 21
933.6536420734157
 31
0.0
  0
LINE
  5
1BE
330
20
100
AcDbEntity
  8
17
  6
Continuous
100
AcDbLine
 10
1821.804443249002
 20
933.6536420734157
 30
0.0
 11
1821.912996426267
 21
932.1683841318538
 31
0.0
  0
LINE
  5
1BF
330
20
100
AcDbEntity
  8
17
  6
Continuous
100
AcDbLine
 10
1821.912996426267
 20
932.1683841318538
 30
0.0
 11
1821.953445268568
 21
930.6803101043781
 31
0.0
  0
LINE
  5
1C0
330
20
100
AcDbEntity
  8
17
  6
Continuous
100
AcDbLine
 10
1821.953445268568
 20
930.6803101043781
 30
0.0
 11
1821.929374214588
 21
929.1895682060371
 31
0.0
  0
LINE
  5
1C1
330
20
100
AcDbEntity
  8
17
  6
Continuous
100
AcDbLine
 10
1821.929374214588
 20
929.1895682060371
 30
0.0
 11
1821.844367703009
 21
927.6963066518787
 31
0.0
  0
LINE
  5
1C2
330
20
100
AcDbEntity
  8
17
  6
Continuous
100
AcDbLine
 10
1821.844367703009
 20
927.6963066518787
 30
0.0
 11
1821.702010172512
 21
926.2006736569512
 31
0.0
  0
LINE
  5
1C3
330
20
100
AcDbEntity
  8
17
  6
Continuous
100
AcDbLine
 10
1821.702010172512
 20
926.2006736569512
 30
0.0
 11
1821.50588606178
 21
924.7028174363022
 31
0.0
  0
LINE
  5
1C4
330
20
100
AcDbEntity
  8
17
  6
Continuous
100
AcDbLine
 10
1821.50588606178
 20
924.7028174363022
 30
0.0
 11
1821.259579809497
 21
923.2028862049803
 31
0.0
  0
LINE
  5
1C5
330
20
100
AcDbEntity
  8
17
  6
Continuous
100
AcDbLine
 10
1821.259579809497
 20
923.2028862049803
 30
0.0
 11
1820.966675854344
 21
921.7010281780332
 31
0.0
  0
LINE
  5
1C6
330
20
100
AcDbEntity
  8
17
  6
Continuous
100
AcDbLine
 10
1820.966675854344
 20
921.7010281780332
 30
0.0
 11
1820.630758635002
 21
920.1973915705092
 31
0.0
  0
LINE
  5
1C7
330
20
100
AcDbEntity
  8
17
  6
Continuous
100
AcDbLine
 10
1820.630758635002
 20
920.1973915705092
 30
0.0
 11
1820.255412590156
 21
918.6921245974563
 31
0.0
  0
LINE
  5
1C8
330
20
100
AcDbEntity
  8
17
  6
Continuous
100
AcDbLine
 10
1820.255412590156
 20
918.6921245974563
 30
0.0
 11
1819.844222158486
 21
917.1853754739228
 31
0.0
  0
LINE
  5
1C9
330
20
100
AcDbEntity
  8
17
  6
Continuous
100
AcDbLine
 10
1819.844222158486
 20
917.1853754739228
 30
0.0
 11
1819.400771778676
 21
915.6772924149562
 31
0.0
  0
LINE
  5
1CA
330
20
100
AcDbEntity
  8
17
  6
Continuous
100
AcDbLine
 10
1819.400771778676
 20
915.6772924149562
 30
0.0
 11
1818.928645889407
 21
914.1680236356048
 31
0.0
  0
LINE
  5
1CB
330
20
100
AcDbEntity
  8
17
  6
Continuous
100
AcDbLine
 10
1818.928645889407
 20
914.1680236356048
 30
0.0
 11
1818.431428929362
 21
912.6577173509172
 31
0.0
  0
LINE
  5
1CC
330
20
100
AcDbEntity
  8
17
  6
Continuous
100
AcDbLine
 10
1818.431428929362
 20
912.6577173509172
 30
0.0
 11
1817.912705337223
 21
911.1465217759413
 31
0.0
  0
LINE
  5
1CD
330
20
100
AcDbEntity
  8
17
  6
Continuous
100
AcDbLine
 10
1817.912705337223
 20
911.1465217759413
 30
0.0
 11
1817.376059551672
 21
909.6345851257247
 31
0.0
  0
LINE
  5
1CE
330
20
100
AcDbEntity
  8
17
  6
Continuous
100
AcDbLine
 10
1817.376059551672
 20
909.6345851257247
 30
0.0
 11
1816.825076011393
 21
908.1220556153157
 31
0.0
  0
LINE
  5
1CF
330
20
100
AcDbEntity
  8
17
  6
Continuous
100
AcDbLine
 10
1816.825076011393
 20
908.1220556153157
 30
0.0
 11
1816.263339155067
 21
906.6090814597627
 31
0.0
  0
LINE
  5
1D0
330
20
100
AcDbEntity
  8
17
  6
Continuous
100
AcDbLine
 10
1816.263339155067
 20
906.6090814597627
 30
0.0
 11
1815.694433421376
 21
905.0958108741133
 31
0.0
  0
LINE
  5
1D1
330
20
100
AcDbEntity
  8
17
  6
Continuous
100
AcDbLine
 10
1815.694433421376
 20
905.0958108741133
 30
0.0
 11
1815.121943249002
 21
903.5823920734157
 31
0.0
  0
LINE
  5
1D2
330
20
100
AcDbEntity
  8
17
  6
Continuous
100
AcDbLine
 10
1726.234666463287
 20
859.8723027877017
 30
0.0
 11
1726.484531627675
 21
859.8712621716247
 31
0.0
  0
LINE
  5
1D3
330
20
100
AcDbEntity
  8
17
  6
Continuous
100
AcDbLine
 10
1726.484531627675
 20
859.8712621716247
 30
0.0
 11
1726.734398819665
 21
859.8702372039097
 31
0.0
  0
LINE
  5
1D4
330
20
100
AcDbEntity
  8
17
  6
Continuous
100
AcDbLine
 10
1726.734398819665
 20
859.8702372039097
 30
0.0
 11
1726.984270066862
 21
859.8692435329187
 31
0.0
  0
LINE
  5
1D5
330
20
100
AcDbEntity
  8
17
  6
Continuous
100
AcDbLine
 10
1726.984270066862
 20
859.8692435329187
 30
0.0
 11
1727.234147396868
 21
859.8682968070137
 31
0.0
  0
LINE
  5
1D6
330
20
100
AcDbEntity
  8
17
  6
Continuous
100
AcDbLine
 10
1727.234147396868
 20
859.8682968070137
 30
0.0
 11
1727.484032837287
 21
859.8674126745573
 31
0.0
  0
LINE
  5
1D7
330
20
100
AcDbEntity
  8
17
  6
Continuous
100
AcDbLine
 10
1727.484032837287
 20
859.8674126745573
 30
0.0
 11
1727.733928415722
 21
859.8666067839113
 31
0.0
  0
LINE
  5
1D8
330
20
100
AcDbEntity
  8
17
  6
Continuous
100
AcDbLine
 10
1727.733928415722
 20
859.8666067839113
 30
0.0
 11
1727.983836159777
 21
859.8658947834371
 31
0.0
  0
LINE
  5
1D9
330
20
100
AcDbEntity
  8
17
  6
Continuous
100
AcDbLine
 10
1727.983836159777
 20
859.8658947834371
 30
0.0
 11
1728.233758097053
 21
859.8652923214981
 31
0.0
  0
LINE
  5
1DA
330
20
100
AcDbEntity
  8
17
  6
Continuous
100
AcDbLine
 10
1728.233758097053
 20
859.8652923214981
 30
0.0
 11
1728.483696255156
 21
859.8648150464553
 31
0.0
  0
LINE
  5
1DB
330
20
100
AcDbEntity
  8
17
  6
Continuous
100
AcDbLine
 10
1728.483696255156
 20
859.8648150464553
 30
0.0
 11
1728.733652661686
 21
859.8644786066707
 31
0.0
  0
LINE
  5
1DC
330
20
100
AcDbEntity
  8
17
  6
Continuous
100
AcDbLine
 10
1728.733652661686
 20
859.8644786066707
 30
0.0
 11
1728.98362934425
 21
859.8642986505071
 31
0.0
  0
LINE
  5
1DD
330
20
100
AcDbEntity
  8
17
  6
Continuous
100
AcDbLine
 10
1728.98362934425
 20
859.8642986505071
 30
0.0
 11
1729.233628330448
 21
859.8642908263261
 31
0.0
  0
LINE
  5
1DE
330
20
100
AcDbEntity
  8
17
  6
Continuous
100
AcDbLine
 10
1729.233628330448
 20
859.8642908263261
 30
0.0
 11
1729.483651647885
 21
859.8644707824897
 31
0.0
  0
LINE
  5
1DF
330
20
100
AcDbEntity
  8
17
  6
Continuous
100
AcDbLine
 10
1729.483651647885
 20
859.8644707824897
 30
0.0
 11
1729.733701324164
 21
859.8648541673602
 31
0.0
  0
LINE
  5
1E0
330
20
100
AcDbEntity
  8
17
  6
Continuous
100
AcDbLine
 10
1729.733701324164
 20
859.8648541673602
 30
0.0
 11
1729.983779386887
 21
859.8654566292998
 31
0.0
  0
LINE
  5
1E1
330
20
100
AcDbEntity
  8
17
  6
Continuous
100
AcDbLine
 10
1729.983779386887
 20
859.8654566292998
 30
0.0
 11
1730.233887863658
 21
859.8662938166702
 31
0.0
  0
LINE
  5
1E2
330
20
100
AcDbEntity
  8
17
  6
Continuous
100
AcDbLine
 10
1730.233887863658
 20
859.8662938166702
 30
0.0
 11
1730.48402878208
 21
859.8673813778331
 31
0.0
  0
LINE
  5
1E3
330
20
100
AcDbEntity
  8
17
  6
Continuous
100
AcDbLine
 10
1730.48402878208
 20
859.8673813778331
 30
0.0
 11
1730.734204169758
 21
859.8687349611518
 31
0.0
  0
LINE
  5
1E4
330
20
100
AcDbEntity
  8
17
  6
Continuous
100
AcDbLine
 10
1730.734204169758
 20
859.8687349611518
 30
0.0
 11
1730.984416054292
 21
859.8703702149874
 31
0.0
  0
LINE
  5
1E5
330
20
100
AcDbEntity
  8
17
  6
Continuous
100
AcDbLine
 10
1730.984416054292
 20
859.8703702149874
 30
0.0
 11
1731.234666463288
 21
859.8723027877017
 31
0.0
  0
LINE
  5
1E6
330
20
100
AcDbEntity
  8
17
  6
Continuous
100
AcDbLine
 10
1731.234666463288
 20
859.8723027877017
 30
0.0
 11
1732.344210695613
 21
859.8846896753212
 31
0.0
  0
LINE
  5
1E7
330
20
100
AcDbEntity
  8
17
  6
Continuous
100
AcDbLine
 10
1732.344210695613
 20
859.8846896753212
 30
0.0
 11
1733.454349892195
 21
859.9036214041902
 31
0.0
  0
LINE
  5
1E8
330
20
100
AcDbEntity
  8
17
  6
Continuous
100
AcDbLine
 10
1733.454349892195
 20
859.9036214041902
 30
0.0
 11
1734.564882495078
 21
859.9294955240418
 31
0.0
  0
LINE
  5
1E9
330
20
100
AcDbEntity
  8
17
  6
Continuous
100
AcDbLine
 10
1734.564882495078
 20
859.9294955240418
 30
0.0
 11
1735.675606946305
 21
859.9627095846091
 31
0.0
  0
LINE
  5
1EA
330
20
100
AcDbEntity
  8
17
  6
Continuous
100
AcDbLine
 10
1735.675606946305
 20
859.9627095846091
 30
0.0
 11
1736.786321687921
 21
860.0036611356262
 31
0.0
  0
LINE
  5
1EB
330
20
100
AcDbEntity
  8
17
  6
Continuous
100
AcDbLine
 10
1736.786321687921
 20
860.0036611356262
 30
0.0
 11
1737.896825161971
 21
860.0527477268254
 31
0.0
  0
LINE
  5
1EC
330
20
100
AcDbEntity
  8
17
  6
Continuous
100
AcDbLine
 10
1737.896825161971
 20
860.0527477268254
 30
0.0
 11
1739.006915810499
 21
860.1103669079403
 31
0.0
  0
LINE
  5
1ED
330
20
100
AcDbEntity
  8
17
  6
Continuous
100
AcDbLine
 10
1739.006915810499
 20
860.1103669079403
 30
0.0
 11
1740.116392075549
 21
860.1769162287043
 31
0.0
  0
LINE
  5
1EE
330
20
100
AcDbEntity
  8
17
  6
Continuous
100
AcDbLine
 10
1740.116392075549
 20
860.1769162287043
 30
0.0
 11
1741.225052399165
 21
860.2527932388507
 31
0.0
  0
LINE
  5
1EF
330
20
100
AcDbEntity
  8
17
  6
Continuous
100
AcDbLine
 10
1741.225052399165
 20
860.2527932388507
 30
0.0
 11
1742.332695223392
 21
860.3383954881127
 31
0.0
  0
LINE
  5
1F0
330
20
100
AcDbEntity
  8
17
  6
Continuous
100
AcDbLine
 10
1742.332695223392
 20
860.3383954881127
 30
0.0
 11
1743.439118990274
 21
860.4341205262237
 31
0.0
  0
LINE
  5
1F1
330
20
100
AcDbEntity
  8
17
  6
Continuous
100
AcDbLine
 10
1743.439118990274
 20
860.4341205262237
 30
0.0
 11
1744.544122141856
 21
860.5403659029173
 31
0.0
  0
LINE
  5
1F2
330
20
100
AcDbEntity
  8
17
  6
Continuous
100
AcDbLine
 10
1744.544122141856
 20
860.5403659029173
 30
0.0
 11
1745.647503120181
 21
860.6575291679257
 31
0.0
  0
LINE
  5
1F3
330
20
100
AcDbEntity
  8
17
  6
Continuous
100
AcDbLine
 10
1745.647503120181
 20
860.6575291679257
 30
0.0
 11
1746.749060367294
 21
860.7860078709832
 31
0.0
  0
LINE
  5
1F4
330
20
100
AcDbEntity
  8
17
  6
Continuous
100
AcDbLine
 10
1746.749060367294
 20
860.7860078709832
 30
0.0
 11
1747.848592325239
 21
860.9261995618227
 31
0.0
  0
LINE
  5
1F5
330
20
100
AcDbEntity
  8
17
  6
Continuous
100
AcDbLine
 10
1747.848592325239
 20
860.9261995618227
 30
0.0
 11
1748.945897436061
 21
861.0785017901772
 31
0.0
  0
LINE
  5
1F6
330
20
100
AcDbEntity
  8
17
  6
Continuous
100
AcDbLine
 10
1748.945897436061
 20
861.0785017901772
 30
0.0
 11
1750.040774141805
 21
861.2433121057808
 31
0.0
  0
LINE
  5
1F7
330
20
100
AcDbEntity
  8
17
  6
Continuous
100
AcDbLine
 10
1750.040774141805
 20
861.2433121057808
 30
0.0
 11
1751.133020884513
 21
861.4210280583662
 31
0.0
  0
LINE
  5
1F8
330
20
100
AcDbEntity
  8
17
  6
Continuous
100
AcDbLine
 10
1751.133020884513
 20
861.4210280583662
 30
0.0
 11
1752.222436106231
 21
861.6120471976667
 31
0.0
  0
LINE
  5
1F9
330
20
100
AcDbEntity
  8
17
  6
Continuous
100
AcDbLine
 10
1752.222436106231
 20
861.6120471976667
 30
0.0
 11
1753.308818249002
 21
861.8167670734157
 31
0.0
  0
LINE
  5
1FA
330
20
100
AcDbEntity
  8
17
  6
Continuous
100
AcDbLine
 10
1753.308818249002
 20
861.8167670734157
 30
0.0
 11
1754.677219068163
 21
862.0953824073538
 31
0.0
  0
LINE
  5
1FB
330
20
100
AcDbEntity
  8
17
  6
Continuous
100
AcDbLine
 10
1754.677219068163
 20
862.0953824073538
 30
0.0
 11
1756.040712068991
 21
862.3953886514552
 31
0.0
  0
LINE
  5
1FC
330
20
100
AcDbEntity
  8
17
  6
Continuous
100
AcDbLine
 10
1756.040712068991
 20
862.3953886514552
 30
0.0
 11
1757.399555557715
 21
862.7156599683432
 31
0.0
  0
LINE
  5
1FD
330
20
100
AcDbEntity
  8
17
  6
Continuous
100
AcDbLine
 10
1757.399555557715
 20
862.7156599683432
 30
0.0
 11
1758.754007840562
 21
863.0550705206402
 31
0.0
  0
LINE
  5
1FE
330
20
100
AcDbEntity
  8
17
  6
Continuous
100
AcDbLine
 10
1758.754007840562
 20
863.0550705206402
 30
0.0
 11
1760.104327223762
 21
863.4124944709697
 31
0.0
  0
LINE
  5
1FF
330
20
100
AcDbEntity
  8
17
  6
Continuous
100
AcDbLine
 10
1760.104327223762
 20
863.4124944709697
 30
0.0
 11
1761.45077201354
 21
863.7868059819542
 31
0.0
  0
LINE
  5
200
330
20
100
AcDbEntity
  8
17
  6
Continuous
100
AcDbLine
 10
1761.45077201354
 20
863.7868059819542
 30
0.0
 11
1762.793600516127
 21
864.1768792162173
 31
0.0
  0
LINE
  5
201
330
20
100
AcDbEntity
  8
17
  6
Continuous
100
AcDbLine
 10
1762.793600516127
 20
864.1768792162173
 30
0.0
 11
1764.13307103775
 21
864.5815883363818
 31
0.0
  0
LINE
  5
202
330
20
100
AcDbEntity
  8
17
  6
Continuous
100
AcDbLine
 10
1764.13307103775
 20
864.5815883363818
 30
0.0
 11
1765.469441884636
 21
864.9998075050703
 31
0.0
  0
LINE
  5
203
330
20
100
AcDbEntity
  8
17
  6
Continuous
100
AcDbLine
 10
1765.469441884636
 20
864.9998075050703
 30
0.0
 11
1766.802971363014
 21
865.4304108849057
 31
0.0
  0
LINE
  5
204
330
20
100
AcDbEntity
  8
17
  6
Continuous
100
AcDbLine
 10
1766.802971363014
 20
865.4304108849057
 30
0.0
 11
1768.133917779111
 21
865.8722726385118
 31
0.0
  0
LINE
  5
205
330
20
100
AcDbEntity
  8
17
  6
Continuous
100
AcDbLine
 10
1768.133917779111
 20
865.8722726385118
 30
0.0
 11
1769.462539439157
 21
866.3242669285107
 31
0.0
  0
LINE
  5
206
330
20
100
AcDbEntity
  8
17
  6
Continuous
100
AcDbLine
 10
1769.462539439157
 20
866.3242669285107
 30
0.0
 11
1770.789094649378
 21
866.7852679175261
 31
0.0
  0
LINE
  5
207
330
20
100
AcDbEntity
  8
17
  6
Continuous
100
AcDbLine
 10
1770.789094649378
 20
866.7852679175261
 30
0.0
 11
1772.113841716002
 21
867.2541497681802
 31
0.0
  0
LINE
  5
208
330
20
100
AcDbEntity
  8
17
  6
Continuous
100
AcDbLine
 10
1772.113841716002
 20
867.2541497681802
 30
0.0
 11
1773.437038945259
 21
867.7297866430972
 31
0.0
  0
LINE
  5
209
330
20
100
AcDbEntity
  8
17
  6
Continuous
100
AcDbLine
 10
1773.437038945259
 20
867.7297866430972
 30
0.0
 11
1774.758944643376
 21
868.2110527048987
 31
0.0
  0
LINE
  5
20A
330
20
100
AcDbEntity
  8
17
  6
Continuous
100
AcDbLine
 10
1774.758944643376
 20
868.2110527048987
 30
0.0
 11
1776.07981711658
 21
868.6968221162082
 31
0.0
  0
LINE
  5
20B
330
20
100
AcDbEntity
  8
17
  6
Continuous
100
AcDbLine
 10
1776.07981711658
 20
868.6968221162082
 30
0.0
 11
1777.399914671101
 21
869.1859690396492
 31
0.0
  0
LINE
  5
20C
330
20
100
AcDbEntity
  8
17
  6
Continuous
100
AcDbLine
 10
1777.399914671101
 20
869.1859690396492
 30
0.0
 11
1778.719495613166
 21
869.6773676378443
 31
0.0
  0
LINE
  5
20D
330
20
100
AcDbEntity
  8
17
  6
Continuous
100
AcDbLine
 10
1778.719495613166
 20
869.6773676378443
 30
0.0
 11
1780.038818249002
 21
870.1698920734157
 31
0.0
  0
LINE
  5
20E
330
20
100
AcDbEntity
  8
17
  6
Continuous
100
AcDbLine
 10
2054.556095034717
 20
1034.872302787702
 30
0.0
 11
2054.538766059168
 21
1033.159273185419
 31
0.0
  0
LINE
  5
20F
330
20
100
AcDbEntity
  8
17
  6
Continuous
100
AcDbLine
 10
2054.538766059168
 20
1033.159273185419
 30
0.0
 11
2054.521295581909
 21
1031.446143531505
 31
0.0
  0
LINE
  5
210
330
20
100
AcDbEntity
  8
17
  6
Continuous
100
AcDbLine
 10
2054.521295581909
 20
1031.446143531505
 30
0.0
 11
2054.503542101229
 21
1029.732813774331
 31
0.0
  0
LINE
  5
211
330
20
100
AcDbEntity
  8
17
  6
Continuous
100
AcDbLine
 10
2054.503542101229
 20
1029.732813774331
 30
0.0
 11
2054.485364115419
 21
1028.019183862264
 31
0.0
  0
LINE
  5
212
330
20
100
AcDbEntity
  8
17
  6
Continuous
100
AcDbLine
 10
2054.485364115419
 20
1028.019183862264
 30
0.0
 11
2054.466620122767
 21
1026.305153743677
 31
0.0
  0
LINE
  5
213
330
20
100
AcDbEntity
  8
17
  6
Continuous
100
AcDbLine
 10
2054.466620122767
 20
1026.305153743677
 30
0.0
 11
2054.447168621563
 21
1024.590623366935
 31
0.0
  0
LINE
  5
214
330
20
100
AcDbEntity
  8
17
  6
Continuous
100
AcDbLine
 10
2054.447168621563
 20
1024.590623366935
 30
0.0
 11
2054.426868110098
 21
1022.875492680411
 31
0.0
  0
LINE
  5
215
330
20
100
AcDbEntity
  8
17
  6
Continuous
100
AcDbLine
 10
2054.426868110098
 20
1022.875492680411
 30
0.0
 11
2054.40557708666
 21
1021.159661632473
 31
0.0
  0
LINE
  5
216
330
20
100
AcDbEntity
  8
17
  6
Continuous
100
AcDbLine
 10
2054.40557708666
 20
1021.159661632473
 30
0.0
 11
2054.383154049539
 21
1019.44303017149
 31
0.0
  0
LINE
  5
217
330
20
100
AcDbEntity
  8
17
  6
Continuous
100
AcDbLine
 10
2054.383154049539
 20
1019.44303017149
 30
0.0
 11
2054.359457497025
 21
1017.725498245833
 31
0.0
  0
LINE
  5
218
330
20
100
AcDbEntity
  8
17
  6
Continuous
100
AcDbLine
 10
2054.359457497025
 20
1017.725498245833
 30
0.0
 11
2054.334345927408
 21
1016.006965803869
 31
0.0
  0
LINE
  5
219
330
20
100
AcDbEntity
  8
17
  6
Continuous
100
AcDbLine
 10
2054.334345927408
 20
1016.006965803869
 30
0.0
 11
2054.307677838978
 21
1014.287332793971
 31
0.0
  0
LINE
  5
21A
330
20
100
AcDbEntity
  8
17
  6
Continuous
100
AcDbLine
 10
2054.307677838978
 20
1014.287332793971
 30
0.0
 11
2054.279311730024
 21
1012.566499164505
 31
0.0
  0
LINE
  5
21B
330
20
100
AcDbEntity
  8
17
  6
Continuous
100
AcDbLine
 10
2054.279311730024
 20
1012.566499164505
 30
0.0
 11
2054.249106098835
 21
1010.844364863842
 31
0.0
  0
LINE
  5
21C
330
20
100
AcDbEntity
  8
17
  6
Continuous
100
AcDbLine
 10
2054.249106098835
 20
1010.844364863842
 30
0.0
 11
2054.216919443701
 21
1009.120829840352
 31
0.0
  0
LINE
  5
21D
330
20
100
AcDbEntity
  8
17
  6
Continuous
100
AcDbLine
 10
2054.216919443701
 20
1009.120829840352
 30
0.0
 11
2054.182610262913
 21
1007.395794042404
 31
0.0
  0
LINE
  5
21E
330
20
100
AcDbEntity
  8
17
  6
Continuous
100
AcDbLine
 10
2054.182610262913
 20
1007.395794042404
 30
0.0
 11
2054.146037054759
 21
1005.669157418366
 31
0.0
  0
LINE
  5
21F
330
20
100
AcDbEntity
  8
17
  6
Continuous
100
AcDbLine
 10
2054.146037054759
 20
1005.669157418366
 30
0.0
 11
2054.10705831753
 21
1003.940819916609
 31
0.0
  0
LINE
  5
220
330
20
100
AcDbEntity
  8
17
  6
Continuous
100
AcDbLine
 10
2054.10705831753
 20
1003.940819916609
 30
0.0
 11
2054.065532549514
 21
1002.210681485502
 31
0.0
  0
LINE
  5
221
330
20
100
AcDbEntity
  8
17
  6
Continuous
100
AcDbLine
 10
2054.065532549514
 20
1002.210681485502
 30
0.0
 11
2054.021318249002
 21
1000.478642073415
 31
0.0
  0
LINE
  5
222
330
20
100
AcDbEntity
  8
17
  6
Continuous
100
AcDbLine
 10
2054.021318249002
 20
1000.478642073415
 30
0.0
 11
2053.965958126001
 21
998.4200162408882
 31
0.0
  0
LINE
  5
223
330
20
100
AcDbEntity
  8
17
  6
Continuous
100
AcDbLine
 10
2053.965958126001
 20
998.4200162408882
 30
0.0
 11
2053.911258450008
 21
996.3593988832997
 31
0.0
  0
LINE
  5
224
330
20
100
AcDbEntity
  8
17
  6
Continuous
100
AcDbLine
 10
2053.911258450008
 20
996.3593988832997
 30
0.0
 11
2053.861868088219
 21
994.2976185683052
 31
0.0
  0
LINE
  5
225
330
20
100
AcDbEntity
  8
17
  6
Continuous
100
AcDbLine
 10
2053.861868088219
 20
994.2976185683052
 30
0.0
 11
2053.822435907826
 21
992.2355038635592
 31
0.0
  0
LINE
  5
226
330
20
100
AcDbEntity
  8
17
  6
Continuous
100
AcDbLine
 10
2053.822435907826
 20
992.2355038635592
 30
0.0
 11
2053.79761077602
 21
990.1738833367167
 31
0.0
  0
LINE
  5
227
330
20
100
AcDbEntity
  8
17
  6
Continuous
100
AcDbLine
 10
2053.79761077602
 20
990.1738833367167
 30
0.0
 11
2053.792041559995
 21
988.1135855554328
 31
0.0
  0
LINE
  5
228
330
20
100
AcDbEntity
  8
17
  6
Continuous
100
AcDbLine
 10
2053.792041559995
 20
988.1135855554328
 30
0.0
 11
2053.810377126943
 21
986.0554390873613
 31
0.0
  0
LINE
  5
229
330
20
100
AcDbEntity
  8
17
  6
Continuous
100
AcDbLine
 10
2053.810377126943
 20
986.0554390873613
 30
0.0
 11
2053.857266344057
 21
984.0002725001577
 31
0.0
  0
LINE
  5
22A
330
20
100
AcDbEntity
  8
17
  6
Continuous
100
AcDbLine
 10
2053.857266344057
 20
984.0002725001577
 30
0.0
 11
2053.937358078529
 21
981.9489143614761
 31
0.0
  0
LINE
  5
22B
330
20
100
AcDbEntity
  8
17
  6
Continuous
100
AcDbLine
 10
2053.937358078529
 20
981.9489143614761
 30
0.0
 11
2054.055301197553
 21
979.9021932389718
 31
0.0
  0
LINE
  5
22C
330
20
100
AcDbEntity
  8
17
  6
Continuous
100
AcDbLine
 10
2054.055301197553
 20
979.9021932389718
 30
0.0
 11
2054.215744568319
 21
977.8609377002986
 31
0.0
  0
LINE
  5
22D
330
20
100
AcDbEntity
  8
17
  6
Continuous
100
AcDbLine
 10
2054.215744568319
 20
977.8609377002986
 30
0.0
 11
2054.42333705802
 21
975.8259763131126
 31
0.0
  0
LINE
  5
22E
330
20
100
AcDbEntity
  8
17
  6
Continuous
100
AcDbLine
 10
2054.42333705802
 20
975.8259763131126
 30
0.0
 11
2054.682727533851
 21
973.7981376450678
 31
0.0
  0
LINE
  5
22F
330
20
100
AcDbEntity
  8
17
  6
Continuous
100
AcDbLine
 10
2054.682727533851
 20
973.7981376450678
 30
0.0
 11
2054.998564863002
 21
971.7782502638183
 31
0.0
  0
LINE
  5
230
330
20
100
AcDbEntity
  8
17
  6
Continuous
100
AcDbLine
 10
2054.998564863002
 20
971.7782502638183
 30
0.0
 11
2055.375497912667
 21
969.7671427370197
 31
0.0
  0
LINE
  5
231
330
20
100
AcDbEntity
  8
17
  6
Continuous
100
AcDbLine
 10
2055.375497912667
 20
969.7671427370197
 30
0.0
 11
2055.818175550038
 21
967.7656436323267
 31
0.0
  0
LINE
  5
232
330
20
100
AcDbEntity
  8
17
  6
Continuous
100
AcDbLine
 10
2055.818175550038
 20
967.7656436323267
 30
0.0
 11
2056.331246642307
 21
965.7745815173937
 31
0.0
  0
LINE
  5
233
330
20
100
AcDbEntity
  8
17
  6
Continuous
100
AcDbLine
 10
2056.331246642307
 20
965.7745815173937
 30
0.0
 11
2056.919360056667
 21
963.7947849598752
 31
0.0
  0
LINE
  5
234
330
20
100
AcDbEntity
  8
17
  6
Continuous
100
AcDbLine
 10
2056.919360056667
 20
963.7947849598752
 30
0.0
 11
2057.587164660311
 21
961.8270825274262
 31
0.0
  0
LINE
  5
235
330
20
100
AcDbEntity
  8
17
  6
Continuous
100
AcDbLine
 10
2057.587164660311
 20
961.8270825274262
 30
0.0
 11
2058.339309320431
 21
959.8723027877017
 31
0.0
  0
LINE
  5
236
330
20
100
AcDbEntity
  8
17
  6
Continuous
100
AcDbLine
 10
2058.339309320431
 20
959.8723027877017
 30
0.0
 11
2058.834053559989
 21
958.7011453267042
 31
0.0
  0
LINE
  5
237
330
20
100
AcDbEntity
  8
17
  6
Continuous
100
AcDbLine
 10
2058.834053559989
 20
958.7011453267042
 30
0.0
 11
2059.355844660042
 21
957.5346761981412
 31
0.0
  0
LINE
  5
238
330
20
100
AcDbEntity
  8
17
  6
Continuous
100
AcDbLine
 10
2059.355844660042
 20
957.5346761981412
 30
0.0
 11
2059.899431059752
 21
956.3725927312617
 31
0.0
  0
LINE
  5
239
330
20
100
AcDbEntity
  8
17
  6
Continuous
100
AcDbLine
 10
2059.899431059752
 20
956.3725927312617
 30
0.0
 11
2060.45956119828
 21
955.2145922553137
 31
0.0
  0
LINE
  5
23A
330
20
100
AcDbEntity
  8
17
  6
Continuous
100
AcDbLine
 10
2060.45956119828
 20
955.2145922553137
 30
0.0
 11
2061.030983514784
 21
954.0603720995452
 31
0.0
  0
LINE
  5
23B
330
20
100
AcDbEntity
  8
17
  6
Continuous
100
AcDbLine
 10
2061.030983514784
 20
954.0603720995452
 30
0.0
 11
2061.608446448428
 21
952.9096295932051
 31
0.0
  0
LINE
  5
23C
330
20
100
AcDbEntity
  8
17
  6
Continuous
100
AcDbLine
 10
2061.608446448428
 20
952.9096295932051
 30
0.0
 11
2062.186698438372
 21
951.7620620655412
 31
0.0
  0
LINE
  5
23D
330
20
100
AcDbEntity
  8
17
  6
Continuous
100
AcDbLine
 10
2062.186698438372
 20
951.7620620655412
 30
0.0
 11
2062.760487923775
 21
950.6173668458016
 31
0.0
  0
LINE
  5
23E
330
20
100
AcDbEntity
  8
17
  6
Continuous
100
AcDbLine
 10
2062.760487923775
 20
950.6173668458016
 30
0.0
 11
2063.3245633438
 21
949.4752412632353
 31
0.0
  0
LINE
  5
23F
330
20
100
AcDbEntity
  8
17
  6
Continuous
100
AcDbLine
 10
2063.3245633438
 20
949.4752412632353
 30
0.0
 11
2063.873673137605
 21
948.3353826470898
 31
0.0
  0
LINE
  5
240
330
20
100
AcDbEntity
  8
17
  6
Continuous
100
AcDbLine
 10
2063.873673137605
 20
948.3353826470898
 30
0.0
 11
2064.402565744353
 21
947.1974883266138
 31
0.0
  0
LINE
  5
241
330
20
100
AcDbEntity
  8
17
  6
Continuous
100
AcDbLine
 10
2064.402565744353
 20
947.1974883266138
 30
0.0
 11
2064.905989603204
 21
946.0612556310552
 31
0.0
  0
LINE
  5
242
330
20
100
AcDbEntity
  8
17
  6
Continuous
100
AcDbLine
 10
2064.905989603204
 20
946.0612556310552
 30
0.0
 11
2065.378693153318
 21
944.9263818896627
 31
0.0
  0
LINE
  5
243
330
20
100
AcDbEntity
  8
17
  6
Continuous
100
AcDbLine
 10
2065.378693153318
 20
944.9263818896627
 30
0.0
 11
2065.815424833857
 21
943.7925644316843
 31
0.0
  0
LINE
  5
244
330
20
100
AcDbEntity
  8
17
  6
Continuous
100
AcDbLine
 10
2065.815424833857
 20
943.7925644316843
 30
0.0
 11
2066.210933083981
 21
942.6595005863687
 31
0.0
  0
LINE
  5
245
330
20
100
AcDbEntity
  8
17
  6
Continuous
100
AcDbLine
 10
2066.210933083981
 20
942.6595005863687
 30
0.0
 11
2066.559966342851
 21
941.5268876829632
 31
0.0
  0
LINE
  5
246
330
20
100
AcDbEntity
  8
17
  6
Continuous
100
AcDbLine
 10
2066.559966342851
 20
941.5268876829632
 30
0.0
 11
2066.857273049627
 21
940.3944230507173
 31
0.0
  0
LINE
  5
247
330
20
100
AcDbEntity
  8
17
  6
Continuous
100
AcDbLine
 10
2066.857273049627
 20
940.3944230507173
 30
0.0
 11
2067.097601643471
 21
939.2618040188787
 31
0.0
  0
LINE
  5
248
330
20
100
AcDbEntity
  8
17
  6
Continuous
100
AcDbLine
 10
2067.097601643471
 20
939.2618040188787
 30
0.0
 11
2067.275700563543
 21
938.1287279166953
 31
0.0
  0
LINE
  5
249
330
20
100
AcDbEntity
  8
17
  6
Continuous
100
AcDbLine
 10
2067.275700563543
 20
938.1287279166953
 30
0.0
 11
2067.386318249003
 21
936.9948920734158
 31
0.0
  0
LINE
  5
24A
330
20
100
AcDbEntity
  8
17
  6
Continuous
100
AcDbLine
 10
2067.386318249003
 20
936.9948920734158
 30
0.0
 11
2067.425697525882
 21
935.7498194113468
 31
0.0
  0
LINE
  5
24B
330
20
100
AcDbEntity
  8
17
  6
Continuous
100
AcDbLine
 10
2067.425697525882
 20
935.7498194113468
 30
0.0
 11
2067.381912683241
 21
934.5035319665193
 31
0.0
  0
LINE
  5
24C
330
20
100
AcDbEntity
  8
17
  6
Continuous
100
AcDbLine
 10
2067.381912683241
 20
934.5035319665193
 30
0.0
 11
2067.259340780001
 21
933.2560936748674
 31
0.0
  0
LINE
  5
24D
330
20
100
AcDbEntity
  8
17
  6
Continuous
100
AcDbLine
 10
2067.259340780001
 20
933.2560936748674
 30
0.0
 11
2067.062358875087
 21
932.0075684723262
 31
0.0
  0
LINE
  5
24E
330
20
100
AcDbEntity
  8
17
  6
Continuous
100
AcDbLine
 10
2067.062358875087
 20
932.0075684723262
 30
0.0
 11
2066.795344027418
 21
930.7580202948306
 31
0.0
  0
LINE
  5
24F
330
20
100
AcDbEntity
  8
17
  6
Continuous
100
AcDbLine
 10
2066.795344027418
 20
930.7580202948306
 30
0.0
 11
2066.462673295919
 21
929.5075130783152
 31
0.0
  0
LINE
  5
250
330
20
100
AcDbEntity
  8
17
  6
Continuous
100
AcDbLine
 10
2066.462673295919
 20
929.5075130783152
 30
0.0
 11
2066.068723739511
 21
928.2561107587149
 31
0.0
  0
LINE
  5
251
330
20
100
AcDbEntity
  8
17
  6
Continuous
100
AcDbLine
 10
2066.068723739511
 20
928.2561107587149
 30
0.0
 11
2065.617872417115
 21
927.0038772719631
 31
0.0
  0
LINE
  5
252
330
20
100
AcDbEntity
  8
17
  6
Continuous
100
AcDbLine
 10
2065.617872417115
 20
927.0038772719631
 30
0.0
 11
2065.114496387653
 21
925.7508765539958
 31
0.0
  0
LINE
  5
253
330
20
100
AcDbEntity
  8
17
  6
Continuous
100
AcDbLine
 10
2065.114496387653
 20
925.7508765539958
 30
0.0
 11
2064.562972710049
 21
924.4971725407472
 31
0.0
  0
LINE
  5
254
330
20
100
AcDbEntity
  8
17
  6
Continuous
100
AcDbLine
 10
2064.562972710049
 20
924.4971725407472
 30
0.0
 11
2063.967678443225
 21
923.2428291681516
 31
0.0
  0
LINE
  5
255
330
20
100
AcDbEntity
  8
17
  6
Continuous
100
AcDbLine
 10
2063.967678443225
 20
923.2428291681516
 30
0.0
 11
2063.332990646101
 21
921.9879103721448
 31
0.0
  0
LINE
  5
256
330
20
100
AcDbEntity
  8
17
  6
Continuous
100
AcDbLine
 10
2063.332990646101
 20
921.9879103721448
 30
0.0
 11
2062.6632863776
 21
920.7324800886601
 31
0.0
  0
LINE
  5
257
330
20
100
AcDbEntity
  8
17
  6
Continuous
100
AcDbLine
 10
2062.6632863776
 20
920.7324800886601
 30
0.0
 11
2061.962942696645
 21
919.4766022536333
 31
0.0
  0
LINE
  5
258
330
20
100
AcDbEntity
  8
17
  6
Continuous
100
AcDbLine
 10
2061.962942696645
 20
919.4766022536333
 30
0.0
 11
2061.236336662157
 21
918.2203408029982
 31
0.0
  0
LINE
  5
259
330
20
100
AcDbEntity
  8
17
  6
Continuous
100
AcDbLine
 10
2061.236336662157
 20
918.2203408029982
 30
0.0
 11
2060.487845333058
 21
916.9637596726898
 31
0.0
  0
LINE
  5
25A
330
20
100
AcDbEntity
  8
17
  6
Continuous
100
AcDbLine
 10
2060.487845333058
 20
916.9637596726898
 30
0.0
 11
2059.721845768271
 21
915.7069227986422
 31
0.0
  0
LINE
  5
25B
330
20
100
AcDbEntity
  8
17
  6
Continuous
100
AcDbLine
 10
2059.721845768271
 20
915.7069227986422
 30
0.0
 11
2058.942715026718
 21
914.4498941167912
 31
0.0
  0
LINE
  5
25C
330
20
100
AcDbEntity
  8
17
  6
Continuous
100
AcDbLine
 10
2058.942715026718
 20
914.4498941167912
 30
0.0
 11
2058.154830167322
 21
913.1927375630711
 31
0.0
  0
LINE
  5
25D
330
20
100
AcDbEntity
  8
17
  6
Continuous
100
AcDbLine
 10
2058.154830167322
 20
913.1927375630711
 30
0.0
 11
2057.362568249003
 21
911.9355170734158
 31
0.0
  0
LINE
  5
25E
330
20
100
AcDbEntity
  8
17
  6
Continuous
100
AcDbLine
 10
1977.765648606145
 20
859.8723027877017
 30
0.0
 11
1978.015095893187
 21
859.8743319739162
 31
0.0
  0
LINE
  5
25F
330
20
100
AcDbEntity
  8
17
  6
Continuous
100
AcDbLine
 10
1978.015095893187
 20
859.8743319739162
 30
0.0
 11
1978.264551491702
 21
859.8763306460524
 31
0.0
  0
LINE
  5
260
330
20
100
AcDbEntity
  8
17
  6
Continuous
100
AcDbLine
 10
1978.264551491702
 20
859.8763306460524
 30
0.0
 11
1978.514023713163
 21
859.8782682900317
 31
0.0
  0
LINE
  5
261
330
20
100
AcDbEntity
  8
17
  6
Continuous
100
AcDbLine
 10
1978.514023713163
 20
859.8782682900317
 30
0.0
 11
1978.763520869044
 21
859.8801143917757
 31
0.0
  0
LINE
  5
262
330
20
100
AcDbEntity
  8
17
  6
Continuous
100
AcDbLine
 10
1978.763520869044
 20
859.8801143917757
 30
0.0
 11
1979.013051270817
 21
859.8818384372062
 31
0.0
  0
LINE
  5
263
330
20
100
AcDbEntity
  8
17
  6
Continuous
100
AcDbLine
 10
1979.013051270817
 20
859.8818384372062
 30
0.0
 11
1979.262623229955
 21
859.8834099122449
 31
0.0
  0
LINE
  5
264
330
20
100
AcDbEntity
  8
17
  6
Continuous
100
AcDbLine
 10
1979.262623229955
 20
859.8834099122449
 30
0.0
 11
1979.512245057931
 21
859.8847983028122
 31
0.0
  0
LINE
  5
265
330
20
100
AcDbEntity
  8
17
  6
Continuous
100
AcDbLine
 10
1979.512245057931
 20
859.8847983028122
 30
0.0
 11
1979.761925066218
 21
859.8859730948314
 31
0.0
  0
LINE
  5
266
330
20
100
AcDbEntity
  8
17
  6
Continuous
100
AcDbLine
 10
1979.761925066218
 20
859.8859730948314
 30
0.0
 11
1980.01167156629
 21
859.8869037742232
 31
0.0
  0
LINE
  5
267
330
20
100
AcDbEntity
  8
17
  6
Continuous
100
AcDbLine
 10
1980.01167156629
 20
859.8869037742232
 30
0.0
 11
1980.26149286962
 21
859.8875598269092
 31
0.0
  0
LINE
  5
268
330
20
100
AcDbEntity
  8
17
  6
Continuous
100
AcDbLine
 10
1980.26149286962
 20
859.8875598269092
 30
0.0
 11
1980.511397287679
 21
859.8879107388107
 31
0.0
  0
LINE
  5
269
330
20
100
AcDbEntity
  8
17
  6
Continuous
100
AcDbLine
 10
1980.511397287679
 20
859.8879107388107
 30
0.0
 11
1980.761393131943
 21
859.8879259958497
 31
0.0
  0
LINE
  5
26A
330
20
100
AcDbEntity
  8
17
  6
Continuous
100
AcDbLine
 10
1980.761393131943
 20
859.8879259958497
 30
0.0
 11
1981.011488713883
 21
859.8875750839482
 31
0.0
  0
LINE
  5
26B
330
20
100
AcDbEntity
  8
17
  6
Continuous
100
AcDbLine
 10
1981.011488713883
 20
859.8875750839482
 30
0.0
 11
1981.261692344973
 21
859.8868274890273
 31
0.0
  0
LINE
  5
26C
330
20
100
AcDbEntity
  8
17
  6
Continuous
100
AcDbLine
 10
1981.261692344973
 20
859.8868274890273
 30
0.0
 11
1981.512012336686
 21
859.8856526970083
 31
0.0
  0
LINE
  5
26D
330
20
100
AcDbEntity
  8
17
  6
Continuous
100
AcDbLine
 10
1981.512012336686
 20
859.8856526970083
 30
0.0
 11
1981.762457000494
 21
859.8840201938129
 31
0.0
  0
LINE
  5
26E
330
20
100
AcDbEntity
  8
17
  6
Continuous
100
AcDbLine
 10
1981.762457000494
 20
859.8840201938129
 30
0.0
 11
1982.01303464787
 21
859.8818994653633
 31
0.0
  0
LINE
  5
26F
330
20
100
AcDbEntity
  8
17
  6
Continuous
100
AcDbLine
 10
1982.01303464787
 20
859.8818994653633
 30
0.0
 11
1982.26375359029
 21
859.8792599975801
 31
0.0
  0
LINE
  5
270
330
20
100
AcDbEntity
  8
17
  6
Continuous
100
AcDbLine
 10
1982.26375359029
 20
859.8792599975801
 30
0.0
 11
1982.514622139223
 21
859.8760712763859
 31
0.0
  0
LINE
  5
271
330
20
100
AcDbEntity
  8
17
  6
Continuous
100
AcDbLine
 10
1982.514622139223
 20
859.8760712763859
 30
0.0
 11
1982.765648606145
 21
859.8723027877017
 31
0.0
  0
LINE
  5
272
330
20
100
AcDbEntity
  8
17
  6
Continuous
100
AcDbLine
 10
1982.765648606145
 20
859.8723027877017
 30
0.0
 11
1983.996938245575
 21
859.8455188882727
 31
0.0
  0
LINE
  5
273
330
20
100
AcDbEntity
  8
17
  6
Continuous
100
AcDbLine
 10
1983.996938245575
 20
859.8455188882727
 30
0.0
 11
1985.231532226096
 21
859.8068048568343
 31
0.0
  0
LINE
  5
274
330
20
100
AcDbEntity
  8
17
  6
Continuous
100
AcDbLine
 10
1985.231532226096
 20
859.8068048568343
 30
0.0
 11
1986.468750330205
 21
859.7588591515936
 31
0.0
  0
LINE
  5
275
330
20
100
AcDbEntity
  8
17
  6
Continuous
100
AcDbLine
 10
1986.468750330205
 20
859.7588591515936
 30
0.0
 11
1987.707912340399
 21
859.7043802307583
 31
0.0
  0
LINE
  5
276
330
20
100
AcDbEntity
  8
17
  6
Continuous
100
AcDbLine
 10
1987.707912340399
 20
859.7043802307583
 30
0.0
 11
1988.948338039175
 21
859.6460665525347
 31
0.0
  0
LINE
  5
277
330
20
100
AcDbEntity
  8
17
  6
Continuous
100
AcDbLine
 10
1988.948338039175
 20
859.6460665525347
 30
0.0
 11
1990.189347209031
 21
859.5866165751303
 31
0.0
  0
LINE
  5
278
330
20
100
AcDbEntity
  8
17
  6
Continuous
100
AcDbLine
 10
1990.189347209031
 20
859.5866165751303
 30
0.0
 11
1991.430259632464
 21
859.5287287567517
 31
0.0
  0
LINE
  5
279
330
20
100
AcDbEntity
  8
17
  6
Continuous
100
AcDbLine
 10
1991.430259632464
 20
859.5287287567517
 30
0.0
 11
1992.670395091973
 21
859.4751015556067
 31
0.0
  0
LINE
  5
27A
330
20
100
AcDbEntity
  8
17
  6
Continuous
100
AcDbLine
 10
1992.670395091973
 20
859.4751015556067
 30
0.0
 11
1993.909073370055
 21
859.4284334299018
 31
0.0
  0
LINE
  5
27B
330
20
100
AcDbEntity
  8
17
  6
Continuous
100
AcDbLine
 10
1993.909073370055
 20
859.4284334299018
 30
0.0
 11
1995.145614249205
 21
859.3914228378437
 31
0.0
  0
LINE
  5
27C
330
20
100
AcDbEntity
  8
17
  6
Continuous
100
AcDbLine
 10
1995.145614249205
 20
859.3914228378437
 30
0.0
 11
1996.379337511924
 21
859.3667682376402
 31
0.0
  0
LINE
  5
27D
330
20
100
AcDbEntity
  8
17
  6
Continuous
100
AcDbLine
 10
1996.379337511924
 20
859.3667682376402
 30
0.0
 11
1997.609562940706
 21
859.3571680874976
 31
0.0
  0
LINE
  5
27E
330
20
100
AcDbEntity
  8
17
  6
Continuous
100
AcDbLine
 10
1997.609562940706
 20
859.3571680874976
 30
0.0
 11
1998.835610318052
 21
859.3653208456244
 31
0.0
  0
LINE
  5
27F
330
20
100
AcDbEntity
  8
17
  6
Continuous
100
AcDbLine
 10
1998.835610318052
 20
859.3653208456244
 30
0.0
 11
2000.056799426458
 21
859.3939249702257
 31
0.0
  0
LINE
  5
280
330
20
100
AcDbEntity
  8
17
  6
Continuous
100
AcDbLine
 10
2000.056799426458
 20
859.3939249702257
 30
0.0
 11
2001.27245004842
 21
859.4456789195103
 31
0.0
  0
LINE
  5
281
330
20
100
AcDbEntity
  8
17
  6
Continuous
100
AcDbLine
 10
2001.27245004842
 20
859.4456789195103
 30
0.0
 11
2002.481881966437
 21
859.5232811516837
 31
0.0
  0
LINE
  5
282
330
20
100
AcDbEntity
  8
17
  6
Continuous
100
AcDbLine
 10
2002.481881966437
 20
859.5232811516837
 30
0.0
 11
2003.684414963006
 21
859.6294301249542
 31
0.0
  0
LINE
  5
283
330
20
100
AcDbEntity
  8
17
  6
Continuous
100
AcDbLine
 10
2003.684414963006
 20
859.6294301249542
 30
0.0
 11
2004.879368820625
 21
859.7668242975283
 31
0.0
  0
LINE
  5
284
330
20
100
AcDbEntity
  8
17
  6
Continuous
100
AcDbLine
 10
2004.879368820625
 20
859.7668242975283
 30
0.0
 11
2006.066063321791
 21
859.9381621276133
 31
0.0
  0
LINE
  5
285
330
20
100
AcDbEntity
  8
17
  6
Continuous
100
AcDbLine
 10
2006.066063321791
 20
859.9381621276133
 30
0.0
 11
2007.243818249003
 21
860.1461420734159
 31
0.0
  0
LINE
  5
286
330
20
100
AcDbEntity
  8
17
  6
Continuous
100
AcDbLine
 10
2007.243818249003
 20
860.1461420734159
 30
0.0
 11
2008.668849850463
 21
860.4523380697353
 31
0.0
  0
LINE
  5
287
330
20
100
AcDbEntity
  8
17
  6
Continuous
100
AcDbLine
 10
2008.668849850463
 20
860.4523380697353
 30
0.0
 11
2010.080261205544
 21
860.8142346820052
 31
0.0
  0
LINE
  5
288
330
20
100
AcDbEntity
  8
17
  6
Continuous
100
AcDbLine
 10
2010.080261205544
 20
860.8142346820052
 30
0.0
 11
2011.478769169319
 21
861.2289002988601
 31
0.0
  0
LINE
  5
289
330
20
100
AcDbEntity
  8
17
  6
Continuous
100
AcDbLine
 10
2011.478769169319
 20
861.2289002988601
 30
0.0
 11
2012.865090596862
 21
861.6934033089348
 31
0.0
  0
LINE
  5
28A
330
20
100
AcDbEntity
  8
17
  6
Continuous
100
AcDbLine
 10
2012.865090596862
 20
861.6934033089348
 30
0.0
 11
2014.239942343243
 21
862.2048121008623
 31
0.0
  0
LINE
  5
28B
330
20
100
AcDbEntity
  8
17
  6
Continuous
100
AcDbLine
 10
2014.239942343243
 20
862.2048121008623
 30
0.0
 11
2015.604041263536
 21
862.7601950632778
 31
0.0
  0
LINE
  5
28C
330
20
100
AcDbEntity
  8
17
  6
Continuous
100
AcDbLine
 10
2015.604041263536
 20
862.7601950632778
 30
0.0
 11
2016.958104212814
 21
863.3566205848147
 31
0.0
  0
LINE
  5
28D
330
20
100
AcDbEntity
  8
17
  6
Continuous
100
AcDbLine
 10
2016.958104212814
 20
863.3566205848147
 30
0.0
 11
2018.302848046149
 21
863.9911570541071
 31
0.0
  0
LINE
  5
28E
330
20
100
AcDbEntity
  8
17
  6
Continuous
100
AcDbLine
 10
2018.302848046149
 20
863.9911570541071
 30
0.0
 11
2019.638989618611
 21
864.6608728597902
 31
0.0
  0
LINE
  5
28F
330
20
100
AcDbEntity
  8
17
  6
Continuous
100
AcDbLine
 10
2019.638989618611
 20
864.6608728597902
 30
0.0
 11
2020.967245785277
 21
865.3628363904976
 31
0.0
  0
LINE
  5
290
330
20
100
AcDbEntity
  8
17
  6
Continuous
100
AcDbLine
 10
2020.967245785277
 20
865.3628363904976
 30
0.0
 11
2022.288333401217
 21
866.0941160348627
 31
0.0
  0
LINE
  5
291
330
20
100
AcDbEntity
  8
17
  6
Continuous
100
AcDbLine
 10
2022.288333401217
 20
866.0941160348627
 30
0.0
 11
2023.602969321505
 21
866.8517801815212
 31
0.0
  0
LINE
  5
292
330
20
100
AcDbEntity
  8
17
  6
Continuous
100
AcDbLine
 10
2023.602969321505
 20
866.8517801815212
 30
0.0
 11
2024.911870401211
 21
867.6328972191058
 31
0.0
  0
LINE
  5
293
330
20
100
AcDbEntity
  8
17
  6
Continuous
100
AcDbLine
 10
2024.911870401211
 20
867.6328972191058
 30
0.0
 11
2026.215753495411
 21
868.4345355362513
 31
0.0
  0
LINE
  5
294
330
20
100
AcDbEntity
  8
17
  6
Continuous
100
AcDbLine
 10
2026.215753495411
 20
868.4345355362513
 30
0.0
 11
2027.515335459175
 21
869.2537635215916
 31
0.0
  0
LINE
  5
295
330
20
100
AcDbEntity
  8
17
  6
Continuous
100
AcDbLine
 10
2027.515335459175
 20
869.2537635215916
 30
0.0
 11
2028.811333147575
 21
870.0876495637617
 31
0.0
  0
LINE
  5
296
330
20
100
AcDbEntity
  8
17
  6
Continuous
100
AcDbLine
 10
2028.811333147575
 20
870.0876495637617
 30
0.0
 11
2030.104463415686
 21
870.9332620513947
 31
0.0
  0
LINE
  5
297
330
20
100
AcDbEntity
  8
17
  6
Continuous
100
AcDbLine
 10
2030.104463415686
 20
870.9332620513947
 30
0.0
 11
2031.395443118579
 21
871.7876693731252
 31
0.0
  0
LINE
  5
298
330
20
100
AcDbEntity
  8
17
  6
Continuous
100
AcDbLine
 10
2031.395443118579
 20
871.7876693731252
 30
0.0
 11
2032.684989111327
 21
872.6479399175877
 31
0.0
  0
LINE
  5
299
330
20
100
AcDbEntity
  8
17
  6
Continuous
100
AcDbLine
 10
2032.684989111327
 20
872.6479399175877
 30
0.0
 11
2033.973818249002
 21
873.5111420734158
 31
0.0
  0
LINE
  5
29A
330
20
100
AcDbEntity
  8
17
  6
Continuous
100
AcDbLine
 10
2281.548952177574
 20
1034.872302787702
 30
0.0
 11
2281.043093833713
 21
1032.981116881939
 31
0.0
  0
LINE
  5
29B
330
20
100
AcDbEntity
  8
17
  6
Continuous
100
AcDbLine
 10
2281.043093833713
 20
1032.981116881939
 30
0.0
 11
2280.539575364249
 21
1031.089997748658
 31
0.0
  0
LINE
  5
29C
330
20
100
AcDbEntity
  8
17
  6
Continuous
100
AcDbLine
 10
2280.539575364249
 20
1031.089997748658
 30
0.0
 11
2280.040736643581
 21
1029.199012160341
 31
0.0
  0
LINE
  5
29D
330
20
100
AcDbEntity
  8
17
  6
Continuous
100
AcDbLine
 10
2280.040736643581
 20
1029.199012160341
 30
0.0
 11
2279.548917546105
 21
1027.308226889469
 31
0.0
  0
LINE
  5
29E
330
20
100
AcDbEntity
  8
17
  6
Continuous
100
AcDbLine
 10
2279.548917546105
 20
1027.308226889469
 30
0.0
 11
2279.066457946219
 21
1025.417708708526
 31
0.0
  0
LINE
  5
29F
330
20
100
AcDbEntity
  8
17
  6
Continuous
100
AcDbLine
 10
2279.066457946219
 20
1025.417708708526
 30
0.0
 11
2278.59569771832
 21
1023.527524389992
 31
0.0
  0
LINE
  5
2A0
330
20
100
AcDbEntity
  8
17
  6
Continuous
100
AcDbLine
 10
2278.59569771832
 20
1023.527524389992
 30
0.0
 11
2278.138976736807
 21
1021.637740706349
 31
0.0
  0
LINE
  5
2A1
330
20
100
AcDbEntity
  8
17
  6
Continuous
100
AcDbLine
 10
2278.138976736807
 20
1021.637740706349
 30
0.0
 11
2277.698634876074
 21
1019.748424430081
 31
0.0
  0
LINE
  5
2A2
330
20
100
AcDbEntity
  8
17
  6
Continuous
100
AcDbLine
 10
2277.698634876074
 20
1019.748424430081
 30
0.0
 11
2277.277012010523
 21
1017.859642333667
 31
0.0
  0
LINE
  5
2A3
330
20
100
AcDbEntity
  8
17
  6
Continuous
100
AcDbLine
 10
2277.277012010523
 20
1017.859642333667
 30
0.0
 11
2276.876448014548
 21
1015.971461189591
 31
0.0
  0
LINE
  5
2A4
330
20
100
AcDbEntity
  8
17
  6
Continuous
100
AcDbLine
 10
2276.876448014548
 20
1015.971461189591
 30
0.0
 11
2276.499282762548
 21
1014.083947770334
 31
0.0
  0
LINE
  5
2A5
330
20
100
AcDbEntity
  8
17
  6
Continuous
100
AcDbLine
 10
2276.499282762548
 20
1014.083947770334
 30
0.0
 11
2276.147856128921
 21
1012.19716884838
 31
0.0
  0
LINE
  5
2A6
330
20
100
AcDbEntity
  8
17
  6
Continuous
100
AcDbLine
 10
2276.147856128921
 20
1012.19716884838
 30
0.0
 11
2275.824507988064
 21
1010.311191196207
 31
0.0
  0
LINE
  5
2A7
330
20
100
AcDbEntity
  8
17
  6
Continuous
100
AcDbLine
 10
2275.824507988064
 20
1010.311191196207
 30
0.0
 11
2275.531578214373
 21
1008.426081586301
 31
0.0
  0
LINE
  5
2A8
330
20
100
AcDbEntity
  8
17
  6
Continuous
100
AcDbLine
 10
2275.531578214373
 20
1008.426081586301
 30
0.0
 11
2275.271406682248
 21
1006.541906791141
 31
0.0
  0
LINE
  5
2A9
330
20
100
AcDbEntity
  8
17
  6
Continuous
100
AcDbLine
 10
2275.271406682248
 20
1006.541906791141
 30
0.0
 11
2275.046333266084
 21
1004.65873358321
 31
0.0
  0
LINE
  5
2AA
330
20
100
AcDbEntity
  8
17
  6
Continuous
100
AcDbLine
 10
2275.046333266084
 20
1004.65873358321
 30
0.0
 11
2274.858697840281
 21
1002.77662873499
 31
0.0
  0
LINE
  5
2AB
330
20
100
AcDbEntity
  8
17
  6
Continuous
100
AcDbLine
 10
2274.858697840281
 20
1002.77662873499
 30
0.0
 11
2274.710840279234
 21
1000.895659018963
 31
0.0
  0
LINE
  5
2AC
330
20
100
AcDbEntity
  8
17
  6
Continuous
100
AcDbLine
 10
2274.710840279234
 20
1000.895659018963
 30
0.0
 11
2274.605100457342
 21
999.0158912076113
 31
0.0
  0
LINE
  5
2AD
330
20
100
AcDbEntity
  8
17
  6
Continuous
100
AcDbLine
 10
2274.605100457342
 20
999.0158912076113
 30
0.0
 11
2274.543818249003
 21
997.1373920734162
 31
0.0
  0
LINE
  5
2AE
330
20
100
AcDbEntity
  8
17
  6
Continuous
100
AcDbLine
 10
2274.543818249003
 20
997.1373920734162
 30
0.0
 11
2274.528672589255
 21
995.2827452604257
 31
0.0
  0
LINE
  5
2AF
330
20
100
AcDbEntity
  8
17
  6
Continuous
100
AcDbLine
 10
2274.528672589255
 20
995.2827452604257
 30
0.0
 11
2274.558174282456
 21
993.4290862976688
 31
0.0
  0
LINE
  5
2B0
330
20
100
AcDbEntity
  8
17
  6
Continuous
100
AcDbLine
 10
2274.558174282456
 20
993.4290862976688
 30
0.0
 11
2274.631292670765
 21
991.5760995320127
 31
0.0
  0
LINE
  5
2B1
330
20
100
AcDbEntity
  8
17
  6
Continuous
100
AcDbLine
 10
2274.631292670765
 20
991.5760995320127
 30
0.0
 11
2274.746997096344
 21
989.7234693103262
 31
0.0
  0
LINE
  5
2B2
330
20
100
AcDbEntity
  8
17
  6
Continuous
100
AcDbLine
 10
2274.746997096344
 20
989.7234693103262
 30
0.0
 11
2274.904256901353
 21
987.8708799794774
 31
0.0
  0
LINE
  5
2B3
330
20
100
AcDbEntity
  8
17
  6
Continuous
100
AcDbLine
 10
2274.904256901353
 20
987.8708799794774
 30
0.0
 11
2275.102041427953
 21
986.0180158863347
 31
0.0
  0
LINE
  5
2B4
330
20
100
AcDbEntity
  8
17
  6
Continuous
100
AcDbLine
 10
2275.102041427953
 20
986.0180158863347
 30
0.0
 11
2275.339320018305
 21
984.1645613777661
 31
0.0
  0
LINE
  5
2B5
330
20
100
AcDbEntity
  8
17
  6
Continuous
100
AcDbLine
 10
2275.339320018305
 20
984.1645613777661
 30
0.0
 11
2275.615062014571
 21
982.3102008006406
 31
0.0
  0
LINE
  5
2B6
330
20
100
AcDbEntity
  8
17
  6
Continuous
100
AcDbLine
 10
2275.615062014571
 20
982.3102008006406
 30
0.0
 11
2275.928236758911
 21
980.4546185018256
 31
0.0
  0
LINE
  5
2B7
330
20
100
AcDbEntity
  8
17
  6
Continuous
100
AcDbLine
 10
2275.928236758911
 20
980.4546185018256
 30
0.0
 11
2276.277813593485
 21
978.5974988281896
 31
0.0
  0
LINE
  5
2B8
330
20
100
AcDbEntity
  8
17
  6
Continuous
100
AcDbLine
 10
2276.277813593485
 20
978.5974988281896
 30
0.0
 11
2276.662761860456
 21
976.7385261266012
 31
0.0
  0
LINE
  5
2B9
330
20
100
AcDbEntity
  8
17
  6
Continuous
100
AcDbLine
 10
2276.662761860456
 20
976.7385261266012
 30
0.0
 11
2277.082050901984
 21
974.8773847439288
 31
0.0
  0
LINE
  5
2BA
330
20
100
AcDbEntity
  8
17
  6
Continuous
100
AcDbLine
 10
2277.082050901984
 20
974.8773847439288
 30
0.0
 11
2277.53465006023
 21
973.0137590270398
 31
0.0
  0
LINE
  5
2BB
330
20
100
AcDbEntity
  8
17
  6
Continuous
100
AcDbLine
 10
2277.53465006023
 20
973.0137590270398
 30
0.0
 11
2278.019528677355
 21
971.1473333228028
 31
0.0
  0
LINE
  5
2BC
330
20
100
AcDbEntity
  8
17
  6
Continuous
100
AcDbLine
 10
2278.019528677355
 20
971.1473333228028
 30
0.0
 11
2278.535656095519
 21
969.2777919780867
 31
0.0
  0
LINE
  5
2BD
330
20
100
AcDbEntity
  8
17
  6
Continuous
100
AcDbLine
 10
2278.535656095519
 20
969.2777919780867
 30
0.0
 11
2279.082001656885
 21
967.4048193397592
 31
0.0
  0
LINE
  5
2BE
330
20
100
AcDbEntity
  8
17
  6
Continuous
100
AcDbLine
 10
2279.082001656885
 20
967.4048193397592
 30
0.0
 11
2279.657534703613
 21
965.5280997546888
 31
0.0
  0
LINE
  5
2BF
330
20
100
AcDbEntity
  8
17
  6
Continuous
100
AcDbLine
 10
2279.657534703613
 20
965.5280997546888
 30
0.0
 11
2280.261224577862
 21
963.6473175697432
 31
0.0
  0
LINE
  5
2C0
330
20
100
AcDbEntity
  8
17
  6
Continuous
100
AcDbLine
 10
2280.261224577862
 20
963.6473175697432
 30
0.0
 11
2280.892040621795
 21
961.7621571317917
 31
0.0
  0
LINE
  5
2C1
330
20
100
AcDbEntity
  8
17
  6
Continuous
100
AcDbLine
 10
2280.892040621795
 20
961.7621571317917
 30
0.0
 11
2281.548952177574
 21
959.8723027877017
 31
0.0
  0
LINE
  5
2C2
330
20
100
AcDbEntity
  8
17
  6
Continuous
100
AcDbLine
 10
2281.548952177574
 20
959.8723027877017
 30
0.0
 11
2282.060419419202
 21
958.4434719294902
 31
0.0
  0
LINE
  5
2C3
330
20
100
AcDbEntity
  8
17
  6
Continuous
100
AcDbLine
 10
2282.060419419202
 20
958.4434719294902
 30
0.0
 11
2282.581204386757
 21
957.0127141043608
 31
0.0
  0
LINE
  5
2C4
330
20
100
AcDbEntity
  8
17
  6
Continuous
100
AcDbLine
 10
2282.581204386757
 20
957.0127141043608
 30
0.0
 11
2283.106359846303
 21
955.5809533957912
 31
0.0
  0
LINE
  5
2C5
330
20
100
AcDbEntity
  8
17
  6
Continuous
100
AcDbLine
 10
2283.106359846303
 20
955.5809533957912
 30
0.0
 11
2283.630938563902
 21
954.1491138872586
 31
0.0
  0
LINE
  5
2C6
330
20
100
AcDbEntity
  8
17
  6
Continuous
100
AcDbLine
 10
2283.630938563902
 20
954.1491138872586
 30
0.0
 11
2284.14999330562
 21
952.7181196622413
 31
0.0
  0
LINE
  5
2C7
330
20
100
AcDbEntity
  8
17
  6
Continuous
100
AcDbLine
 10
2284.14999330562
 20
952.7181196622413
 30
0.0
 11
2284.658576837522
 21
951.2888948042157
 31
0.0
  0
LINE
  5
2C8
330
20
100
AcDbEntity
  8
17
  6
Continuous
100
AcDbLine
 10
2284.658576837522
 20
951.2888948042157
 30
0.0
 11
2285.151741925668
 21
949.8623633966602
 31
0.0
  0
LINE
  5
2C9
330
20
100
AcDbEntity
  8
17
  6
Continuous
100
AcDbLine
 10
2285.151741925668
 20
949.8623633966602
 30
0.0
 11
2285.624541336124
 21
948.4394495230517
 31
0.0
  0
LINE
  5
2CA
330
20
100
AcDbEntity
  8
17
  6
Continuous
100
AcDbLine
 10
2285.624541336124
 20
948.4394495230517
 30
0.0
 11
2286.072027834954
 21
947.0210772668671
 31
0.0
  0
LINE
  5
2CB
330
20
100
AcDbEntity
  8
17
  6
Continuous
100
AcDbLine
 10
2286.072027834954
 20
947.0210772668671
 30
0.0
 11
2286.489254188222
 21
945.6081707115853
 31
0.0
  0
LINE
  5
2CC
330
20
100
AcDbEntity
  8
17
  6
Continuous
100
AcDbLine
 10
2286.489254188222
 20
945.6081707115853
 30
0.0
 11
2286.87127316199
 21
944.2016539406829
 31
0.0
  0
LINE
  5
2CD
330
20
100
AcDbEntity
  8
17
  6
Continuous
100
AcDbLine
 10
2286.87127316199
 20
944.2016539406829
 30
0.0
 11
2287.213137522323
 21
942.8024510376367
 31
0.0
  0
LINE
  5
2CE
330
20
100
AcDbEntity
  8
17
  6
Continuous
100
AcDbLine
 10
2287.213137522323
 20
942.8024510376367
 30
0.0
 11
2287.509900035287
 21
941.4114860859259
 31
0.0
  0
LINE
  5
2CF
330
20
100
AcDbEntity
  8
17
  6
Continuous
100
AcDbLine
 10
2287.509900035287
 20
941.4114860859259
 30
0.0
 11
2287.756613466942
 21
940.0296831690262
 31
0.0
  0
LINE
  5
2D0
330
20
100
AcDbEntity
  8
17
  6
Continuous
100
AcDbLine
 10
2287.756613466942
 20
940.0296831690262
 30
0.0
 11
2287.948330583355
 21
938.6579663704157
 31
0.0
  0
LINE
  5
2D1
330
20
100
AcDbEntity
  8
17
  6
Continuous
100
AcDbLine
 10
2287.948330583355
 20
938.6579663704157
 30
0.0
 11
2288.080104150588
 21
937.2972597735726
 31
0.0
  0
LINE
  5
2D2
330
20
100
AcDbEntity
  8
17
  6
Continuous
100
AcDbLine
 10
2288.080104150588
 20
937.2972597735726
 30
0.0
 11
2288.146986934705
 21
935.9484874619731
 31
0.0
  0
LINE
  5
2D3
330
20
100
AcDbEntity
  8
17
  6
Continuous
100
AcDbLine
 10
2288.146986934705
 20
935.9484874619731
 30
0.0
 11
2288.144031701771
 21
934.6125735190957
 31
0.0
  0
LINE
  5
2D4
330
20
100
AcDbEntity
  8
17
  6
Continuous
100
AcDbLine
 10
2288.144031701771
 20
934.6125735190957
 30
0.0
 11
2288.066291217849
 21
933.2904420284178
 31
0.0
  0
LINE
  5
2D5
330
20
100
AcDbEntity
  8
17
  6
Continuous
100
AcDbLine
 10
2288.066291217849
 20
933.2904420284178
 30
0.0
 11
2287.908818249002
 21
931.9830170734158
 31
0.0
  0
LINE
  5
2D6
330
20
100
AcDbEntity
  8
17
  6
Continuous
100
AcDbLine
 10
2287.908818249002
 20
931.9830170734158
 30
0.0
 11
2287.653156334999
 21
930.6230534293128
 31
0.0
  0
LINE
  5
2D7
330
20
100
AcDbEntity
  8
17
  6
Continuous
100
AcDbLine
 10
2287.653156334999
 20
930.6230534293128
 30
0.0
 11
2287.308317407766
 21
929.2795505381482
 31
0.0
  0
LINE
  5
2D8
330
20
100
AcDbEntity
  8
17
  6
Continuous
100
AcDbLine
 10
2287.308317407766
 20
929.2795505381482
 30
0.0
 11
2286.878994994314
 21
927.9516420445046
 31
0.0
  0
LINE
  5
2D9
330
20
100
AcDbEntity
  8
17
  6
Continuous
100
AcDbLine
 10
2286.878994994314
 20
927.9516420445046
 30
0.0
 11
2286.369882621657
 21
926.6384615929652
 31
0.0
  0
LINE
  5
2DA
330
20
100
AcDbEntity
  8
17
  6
Continuous
100
AcDbLine
 10
2286.369882621657
 20
926.6384615929652
 30
0.0
 11
2285.785673816805
 21
925.3391428281107
 31
0.0
  0
LINE
  5
2DB
330
20
100
AcDbEntity
  8
17
  6
Continuous
100
AcDbLine
 10
2285.785673816805
 20
925.3391428281107
 30
0.0
 11
2285.131062106771
 21
924.0528193945237
 31
0.0
  0
LINE
  5
2DC
330
20
100
AcDbEntity
  8
17
  6
Continuous
100
AcDbLine
 10
2285.131062106771
 20
924.0528193945237
 30
0.0
 11
2284.410741018568
 21
922.7786249367866
 31
0.0
  0
LINE
  5
2DD
330
20
100
AcDbEntity
  8
17
  6
Continuous
100
AcDbLine
 10
2284.410741018568
 20
922.7786249367866
 30
0.0
 11
2283.629404079208
 21
921.5156930994812
 31
0.0
  0
LINE
  5
2DE
330
20
100
AcDbEntity
  8
17
  6
Continuous
100
AcDbLine
 10
2283.629404079208
 20
921.5156930994812
 30
0.0
 11
2282.791744815702
 21
920.2631575271903
 31
0.0
  0
LINE
  5
2DF
330
20
100
AcDbEntity
  8
17
  6
Continuous
100
AcDbLine
 10
2282.791744815702
 20
920.2631575271903
 30
0.0
 11
2281.902456755062
 21
919.0201518644958
 31
0.0
  0
LINE
  5
2E0
330
20
100
AcDbEntity
  8
17
  6
Continuous
100
AcDbLine
 10
2281.902456755062
 20
919.0201518644958
 30
0.0
 11
2280.966233424302
 21
917.7858097559791
 31
0.0
  0
LINE
  5
2E1
330
20
100
AcDbEntity
  8
17
  6
Continuous
100
AcDbLine
 10
2280.966233424302
 20
917.7858097559791
 30
0.0
 11
2279.987768350432
 21
916.5592648462231
 31
0.0
  0
LINE
  5
2E2
330
20
100
AcDbEntity
  8
17
  6
Continuous
100
AcDbLine
 10
2279.987768350432
 20
916.5592648462231
 30
0.0
 11
2278.971755060466
 21
915.3396507798102
 31
0.0
  0
LINE
  5
2E3
330
20
100
AcDbEntity
  8
17
  6
Continuous
100
AcDbLine
 10
2278.971755060466
 20
915.3396507798102
 30
0.0
 11
2277.922887081414
 21
914.1261012013217
 31
0.0
  0
LINE
  5
2E4
330
20
100
AcDbEntity
  8
17
  6
Continuous
100
AcDbLine
 10
2277.922887081414
 20
914.1261012013217
 30
0.0
 11
2276.84585794029
 21
912.9177497553408
 31
0.0
  0
LINE
  5
2E5
330
20
100
AcDbEntity
  8
17
  6
Continuous
100
AcDbLine
 10
2276.84585794029
 20
912.9177497553408
 30
0.0
 11
2275.745361164105
 21
911.7137300864488
 31
0.0
  0
LINE
  5
2E6
330
20
100
AcDbEntity
  8
17
  6
Continuous
100
AcDbLine
 10
2275.745361164105
 20
911.7137300864488
 30
0.0
 11
2274.626090279872
 21
910.5131758392284
 31
0.0
  0
LINE
  5
2E7
330
20
100
AcDbEntity
  8
17
  6
Continuous
100
AcDbLine
 10
2274.626090279872
 20
910.5131758392284
 30
0.0
 11
2273.492738814603
 21
909.3152206582608
 31
0.0
  0
LINE
  5
2E8
330
20
100
AcDbEntity
  8
17
  6
Continuous
100
AcDbLine
 10
2273.492738814603
 20
909.3152206582608
 30
0.0
 11
2272.350000295308
 21
908.1189981881298
 31
0.0
  0
LINE
  5
2E9
330
20
100
AcDbEntity
  8
17
  6
Continuous
100
AcDbLine
 10
2272.350000295308
 20
908.1189981881298
 30
0.0
 11
2271.202568249002
 21
906.9236420734156
 31
0.0
  0
LINE
  5
2EA
330
20
100
AcDbEntity
  8
17
  6
Continuous
100
AcDbLine
 10
2198.747791463288
 20
859.8723027877017
 30
0.0
 11
2198.997606941521
 21
859.8706106993388
 31
0.0
  0
LINE
  5
2EB
330
20
100
AcDbEntity
  8
17
  6
Continuous
100
AcDbLine
 10
2198.997606941521
 20
859.8706106993388
 30
0.0
 11
2199.247425194516
 21
859.8689440559132
 31
0.0
  0
LINE
  5
2EC
330
20
100
AcDbEntity
  8
17
  6
Continuous
100
AcDbLine
 10
2199.247425194516
 20
859.8689440559132
 30
0.0
 11
2199.497248997039
 21
859.8673283023632
 31
0.0
  0
LINE
  5
2ED
330
20
100
AcDbEntity
  8
17
  6
Continuous
100
AcDbLine
 10
2199.497248997039
 20
859.8673283023632
 30
0.0
 11
2199.747081123852
 21
859.8657888836267
 31
0.0
  0
LINE
  5
2EE
330
20
100
AcDbEntity
  8
17
  6
Continuous
100
AcDbLine
 10
2199.747081123852
 20
859.8657888836267
 30
0.0
 11
2199.996924349718
 21
859.8643512446416
 31
0.0
  0
LINE
  5
2EF
330
20
100
AcDbEntity
  8
17
  6
Continuous
100
AcDbLine
 10
2199.996924349718
 20
859.8643512446416
 30
0.0
 11
2200.246781449402
 21
859.8630408303451
 31
0.0
  0
LINE
  5
2F0
330
20
100
AcDbEntity
  8
17
  6
Continuous
100
AcDbLine
 10
2200.246781449402
 20
859.8630408303451
 30
0.0
 11
2200.496655197666
 21
859.8618830856757
 31
0.0
  0
LINE
  5
2F1
330
20
100
AcDbEntity
  8
17
  6
Continuous
100
AcDbLine
 10
2200.496655197666
 20
859.8618830856757
 30
0.0
 11
2200.746548369275
 21
859.8609034555707
 31
0.0
  0
LINE
  5
2F2
330
20
100
AcDbEntity
  8
17
  6
Continuous
100
AcDbLine
 10
2200.746548369275
 20
859.8609034555707
 30
0.0
 11
2200.99646373899
 21
859.8601273849682
 31
0.0
  0
LINE
  5
2F3
330
20
100
AcDbEntity
  8
17
  6
Continuous
100
AcDbLine
 10
2200.99646373899
 20
859.8601273849682
 30
0.0
 11
2201.246404081577
 21
859.8595803188057
 31
0.0
  0
LINE
  5
2F4
330
20
100
AcDbEntity
  8
17
  6
Continuous
100
AcDbLine
 10
2201.246404081577
 20
859.8595803188057
 30
0.0
 11
2201.496372171797
 21
859.8592877020207
 31
0.0
  0
LINE
  5
2F5
330
20
100
AcDbEntity
  8
17
  6
Continuous
100
AcDbLine
 10
2201.496372171797
 20
859.8592877020207
 30
0.0
 11
2201.746370784416
 21
859.8592749795523
 31
0.0
  0
LINE
  5
2F6
330
20
100
AcDbEntity
  8
17
  6
Continuous
100
AcDbLine
 10
2201.746370784416
 20
859.8592749795523
 30
0.0
 11
2201.996402694195
 21
859.8595675963368
 31
0.0
  0
LINE
  5
2F7
330
20
100
AcDbEntity
  8
17
  6
Continuous
100
AcDbLine
 10
2201.996402694195
 20
859.8595675963368
 30
0.0
 11
2202.246470675898
 21
859.8601909973126
 31
0.0
  0
LINE
  5
2F8
330
20
100
AcDbEntity
  8
17
  6
Continuous
100
AcDbLine
 10
2202.246470675898
 20
859.8601909973126
 30
0.0
 11
2202.496577504291
 21
859.8611706274178
 31
0.0
  0
LINE
  5
2F9
330
20
100
AcDbEntity
  8
17
  6
Continuous
100
AcDbLine
 10
2202.496577504291
 20
859.8611706274178
 30
0.0
 11
2202.746725954134
 21
859.8625319315893
 31
0.0
  0
LINE
  5
2FA
330
20
100
AcDbEntity
  8
17
  6
Continuous
100
AcDbLine
 10
2202.746725954134
 20
859.8625319315893
 30
0.0
 11
2202.996918800192
 21
859.8643003547657
 31
0.0
  0
LINE
  5
2FB
330
20
100
AcDbEntity
  8
17
  6
Continuous
100
AcDbLine
 10
2202.996918800192
 20
859.8643003547657
 30
0.0
 11
2203.247158817227
 21
859.8665013418852
 31
0.0
  0
LINE
  5
2FC
330
20
100
AcDbEntity
  8
17
  6
Continuous
100
AcDbLine
 10
2203.247158817227
 20
859.8665013418852
 30
0.0
 11
2203.497448780005
 21
859.8691603378842
 31
0.0
  0
LINE
  5
2FD
330
20
100
AcDbEntity
  8
17
  6
Continuous
100
AcDbLine
 10
2203.497448780005
 20
859.8691603378842
 30
0.0
 11
2203.747791463289
 21
859.8723027877017
 31
0.0
  0
LINE
  5
2FE
330
20
100
AcDbEntity
  8
17
  6
Continuous
100
AcDbLine
 10
2203.747791463289
 20
859.8723027877017
 30
0.0
 11
2205.047497724998
 21
859.8968206211917
 31
0.0
  0
LINE
  5
2FF
330
20
100
AcDbEntity
  8
17
  6
Continuous
100
AcDbLine
 10
2205.047497724998
 20
859.8968206211917
 30
0.0
 11
2206.348255199688
 21
859.9354303772456
 31
0.0
  0
LINE
  5
300
330
20
100
AcDbEntity
  8
17
  6
Continuous
100
AcDbLine
 10
2206.348255199688
 20
859.9354303772456
 30
0.0
 11
2207.649621164625
 21
859.9885243956267
 31
0.0
  0
LINE
  5
301
330
20
100
AcDbEntity
  8
17
  6
Continuous
100
AcDbLine
 10
2207.649621164625
 20
859.9885243956267
 30
0.0
 11
2208.951152897079
 21
860.0564950160963
 31
0.0
  0
LINE
  5
302
330
20
100
AcDbEntity
  8
17
  6
Continuous
100
AcDbLine
 10
2208.951152897079
 20
860.0564950160963
 30
0.0
 11
2210.252407674317
 21
860.1397345784157
 31
0.0
  0
LINE
  5
303
330
20
100
AcDbEntity
  8
17
  6
Continuous
100
AcDbLine
 10
2210.252407674317
 20
860.1397345784157
 30
0.0
 11
2211.552942773606
 21
860.2386354223476
 31
0.0
  0
LINE
  5
304
330
20
100
AcDbEntity
  8
17
  6
Continuous
100
AcDbLine
 10
2211.552942773606
 20
860.2386354223476
 30
0.0
 11
2212.852315472213
 21
860.3535898876542
 31
0.0
  0
LINE
  5
305
330
20
100
AcDbEntity
  8
17
  6
Continuous
100
AcDbLine
 10
2212.852315472213
 20
860.3535898876542
 30
0.0
 11
2214.150083047409
 21
860.4849903140973
 31
0.0
  0
LINE
  5
306
330
20
100
AcDbEntity
  8
17
  6
Continuous
100
AcDbLine
 10
2214.150083047409
 20
860.4849903140973
 30
0.0
 11
2215.445802776459
 21
860.6332290414387
 31
0.0
  0
LINE
  5
307
330
20
100
AcDbEntity
  8
17
  6
Continuous
100
AcDbLine
 10
2215.445802776459
 20
860.6332290414387
 30
0.0
 11
2216.739031936631
 21
860.7986984094402
 31
0.0
  0
LINE
  5
308
330
20
100
AcDbEntity
  8
17
  6
Continuous
100
AcDbLine
 10
2216.739031936631
 20
860.7986984094402
 30
0.0
 11
2218.029327805193
 21
860.9817907578646
 31
0.0
  0
LINE
  5
309
330
20
100
AcDbEntity
  8
17
  6
Continuous
100
AcDbLine
 10
2218.029327805193
 20
860.9817907578646
 30
0.0
 11
2219.316247659413
 21
861.1828984264732
 31
0.0
  0
LINE
  5
30A
330
20
100
AcDbEntity
  8
17
  6
Continuous
100
AcDbLine
 10
2219.316247659413
 20
861.1828984264732
 30
0.0
 11
2220.59934877656
 21
861.4024137550277
 31
0.0
  0
LINE
  5
30B
330
20
100
AcDbEntity
  8
17
  6
Continuous
100
AcDbLine
 10
2220.59934877656
 20
861.4024137550277
 30
0.0
 11
2221.8781884339
 21
861.6407290832908
 31
0.0
  0
LINE
  5
30C
330
20
100
AcDbEntity
  8
17
  6
Continuous
100
AcDbLine
 10
2221.8781884339
 20
861.6407290832908
 30
0.0
 11
2223.152323908702
 21
861.8982367510243
 31
0.0
  0
LINE
  5
30D
330
20
100
AcDbEntity
  8
17
  6
Continuous
100
AcDbLine
 10
2223.152323908702
 20
861.8982367510243
 30
0.0
 11
2224.421312478233
 21
862.1753290979903
 31
0.0
  0
LINE
  5
30E
330
20
100
AcDbEntity
  8
17
  6
Continuous
100
AcDbLine
 10
2224.421312478233
 20
862.1753290979903
 30
0.0
 11
2225.684711419761
 21
862.4723984639501
 31
0.0
  0
LINE
  5
30F
330
20
100
AcDbEntity
  8
17
  6
Continuous
100
AcDbLine
 10
2225.684711419761
 20
862.4723984639501
 30
0.0
 11
2226.942078010552
 21
862.7898371886667
 31
0.0
  0
LINE
  5
310
330
20
100
AcDbEntity
  8
17
  6
Continuous
100
AcDbLine
 10
2226.942078010552
 20
862.7898371886667
 30
0.0
 11
2228.192969527877
 21
863.1280376119013
 31
0.0
  0
LINE
  5
311
330
20
100
AcDbEntity
  8
17
  6
Continuous
100
AcDbLine
 10
2228.192969527877
 20
863.1280376119013
 30
0.0
 11
2229.436943249002
 21
863.4873920734158
 31
0.0
  0
LINE
  5
312
330
20
100
AcDbEntity
  8
17
  6
Continuous
100
AcDbLine
 10
2229.436943249002
 20
863.4873920734158
 30
0.0
 11
2230.650110335618
 21
863.8605703646137
 31
0.0
  0
LINE
  5
313
330
20
100
AcDbEntity
  8
17
  6
Continuous
100
AcDbLine
 10
2230.650110335618
 20
863.8605703646137
 30
0.0
 11
2231.856549793523
 21
864.2534423802427
 31
0.0
  0
LINE
  5
314
330
20
100
AcDbEntity
  8
17
  6
Continuous
100
AcDbLine
 10
2231.856549793523
 20
864.2534423802427
 30
0.0
 11
2233.056615708441
 21
864.6649716084903
 31
0.0
  0
LINE
  5
315
330
20
100
AcDbEntity
  8
17
  6
Continuous
100
AcDbLine
 10
2233.056615708441
 20
864.6649716084903
 30
0.0
 11
2234.250662166091
 21
865.0941215375448
 31
0.0
  0
LINE
  5
316
330
20
100
AcDbEntity
  8
17
  6
Continuous
100
AcDbLine
 10
2234.250662166091
 20
865.0941215375448
 30
0.0
 11
2235.439043252195
 21
865.5398556555942
 31
0.0
  0
LINE
  5
317
330
20
100
AcDbEntity
  8
17
  6
Continuous
100
AcDbLine
 10
2235.439043252195
 20
865.5398556555942
 30
0.0
 11
2236.622113052476
 21
866.0011374508258
 31
0.0
  0
LINE
  5
318
330
20
100
AcDbEntity
  8
17
  6
Continuous
100
AcDbLine
 10
2236.622113052476
 20
866.0011374508258
 30
0.0
 11
2237.800225652654
 21
866.4769304114276
 31
0.0
  0
LINE
  5
319
330
20
100
AcDbEntity
  8
17
  6
Continuous
100
AcDbLine
 10
2237.800225652654
 20
866.4769304114276
 30
0.0
 11
2238.973735138453
 21
866.9661980255877
 31
0.0
  0
LINE
  5
31A
330
20
100
AcDbEntity
  8
17
  6
Continuous
100
AcDbLine
 10
2238.973735138453
 20
866.9661980255877
 30
0.0
 11
2240.142995595592
 21
867.4679037814941
 31
0.0
  0
LINE
  5
31B
330
20
100
AcDbEntity
  8
17
  6
Continuous
100
AcDbLine
 10
2240.142995595592
 20
867.4679037814941
 30
0.0
 11
2241.308361109794
 21
867.9810111673338
 31
0.0
  0
LINE
  5
31C
330
20
100
AcDbEntity
  8
17
  6
Continuous
100
AcDbLine
 10
2241.308361109794
 20
867.9810111673338
 30
0.0
 11
2242.470185766781
 21
868.5044836712952
 31
0.0
  0
LINE
  5
31D
330
20
100
AcDbEntity
  8
17
  6
Continuous
100
AcDbLine
 10
2242.470185766781
 20
868.5044836712952
 30
0.0
 11
2243.628823652272
 21
869.0372847815662
 31
0.0
  0
LINE
  5
31E
330
20
100
AcDbEntity
  8
17
  6
Continuous
100
AcDbLine
 10
2243.628823652272
 20
869.0372847815662
 30
0.0
 11
2244.784628851991
 21
869.5783779863347
 31
0.0
  0
LINE
  5
31F
330
20
100
AcDbEntity
  8
17
  6
Continuous
100
AcDbLine
 10
2244.784628851991
 20
869.5783779863347
 30
0.0
 11
2245.937955451659
 21
870.1267267737883
 31
0.0
  0
LINE
  5
320
330
20
100
AcDbEntity
  8
17
  6
Continuous
100
AcDbLine
 10
2245.937955451659
 20
870.1267267737883
 30
0.0
 11
2247.089157536997
 21
870.6812946321146
 31
0.0
  0
LINE
  5
321
330
20
100
AcDbEntity
  8
17
  6
Continuous
100
AcDbLine
 10
2247.089157536997
 20
870.6812946321146
 30
0.0
 11
2248.238589193727
 21
871.2410450495017
 31
0.0
  0
LINE
  5
322
330
20
100
AcDbEntity
  8
17
  6
Continuous
100
AcDbLine
 10
2248.238589193727
 20
871.2410450495017
 30
0.0
 11
2249.386604507572
 21
871.8049415141377
 31
0.0
  0
LINE
  5
323
330
20
100
AcDbEntity
  8
17
  6
Continuous
100
AcDbLine
 10
2249.386604507572
 20
871.8049415141377
 30
0.0
 11
2250.533557564251
 21
872.3719475142102
 31
0.0
  0
LINE
  5
324
330
20
100
AcDbEntity
  8
17
  6
Continuous
100
AcDbLine
 10
2250.533557564251
 20
872.3719475142102
 30
0.0
 11
2251.679802449488
 21
872.9410265379073
 31
0.0
  0
LINE
  5
325
330
20
100
AcDbEntity
  8
17
  6
Continuous
100
AcDbLine
 10
2251.679802449488
 20
872.9410265379073
 30
0.0
 11
2252.825693249003
 21
873.5111420734158
 31
0.0
  0
LINE
  5
326
330
20
100
AcDbEntity
  8
17
  6
Continuous
100
AcDbLine
 10
1616.234666463287
 20
1085.680517073416
 30
0.0
 11
1691.234666463287
 21
1085.680517073416
 31
0.0
  0
LINE
  5
327
330
20
100
AcDbEntity
  8
17
  6
Continuous
100
AcDbLine
 10
1616.234666463287
 20
1085.680517073416
 30
0.0
 11
1635.553182989069
 21
1090.856897975466
 31
0.0
  0
LINE
  5
328
330
20
100
AcDbEntity
  8
17
  6
Continuous
100
AcDbLine
 10
1616.234666463287
 20
1085.680517073416
 30
0.0
 11
1635.553182989069
 21
1080.504136171366
 31
0.0
  0
LINE
  5
329
330
20
100
AcDbEntity
  8
17
  6
Continuous
100
AcDbLine
 10
1691.234666463287
 20
1085.680517073416
 30
0.0
 11
1671.916149937506
 21
1080.504136171366
 31
0.0
  0
LINE
  5
32A
330
20
100
AcDbEntity
  8
17
  6
Continuous
100
AcDbLine
 10
1691.234666463287
 20
1085.680517073416
 30
0.0
 11
1671.916149937506
 21
1090.856897975466
 31
0.0
  0
LINE
  5
32B
330
20
100
AcDbEntity
  8
17
  6
Continuous
100
AcDbLine
 10
1616.234666463287
 20
1039.872302787702
 30
0.0
 11
1616.234666463287
 21
1090.680517073415
 31
0.0
  0
LINE
  5
32C
330
20
100
AcDbEntity
  8
17
  6
Continuous
100
AcDbLine
 10
1691.234666463287
 20
1024.872302787702
 30
0.0
 11
1691.234666463287
 21
1090.680517073415
 31
0.0
  0
TEXT
  5
32D
330
20
100
AcDbEntity
  8
17
100
AcDbText
 10
1623.734625308154
 20
1090.680469286372
 30
0.0
 40
20.0
  1
15%%p1_
 50
0.00000001
 41
0.75
 51
15.0
 72
     1
 11
1653.734625308154
 21
1090.680469291608
 31
0.0
100
AcDbText
  0
LINE
  5
32E
330
20
100
AcDbEntity
  8
17
  6
Continuous
100
AcDbLine
 10
1691.234666463287
 20
1085.680517073416
 30
0.0
 11
1731.234666463288
 21
1085.680517073416
 31
0.0
  0
LINE
  5
32F
330
20
100
AcDbEntity
  8
17
  6
Continuous
100
AcDbLine
 10
1691.234666463287
 20
1085.680517073416
 30
0.0
 11
1710.553182989069
 21
1090.856897975466
 31
0.0
  0
LINE
  5
330
330
20
100
AcDbEntity
  8
17
  6
Continuous
100
AcDbLine
 10
1691.234666463287
 20
1085.680517073416
 30
0.0
 11
1710.553182989069
 21
1080.504136171366
 31
0.0
  0
LINE
  5
331
330
20
100
AcDbEntity
  8
17
  6
Continuous
100
AcDbLine
 10
1731.234666463288
 20
1085.680517073416
 30
0.0
 11
1711.916149937507
 21
1080.504136171366
 31
0.0
  0
LINE
  5
332
330
20
100
AcDbEntity
  8
17
  6
Continuous
100
AcDbLine
 10
1731.234666463288
 20
1085.680517073416
 30
0.0
 11
1711.916149937507
 21
1090.856897975466
 31
0.0
  0
LINE
  5
333
330
20
100
AcDbEntity
  8
17
  6
Continuous
100
AcDbLine
 10
1731.234666463288
 20
949.8723027877018
 30
0.0
 11
1731.234666463288
 21
1090.680517073415
 31
0.0
  0
TEXT
  5
334
330
20
100
AcDbEntity
  8
17
100
AcDbText
 10
1706.234625308154
 20
1090.680469290735
 30
0.0
 40
20.0
  1
8
 50
0.00000001
 41
0.75
 51
15.0
 72
     1
 11
1711.234625308154
 21
1090.680469291608
 31
0.0
100
AcDbText
  0
LINE
  5
335
330
20
100
AcDbEntity
  8
17
  6
Continuous
100
AcDbLine
 10
1867.765648606145
 20
1085.680517073416
 30
0.0
 11
1942.765648606145
 21
1085.680517073416
 31
0.0
  0
LINE
  5
336
330
20
100
AcDbEntity
  8
17
  6
Continuous
100
AcDbLine
 10
1867.765648606145
 20
1085.680517073416
 30
0.0
 11
1887.084165131927
 21
1090.856897975466
 31
0.0
  0
LINE
  5
337
330
20
100
AcDbEntity
  8
17
  6
Continuous
100
AcDbLine
 10
1867.765648606145
 20
1085.680517073416
 30
0.0
 11
1887.084165131927
 21
1080.504136171366
 31
0.0
  0
LINE
  5
338
330
20
100
AcDbEntity
  8
17
  6
Continuous
100
AcDbLine
 10
1942.765648606145
 20
1085.680517073416
 30
0.0
 11
1923.447132080363
 21
1080.504136171366
 31
0.0
  0
LINE
  5
339
330
20
100
AcDbEntity
  8
17
  6
Continuous
100
AcDbLine
 10
1942.765648606145
 20
1085.680517073416
 30
0.0
 11
1923.447132080363
 21
1090.856897975466
 31
0.0
  0
LINE
  5
33A
330
20
100
AcDbEntity
  8
17
  6
Continuous
100
AcDbLine
 10
1867.765648606145
 20
1039.872302787702
 30
0.0
 11
1867.765648606145
 21
1090.680517073415
 31
0.0
  0
LINE
  5
33B
330
20
100
AcDbEntity
  8
17
  6
Continuous
100
AcDbLine
 10
1942.765648606145
 20
1024.872302787702
 30
0.0
 11
1942.765648606145
 21
1090.680517073415
 31
0.0
  0
TEXT
  5
33C
330
20
100
AcDbEntity
  8
17
100
AcDbText
 10
1875.265753237842
 20
1090.680469286372
 30
0.0
 40
20.0
  1
15%%p1_
 50
0.00000001
 41
0.75
 51
15.0
 72
     1
 11
1905.265753237841
 21
1090.680469291608
 31
0.0
100
AcDbText
  0
LINE
  5
33D
330
20
100
AcDbEntity
  8
17
  6
Continuous
100
AcDbLine
 10
1942.765648606145
 20
1085.680517073416
 30
0.0
 11
1982.765648606145
 21
1085.680517073416
 31
0.0
  0
LINE
  5
33E
330
20
100
AcDbEntity
  8
17
  6
Continuous
100
AcDbLine
 10
1942.765648606145
 20
1085.680517073416
 30
0.0
 11
1962.084165131926
 21
1090.856897975466
 31
0.0
  0
LINE
  5
33F
330
20
100
AcDbEntity
  8
17
  6
Continuous
100
AcDbLine
 10
1942.765648606145
 20
1085.680517073416
 30
0.0
 11
1962.084165131926
 21
1080.504136171366
 31
0.0
  0
LINE
  5
340
330
20
100
AcDbEntity
  8
17
  6
Continuous
100
AcDbLine
 10
1982.765648606145
 20
1085.680517073416
 30
0.0
 11
1963.447132080364
 21
1080.504136171366
 31
0.0
  0
LINE
  5
341
330
20
100
AcDbEntity
  8
17
  6
Continuous
100
AcDbLine
 10
1982.765648606145
 20
1085.680517073416
 30
0.0
 11
1963.447132080364
 21
1090.856897975466
 31
0.0
  0
LINE
  5
342
330
20
100
AcDbEntity
  8
17
  6
Continuous
100
AcDbLine
 10
1982.765648606145
 20
949.8723027877018
 30
0.0
 11
1982.765648606145
 21
1090.680517073415
 31
0.0
  0
TEXT
  5
343
330
20
100
AcDbEntity
  8
17
100
AcDbText
 10
1957.765753237842
 20
1090.680469290735
 30
0.0
 40
20.0
  1
8
 50
0.00000001
 41
0.75
 51
15.0
 72
     1
 11
1962.765753237842
 21
1090.680469291608
 31
0.0
100
AcDbText
  0
LINE
  5
344
330
20
100
AcDbEntity
  8
17
  6
Continuous
100
AcDbLine
 10
2088.747791463288
 20
1085.680517073416
 30
0.0
 11
2163.747791463288
 21
1085.680517073416
 31
0.0
  0
LINE
  5
345
330
20
100
AcDbEntity
  8
17
  6
Continuous
100
AcDbLine
 10
2088.747791463288
 20
1085.680517073416
 30
0.0
 11
2108.06630798907
 21
1090.856897975466
 31
0.0
  0
LINE
  5
346
330
20
100
AcDbEntity
  8
17
  6
Continuous
100
AcDbLine
 10
2088.747791463288
 20
1085.680517073416
 30
0.0
 11
2108.06630798907
 21
1080.504136171366
 31
0.0
  0
LINE
  5
347
330
20
100
AcDbEntity
  8
17
  6
Continuous
100
AcDbLine
 10
2163.747791463288
 20
1085.680517073416
 30
0.0
 11
2144.429274937506
 21
1080.504136171366
 31
0.0
  0
LINE
  5
348
330
20
100
AcDbEntity
  8
17
  6
Continuous
100
AcDbLine
 10
2163.747791463288
 20
1085.680517073416
 30
0.0
 11
2144.429274937506
 21
1090.856897975466
 31
0.0
  0
LINE
  5
349
330
20
100
AcDbEntity
  8
17
  6
Continuous
100
AcDbLine
 10
2088.747791463288
 20
1034.872302787702
 30
0.0
 11
2088.747791463288
 21
1090.680517073415
 31
0.0
  0
LINE
  5
34A
330
20
100
AcDbEntity
  8
17
  6
Continuous
100
AcDbLine
 10
2163.747791463288
 20
1024.872302787702
 30
0.0
 11
2163.747791463288
 21
1090.680517073415
 31
0.0
  0
TEXT
  5
34B
330
20
100
AcDbEntity
  8
17
100
AcDbText
 10
2096.247686831592
 20
1090.680469286372
 30
0.0
 40
20.0
  1
15%%p1_
 50
0.00000001
 41
0.75
 51
15.0
 72
     1
 11
2126.247686831592
 21
1090.680469291608
 31
0.0
100
AcDbText
  0
LINE
  5
34C
330
20
100
AcDbEntity
  8
17
  6
Continuous
100
AcDbLine
 10
2163.747791463288
 20
1085.680517073416
 30
0.0
 11
2203.747791463289
 21
1085.680517073416
 31
0.0
  0
LINE
  5
34D
330
20
100
AcDbEntity
  8
17
  6
Continuous
100
AcDbLine
 10
2163.747791463288
 20
1085.680517073416
 30
0.0
 11
2183.06630798907
 21
1090.856897975466
 31
0.0
  0
LINE
  5
34E
330
20
100
AcDbEntity
  8
17
  6
Continuous
100
AcDbLine
 10
2163.747791463288
 20
1085.680517073416
 30
0.0
 11
2183.06630798907
 21
1080.504136171366
 31
0.0
  0
LINE
  5
34F
330
20
100
AcDbEntity
  8
17
  6
Continuous
100
AcDbLine
 10
2203.747791463289
 20
1085.680517073416
 30
0.0
 11
2184.429274937507
 21
1080.504136171366
 31
0.0
  0
LINE
  5
350
330
20
100
AcDbEntity
  8
17
  6
Continuous
100
AcDbLine
 10
2203.747791463289
 20
1085.680517073416
 30
0.0
 11
2184.429274937507
 21
1090.856897975466
 31
0.0
  0
LINE
  5
351
330
20
100
AcDbEntity
  8
17
  6
Continuous
100
AcDbLine
 10
2203.747791463289
 20
951.9572765664097
 30
0.0
 11
2203.747791463289
 21
1090.680517073415
 31
0.0
  0
TEXT
  5
352
330
20
100
AcDbEntity
  8
17
100
AcDbText
 10
2178.747686831592
 20
1090.680469290735
 30
0.0
 40
20.0
  1
8
 50
0.00000001
 41
0.75
 51
15.0
 72
     1
 11
2183.747686831592
 21
1090.680469291608
 31
0.0
100
AcDbText
  0
LINE
  5
353
330
20
100
AcDbEntity
  8
17
  6
Continuous
100
AcDbLine
 10
1686.476369460221
 20
1030.831660420456
 30
0.0
 11
1660.673208547523
 21
1003.22042539612
 31
0.0
  0
LINE
  5
354
330
20
100
AcDbEntity
  8
17
  6
Continuous
100
AcDbLine
 10
1686.476369460221
 20
1030.831660420456
 30
0.0
 11
1677.068056190256
 21
1013.182761264582
 31
0.0
  0
LINE
  5
355
330
20
100
AcDbEntity
  8
17
  6
Continuous
100
AcDbLine
 10
1686.476369460221
 20
1030.831660420456
 30
0.0
 11
1669.504081583732
 21
1020.251422037621
 31
0.0
  0
TEXT
  5
356
330
20
100
AcDbEntity
  8
17
100
AcDbText
 10
1644.54606396537
 20
993.1184112455211
 30
0.0
 40
20.0
  1
R3
 50
46.93871688842801
 41
0.75
 51
15.0
 72
     1
 11
1653.080816714404
 21
1002.251209037702
 31
0.0
100
AcDbText
  0
LINE
  5
357
330
20
100
AcDbEntity
  8
17
  6
Continuous
100
AcDbLine
 10
1694.562649536886
 20
965.4508368258788
 30
0.0
 11
1718.018364645686
 21
984.3839160786952
 31
0.0
  0
LINE
  5
358
330
20
100
AcDbEntity
  8
17
  6
Continuous
100
AcDbLine
 10
1694.562649536886
 20
965.4508368258788
 30
0.0
 11
1706.343779897405
 21
981.6126735849987
 31
0.0
  0
LINE
  5
359
330
20
100
AcDbEntity
  8
17
  6
Continuous
100
AcDbLine
 10
1694.562649536886
 20
965.4508368258788
 30
0.0
 11
1712.846326093952
 21
973.5568328508342
 31
0.0
  0
TEXT
  5
35A
330
20
100
AcDbEntity
  8
17
100
AcDbText
 10
1705.384043214511
 20
983.7386103932985
 30
0.0
 40
20.0
  1
R3
 50
38.909915924072
 41
0.75
 51
15.0
 72
     1
 11
1715.110723940966
 21
991.5898320845768
 31
0.0
100
AcDbText
  0
LINE
  5
35B
330
20
100
AcDbEntity
  8
17
  6
Continuous
100
AcDbLine
 10
1727.158366505863
 20
955.1520293103207
 30
0.0
 11
1694.757152910992
 21
924.6609307395013
 31
0.0
  0
LINE
  5
35C
330
20
100
AcDbEntity
  8
17
  6
Continuous
100
AcDbLine
 10
1727.158366505863
 20
955.1520293103207
 30
0.0
 11
1716.637173189517
 21
938.1430760444647
 31
0.0
  0
LINE
  5
35D
330
20
100
AcDbEntity
  8
17
  6
Continuous
100
AcDbLine
 10
1727.158366505863
 20
955.1520293103207
 30
0.0
 11
1709.542269182852
 21
945.6824403484802
 31
0.0
  0
TEXT
  5
35E
330
20
100
AcDbEntity
  8
17
100
AcDbText
 10
1680.807933826976
 20
919.0550397402496
 30
0.0
 40
20.0
  1
R3
 50
43.26039505004899
 41
0.75
 51
15.0
 72
     1
 11
1689.911016909716
 21
927.6214788130921
 31
0.0
100
AcDbText
  0
LINE
  5
35F
330
20
100
AcDbEntity
  8
17
  6
Continuous
100
AcDbLine
 10
1792.648085627828
 20
959.8723027877017
 30
0.0
 11
1792.648085627828
 21
1034.872302787702
 31
0.0
  0
LINE
  5
360
330
20
100
AcDbEntity
  8
17
  6
Continuous
100
AcDbLine
 10
1792.648085627828
 20
959.8723027877017
 30
0.0
 11
1787.471704725778
 21
979.1908193134831
 31
0.0
  0
LINE
  5
361
330
20
100
AcDbEntity
  8
17
  6
Continuous
100
AcDbLine
 10
1792.648085627828
 20
959.8723027877017
 30
0.0
 11
1797.824466529879
 21
979.1908193134831
 31
0.0
  0
LINE
  5
362
330
20
100
AcDbEntity
  8
17
  6
Continuous
100
AcDbLine
 10
1792.648085627828
 20
1034.872302787702
 30
0.0
 11
1797.824466529879
 21
1015.55378626192
 31
0.0
  0
LINE
  5
363
330
20
100
AcDbEntity
  8
17
  6
Continuous
100
AcDbLine
 10
1792.648085627828
 20
1034.872302787702
 30
0.0
 11
1787.471704725778
 21
1015.55378626192
 31
0.0
  0
TEXT
  5
364
330
20
100
AcDbEntity
  8
17
100
AcDbText
 10
1787.648077456591
 20
967.3723027877016
 30
0.0
 40
20.0
  1
15%%p1_
 50
90.0
 41
0.75
 51
15.0
 72
     1
 11
1787.648077456591
 21
997.3723027877017
 31
0.0
100
AcDbText
  0
LINE
  5
365
330
20
100
AcDbEntity
  8
17
  6
Continuous
100
AcDbLine
 10
1938.15841983425
 20
1030.688508508761
 30
0.0
 11
1901.058233839582
 21
992.0767431575997
 31
0.0
  0
LINE
  5
366
330
20
100
AcDbEntity
  8
17
  6
Continuous
100
AcDbLine
 10
1938.15841983425
 20
1030.688508508761
 30
0.0
 11
1928.506145034805
 21
1013.171842410556
 31
0.0
  0
LINE
  5
367
330
20
100
AcDbEntity
  8
17
  6
Continuous
100
AcDbLine
 10
1938.15841983425
 20
1030.688508508761
 30
0.0
 11
1921.04097160452
 21
1020.344768077828
 31
0.0
  0
TEXT
  5
368
330
20
100
AcDbEntity
  8
17
100
AcDbText
 10
1896.048591730009
 20
992.8110687807247
 30
0.0
 40
20.0
  1
R3
 50
46.143749237061
 41
0.75
 51
15.0
 72
     1
 11
1904.709234683154
 21
1001.824573295514
 31
0.0
100
AcDbText
  0
LINE
  5
369
330
20
100
AcDbEntity
  8
17
  6
Continuous
100
AcDbLine
 10
1947.114225931834
 20
964.3107122345147
 30
0.0
 11
1977.077072394411
 21
994.0208576133997
 31
0.0
  0
LINE
  5
36A
330
20
100
AcDbEntity
  8
17
  6
Continuous
100
AcDbLine
 10
1947.114225931834
 20
964.3107122345147
 30
0.0
 11
1957.187483886632
 21
981.5887177379313
 31
0.0
  0
LINE
  5
36B
330
20
100
AcDbEntity
  8
17
  6
Continuous
100
AcDbLine
 10
1947.114225931834
 20
964.3107122345147
 30
0.0
 11
1964.476925971271
 21
974.2372749498017
 31
0.0
  0
TEXT
  5
36C
330
20
100
AcDbEntity
  8
17
100
AcDbText
 10
1956.971354613045
 20
981.1699154887046
 30
0.0
 40
20.0
  1
R3
 50
44.75736618042
 41
0.75
 51
15.0
 72
     1
 11
1965.847540347217
 21
989.9712407759832
 31
0.0
100
AcDbText
  0
LINE
  5
36D
330
20
100
AcDbEntity
  8
17
  6
Continuous
100
AcDbLine
 10
1979.113470948433
 20
954.6818352988807
 30
0.0
 11
1938.865576858696
 21
919.8898713721558
 31
0.0
  0
LINE
  5
36E
330
20
100
AcDbEntity
  8
17
  6
Continuous
100
AcDbLine
 10
1979.113470948433
 20
954.6818352988807
 30
0.0
 11
1967.883789834952
 21
938.1320841802223
 31
0.0
  0
LINE
  5
36F
330
20
100
AcDbEntity
  8
17
  6
Continuous
100
AcDbLine
 10
1979.113470948433
 20
954.6818352988807
 30
0.0
 11
1961.113406268431
 21
945.9641709605527
 31
0.0
  0
TEXT
  5
370
330
20
100
AcDbEntity
  8
17
100
AcDbText
 10
1933.932037252768
 20
920.6582332498987
 30
0.0
 40
20.0
  1
R3
 50
40.841506958008
 41
0.75
 51
15.0
 72
     1
 11
1943.388555972217
 21
928.8328435591862
 31
0.0
100
AcDbText
  0
LINE
  5
371
330
20
100
AcDbEntity
  8
17
  6
Continuous
100
AcDbLine
 10
2036.967742948346
 20
959.8723027877017
 30
0.0
 11
2036.967742948346
 21
1034.872302787702
 31
0.0
  0
LINE
  5
372
330
20
100
AcDbEntity
  8
17
  6
Continuous
100
AcDbLine
 10
2036.967742948346
 20
959.8723027877017
 30
0.0
 11
2031.791362046297
 21
979.1908193134831
 31
0.0
  0
LINE
  5
373
330
20
100
AcDbEntity
  8
17
  6
Continuous
100
AcDbLine
 10
2036.967742948346
 20
959.8723027877017
 30
0.0
 11
2042.144123850397
 21
979.1908193134831
 31
0.0
  0
LINE
  5
374
330
20
100
AcDbEntity
  8
17
  6
Continuous
100
AcDbLine
 10
2036.967742948346
 20
1034.872302787702
 30
0.0
 11
2042.144123850397
 21
1015.55378626192
 31
0.0
  0
LINE
  5
375
330
20
100
AcDbEntity
  8
17
  6
Continuous
100
AcDbLine
 10
2036.967742948346
 20
1034.872302787702
 30
0.0
 11
2031.791362046297
 21
1015.55378626192
 31
0.0
  0
TEXT
  5
376
330
20
100
AcDbEntity
  8
17
100
AcDbText
 10
2031.967779605029
 20
967.3723027877016
 30
0.0
 40
20.0
  1
15%%p1_
 50
90.0
 41
0.75
 51
15.0
 72
     1
 11
2031.967779605029
 21
997.3723027877017
 31
0.0
100
AcDbText
  0
LINE
  5
377
330
20
100
AcDbEntity
  8
17
  6
Continuous
100
AcDbLine
 10
2159.904271843939
 20
1029.898914653939
 30
0.0
 11
2127.168392020754
 21
1000.478349216822
 31
0.0
  0
LINE
  5
378
330
20
100
AcDbEntity
  8
17
  6
Continuous
100
AcDbLine
 10
2159.904271843939
 20
1029.898914653939
 30
0.0
 11
2148.995932615506
 21
1013.135617386472
 31
0.0
  0
LINE
  5
379
330
20
100
AcDbEntity
  8
17
  6
Continuous
100
AcDbLine
 10
2159.904271843939
 20
1029.898914653939
 30
0.0
 11
2142.075724325284
 21
1020.835642983339
 31
0.0
  0
TEXT
  5
37A
330
20
100
AcDbEntity
  8
17
100
AcDbText
 10
2113.303403094631
 20
993.3863607215412
 30
0.0
 40
20.0
  1
R3
 50
41.94683837890599
 41
0.75
 51
15.0
 72
     1
 11
2122.600470034717
 21
1001.741870658795
 31
0.0
100
AcDbText
  0
LINE
  5
37B
330
20
100
AcDbEntity
  8
17
  6
Continuous
100
AcDbLine
 10
2200.510478973167
 20
956.2652936777467
 30
0.0
 11
2170.237125792165
 21
932.3094681753131
 31
0.0
  0
LINE
  5
37C
330
20
100
AcDbEntity
  8
17
  6
Continuous
100
AcDbLine
 10
2200.510478973167
 20
956.2652936777467
 30
0.0
 11
2188.573423570759
 21
940.2182781197106
 31
0.0
  0
LINE
  5
37D
330
20
100
AcDbEntity
  8
17
  6
Continuous
100
AcDbLine
 10
2200.510478973167
 20
956.2652936777467
 30
0.0
 11
2182.149177969282
 21
948.3366982507671
 31
0.0
  0
TEXT
  5
37E
330
20
100
AcDbEntity
  8
17
100
AcDbText
 10
2157.824597617449
 20
928.7295439974116
 30
0.0
 40
20.0
  1
R3
 50
38.355175018311
 41
0.75
 51
15.0
 72
     1
 11
2167.626837222217
 21
936.4862249068421
 31
0.0
100
AcDbText
  0
LINE
  5
37F
330
20
100
AcDbEntity
  8
17
  6
Continuous
100
AcDbLine
 10
2173.417517155188
 20
973.7940654930641
 30
0.0
 11
2203.747791463289
 21
999.8723027877018
 31
0.0
  0
LINE
  5
380
330
20
100
AcDbEntity
  8
17
  6
Continuous
100
AcDbLine
 10
2173.417517155188
 20
973.7940654930641
 30
0.0
 11
2184.691142554224
 21
990.3139132636168
 31
0.0
  0
LINE
  5
381
330
20
100
AcDbEntity
  8
17
  6
Continuous
100
AcDbLine
 10
2173.417517155188
 20
973.7940654930641
 30
0.0
 11
2191.440687028778
 21
982.4638606294966
 31
0.0
  0
TEXT
  5
382
330
20
100
AcDbEntity
  8
17
100
AcDbText
 10
2179.030462188328
 20
988.3719628107341
 30
0.0
 40
20.0
  1
R9
 50
40.689231872559
 41
0.75
 51
15.0
 72
     1
 11
2188.508673159716
 21
996.5214116744206
 31
0.0
100
AcDbText
  0
LINE
  5
383
330
20
100
AcDbEntity
  8
17
  6
Continuous
100
AcDbLine
 10
2258.332263051868
 20
959.8723027877017
 30
0.0
 11
2258.332263051868
 21
1034.872302787702
 31
0.0
  0
LINE
  5
384
330
20
100
AcDbEntity
  8
17
  6
Continuous
100
AcDbLine
 10
2258.332263051868
 20
959.8723027877017
 30
0.0
 11
2253.155882149818
 21
979.1908193134831
 31
0.0
  0
LINE
  5
385
330
20
100
AcDbEntity
  8
17
  6
Continuous
100
AcDbLine
 10
2258.332263051868
 20
959.8723027877017
 30
0.0
 11
2263.508643953919
 21
979.1908193134831
 31
0.0
  0
LINE
  5
386
330
20
100
AcDbEntity
  8
17
  6
Continuous
100
AcDbLine
 10
2258.332263051868
 20
1034.872302787702
 30
0.0
 11
2263.508643953919
 21
1015.55378626192
 31
0.0
  0
LINE
  5
387
330
20
100
AcDbEntity
  8
17
  6
Continuous
100
AcDbLine
 10
2258.332263051868
 20
1034.872302787702
 30
0.0
 11
2253.155882149818
 21
1015.55378626192
 31
0.0
  0
TEXT
  5
388
330
20
100
AcDbEntity
  8
17
100
AcDbText
 10
2253.332281558154
 20
967.3723027877016
 30
0.0
 40
20.0
  1
15%%p1_
 50
90.0
 41
0.75
 51
15.0
 72
     1
 11
2253.332281558154
 21
997.3723027877017
 31
0.0
100
AcDbText
  0
LINE
  5
389
330
20
100
AcDbEntity
  8
17
  6
Continuous
100
AcDbLine
 10
2289.840202177574
 20
758.8125706448447
 30
0.0
 11
2116.042166463288
 21
758.8125706448447
 31
0.0
  0
LINE
  5
38A
330
20
100
AcDbEntity
  8
17
  6
Continuous
100
AcDbLine
 10
1800.408952177573
 20
758.8125706448447
 30
0.0
 11
1632.603952177573
 21
758.8125706448447
 31
0.0
  0
LINE
  5
38B
330
20
100
AcDbEntity
  8
17
  6
Continuous
100
AcDbLine
 10
2074.090916463288
 20
758.8125706448447
 30
0.0
 11
1892.302166463288
 21
758.8125706448447
 31
0.0
  0
LINE
  5
38C
330
20
100
AcDbEntity
  8
17
  6
Continuous
100
AcDbLine
 10
1619.167566106145
 20
758.8125706448447
 30
0.0
 11
1632.603952177573
 21
758.8125706448447
 31
0.0
  0
TEXT
  5
38D
330
20
100
AcDbEntity
  8
17
100
AcDbText
 10
1612.038198598629
 20
770.4805762938665
 30
0.0
 40
29.8057918548585
  1
A-A断面Ｓ＝１／2
 41
0.5964806401100001
  7
BIGFONT
 72
     1
 11
1708.635138003467
 21
785.3834722212957
 31
0.0
100
AcDbText
 73
     2
  0
TEXT
  5
38E
330
20
100
AcDbEntity
  8
17
100
AcDbText
 10
1888.486684926754
 20
768.49174572746
 30
0.0
 40
29.8057918548585
  1
B-B断面Ｓ＝１／2
 41
0.5964806401100001
  7
BIGFONT
 72
     1
 11
1985.083624331592
 21
783.3946416548892
 31
0.0
100
AcDbText
 73
     2
  0
TEXT
  5
38F
330
20
100
AcDbEntity
  8
17
100
AcDbText
 10
2111.236806997066
 20
768.49174572746
 30
0.0
 40
29.8057918548585
  1
C-C断面Ｓ＝１／2
 41
0.5964806401100001
  7
BIGFONT
 72
     1
 11
2207.833746401904
 21
783.3946416548892
 31
0.0
100
AcDbText
 73
     2
  0
LINE
  5
390
330
20
100
AcDbEntity
  8
33
  6
Continuous
100
AcDbLine
 10
1216.52362054492
 20
1615.541945644844
 30
0.0
 11
1230.237665833907
 21
1615.541945644844
 31
0.0
  0
LINE
  5
391
330
20
100
AcDbEntity
  8
33
  6
Continuous
100
AcDbLine
 10
1222.206018504104
 20
1444.438629318314
 30
0.0
 11
1234.380411905775
 21
1444.438629318314
 31
0.0
  0
LINE
  5
392
330
20
100
AcDbEntity
  8
33
  6
Continuous
100
AcDbLine
 10
1384.935291463287
 20
1791.939445644844
 30
0.0
 11
1535.935291463288
 21
1791.939445644844
 31
0.0
  0
LINE
  5
393
330
20
100
AcDbEntity
  8
33
  6
Continuous
100
AcDbLine
 10
1384.935291463287
 20
1791.939445644844
 30
0.0
 11
1404.253807989069
 21
1797.115826546894
 31
0.0
  0
LINE
  5
394
330
20
100
AcDbEntity
  8
33
  6
Continuous
100
AcDbLine
 10
1384.935291463287
 20
1791.939445644844
 30
0.0
 11
1404.253807989069
 21
1786.763064742794
 31
0.0
  0
LINE
  5
395
330
20
100
AcDbEntity
  8
33
  6
Continuous
100
AcDbLine
 10
1535.935291463288
 20
1791.939445644844
 30
0.0
 11
1516.616774937507
 21
1786.763064742794
 31
0.0
  0
LINE
  5
396
330
20
100
AcDbEntity
  8
33
  6
Continuous
100
AcDbLine
 10
1535.935291463288
 20
1791.939445644844
 30
0.0
 11
1516.616774937507
 21
1797.115826546894
 31
0.0
  0
LINE
  5
397
330
20
100
AcDbEntity
  8
33
  6
Continuous
100
AcDbLine
 10
1384.935291463287
 20
1650.452659930559
 30
0.0
 11
1384.935291463287
 21
1796.939445644844
 31
0.0
  0
LINE
  5
398
330
20
100
AcDbEntity
  8
33
  6
Continuous
100
AcDbLine
 10
1535.935291463288
 20
1635.452659930559
 30
0.0
 11
1535.935291463288
 21
1796.939445644844
 31
0.0
  0
TEXT
  5
399
330
20
100
AcDbEntity
  8
33
100
AcDbText
 10
1425.435308901904
 20
1796.939441453468
 30
0.0
 40
20.0
  1
151%%p1_
 50
0.00000001
 41
0.75
 51
15.0
 72
     1
 11
1460.435308901904
 21
1796.939441459577
 31
0.0
100
AcDbText
  0
LINE
  5
39A
330
20
100
AcDbEntity
  8
33
  6
DASHDOT
100
AcDbLine
 10
1466.818781578084
 20
1389.930099343824
 30
0.0
 11
1485.585648606145
 21
1373.628374216273
 31
0.0
  0
LINE
  5
39B
330
20
100
AcDbEntity
  8
33
  6
Continuous
100
AcDbLine
 10
1466.818781578084
 20
1389.930099343824
 30
0.0
 11
1503.293988848492
 21
1426.405306614232
 31
0.0
  0
LINE
  5
39C
330
20
100
AcDbEntity
  8
33
  6
Continuous
100
AcDbLine
 10
1503.293988848492
 20
1426.405306614232
 30
0.0
 11
1480.011941654615
 21
1413.988214777498
 31
0.0
  0
LINE
  5
39D
330
20
100
AcDbEntity
  8
33
  6
Continuous
100
AcDbLine
 10
1480.011941654615
 20
1413.988214777498
 30
0.0
 11
1495.533306450532
 21
1400.018986461171
 31
0.0
  0
LINE
  5
39E
330
20
100
AcDbEntity
  8
33
  6
Continuous
100
AcDbLine
 10
1527.935291463288
 20
1258.700695644845
 30
0.0
 11
1535.935291463288
 21
1258.700695644845
 31
0.0
  0
LINE
  5
39F
330
20
100
AcDbEntity
  8
33
  6
Continuous
100
AcDbLine
 10
1527.935291463288
 20
1415.452659930559
 30
0.0
 11
1527.935291463288
 21
1253.700695644845
 31
0.0
  0
LINE
  5
3A0
330
20
100
AcDbEntity
  8
33
  6
Continuous
100
AcDbLine
 10
1535.935291463288
 20
1415.452659930559
 30
0.0
 11
1535.935291463288
 21
1253.700695644845
 31
0.0
  0
LINE
  5
3A1
330
20
100
AcDbEntity
  8
33
  6
Continuous
100
AcDbLine
 10
1535.935291463288
 20
1258.700695644845
 30
0.0
 11
1560.935291463288
 21
1258.700695644845
 31
0.0
  0
LINE
  5
3A2
330
20
100
AcDbEntity
  8
33
  6
Continuous
100
AcDbLine
 10
1535.935291463288
 20
1258.700695644845
 30
0.0
 11
1555.25380798907
 21
1263.877076546895
 31
0.0
  0
LINE
  5
3A3
330
20
100
AcDbEntity
  8
33
  6
Continuous
100
AcDbLine
 10
1535.935291463288
 20
1258.700695644845
 30
0.0
 11
1555.25380798907
 21
1253.524314742794
 31
0.0
  0
TEXT
  5
3A4
330
20
100
AcDbEntity
  8
33
100
AcDbText
 10
1499.214727847216
 20
1264.299121634486
 30
0.0
 40
20.0
  1
8
 50
0.00000001
 41
0.75
 51
15.0
 72
     1
 11
1504.214727847216
 21
1264.299121635358
 31
0.0
100
AcDbText
  0
LINE
  5
3A5
330
20
100
AcDbEntity
  8
33
  6
Continuous
100
AcDbLine
 10
613.9352914632882
 20
1258.700695644845
 30
0.0
 11
1527.935291463288
 21
1258.700695644845
 31
0.0
  0
LINE
  5
3A6
330
20
100
AcDbEntity
  8
33
  6
Continuous
100
AcDbLine
 10
613.9352914632882
 20
1258.700695644845
 30
0.0
 11
633.2538079890696
 21
1263.877076546895
 31
0.0
  0
LINE
  5
3A7
330
20
100
AcDbEntity
  8
33
  6
Continuous
100
AcDbLine
 10
613.9352914632882
 20
1258.700695644845
 30
0.0
 11
633.2538079890696
 21
1253.524314742794
 31
0.0
  0
LINE
  5
3A8
330
20
100
AcDbEntity
  8
33
  6
Continuous
100
AcDbLine
 10
1527.935291463288
 20
1258.700695644845
 30
0.0
 11
1508.616774937507
 21
1253.524314742794
 31
0.0
  0
LINE
  5
3A9
330
20
100
AcDbEntity
  8
33
  6
Continuous
100
AcDbLine
 10
1527.935291463288
 20
1258.700695644845
 30
0.0
 11
1508.616774937507
 21
1263.877076546895
 31
0.0
  0
LINE
  5
3AA
330
20
100
AcDbEntity
  8
33
  6
Continuous
100
AcDbLine
 10
613.9352914632882
 20
1415.452659930559
 30
0.0
 11
613.9352914632882
 21
1253.700695644845
 31
0.0
  0
TEXT
  5
3AB
330
20
100
AcDbEntity
  8
33
100
AcDbText
 10
1042.43195196831
 20
1263.671191940877
 30
0.0
 40
20.0
  1
914%%p2_
 50
0.00000001
 41
0.75
 51
15.0
 72
     1
 11
1082.43195196831
 21
1263.671191947858
 31
0.0
100
AcDbText
  0
LINE
  5
3AC
330
20
100
AcDbEntity
  8
33
  6
Continuous
100
AcDbLine
 10
605.9352914632881
 20
1258.700695644845
 30
0.0
 11
613.9352914632882
 21
1258.700695644845
 31
0.0
  0
LINE
  5
3AD
330
20
100
AcDbEntity
  8
33
  6
Continuous
100
AcDbLine
 10
605.9352914632881
 20
1415.452659930559
 30
0.0
 11
605.9352914632881
 21
1253.700695644845
 31
0.0
  0
LINE
  5
3AE
330
20
100
AcDbEntity
  8
33
  6
Continuous
100
AcDbLine
 10
580.9352914632881
 20
1258.700695644845
 30
0.0
 11
605.9352914632881
 21
1258.700695644845
 31
0.0
  0
LINE
  5
3AF
330
20
100
AcDbEntity
  8
33
  6
Continuous
100
AcDbLine
 10
605.9352914632881
 20
1258.700695644845
 30
0.0
 11
586.6167749375066
 21
1253.524314742794
 31
0.0
  0
LINE
  5
3B0
330
20
100
AcDbEntity
  8
33
  6
Continuous
100
AcDbLine
 10
605.9352914632881
 20
1258.700695644845
 30
0.0
 11
586.6167749375066
 21
1263.877076546895
 31
0.0
  0
TEXT
  5
3B1
330
20
100
AcDbEntity
  8
33
100
AcDbText
 10
620.1333069487791
 20
1265.377734915736
 30
0.0
 40
20.0
  1
8
 50
0.00000001
 41
0.75
 51
15.0
 72
     1
 11
625.1333069487791
 21
1265.377734916608
 31
0.0
100
AcDbText
  0
LINE
  5
3B2
330
20
100
AcDbEntity
  8
33
  6
Continuous
100
AcDbLine
 10
1535.935291463288
 20
1216.325159930559
 30
0.0
 11
1550.935291463288
 21
1216.325159930559
 31
0.0
  0
LINE
  5
3B3
330
20
100
AcDbEntity
  8
33
  6
Continuous
100
AcDbLine
 10
1535.935291463288
 20
1415.452659930559
 30
0.0
 11
1535.935291463288
 21
1211.325159930559
 31
0.0
  0
LINE
  5
3B4
330
20
100
AcDbEntity
  8
33
  6
Continuous
100
AcDbLine
 10
1550.935291463288
 20
1415.452659930559
 30
0.0
 11
1550.935291463288
 21
1211.325159930559
 31
0.0
  0
LINE
  5
3B5
330
20
100
AcDbEntity
  8
33
  6
Continuous
100
AcDbLine
 10
1550.935291463288
 20
1216.325159930559
 30
0.0
 11
1590.935291463288
 21
1216.325159930559
 31
0.0
  0
LINE
  5
3B6
330
20
100
AcDbEntity
  8
33
  6
Continuous
100
AcDbLine
 10
1550.935291463288
 20
1216.325159930559
 30
0.0
 11
1570.253807989069
 21
1221.501540832609
 31
0.0
  0
LINE
  5
3B7
330
20
100
AcDbEntity
  8
33
  6
Continuous
100
AcDbLine
 10
1550.935291463288
 20
1216.325159930559
 30
0.0
 11
1570.253807989069
 21
1211.148779028509
 31
0.0
  0
TEXT
  5
3B8
330
20
100
AcDbEntity
  8
33
100
AcDbText
 10
1540.935308901904
 20
1221.325183641841
 30
0.0
 40
20.0
  1
15%%p1_
 50
0.00000001
 41
0.75
 51
15.0
 72
     1
 11
1570.935308901904
 21
1221.325183647077
 31
0.0
100
AcDbText
  0
LINE
  5
3B9
330
20
100
AcDbEntity
  8
33
  6
Continuous
100
AcDbLine
 10
605.9352914632881
 20
1216.325159930559
 30
0.0
 11
1535.935291463288
 21
1216.325159930559
 31
0.0
  0
LINE
  5
3BA
330
20
100
AcDbEntity
  8
33
  6
Continuous
100
AcDbLine
 10
605.9352914632881
 20
1216.325159930559
 30
0.0
 11
625.2538079890696
 21
1221.501540832609
 31
0.0
  0
LINE
  5
3BB
330
20
100
AcDbEntity
  8
33
  6
Continuous
100
AcDbLine
 10
605.9352914632881
 20
1216.325159930559
 30
0.0
 11
625.2538079890696
 21
1211.148779028509
 31
0.0
  0
LINE
  5
3BC
330
20
100
AcDbEntity
  8
33
  6
Continuous
100
AcDbLine
 10
1535.935291463288
 20
1216.325159930559
 30
0.0
 11
1516.616774937507
 21
1211.148779028509
 31
0.0
  0
LINE
  5
3BD
330
20
100
AcDbEntity
  8
33
  6
Continuous
100
AcDbLine
 10
1535.935291463288
 20
1216.325159930559
 30
0.0
 11
1516.616774937507
 21
1221.501540832609
 31
0.0
  0
LINE
  5
3BE
330
20
100
AcDbEntity
  8
33
  6
Continuous
100
AcDbLine
 10
605.9352914632881
 20
1415.452659930559
 30
0.0
 11
605.9352914632881
 21
1211.325159930559
 31
0.0
  0
TEXT
  5
3BF
330
20
100
AcDbEntity
  8
33
100
AcDbText
 10
1029.685308901904
 20
1221.325183639877
 30
0.0
 40
20.0
  1
930%%p2_
 50
0.00000001
 41
0.75
 51
15.0
 72
     1
 11
1070.935308901904
 21
1221.325183647077
 31
0.0
100
AcDbText
  0
LINE
  5
3C0
330
20
100
AcDbEntity
  8
33
  6
Continuous
100
AcDbLine
 10
590.9352914632882
 20
1216.325159930559
 30
0.0
 11
605.9352914632881
 21
1216.325159930559
 31
0.0
  0
LINE
  5
3C1
330
20
100
AcDbEntity
  8
33
  6
Continuous
100
AcDbLine
 10
590.9352914632882
 20
1415.452659930559
 30
0.0
 11
590.9352914632882
 21
1211.325159930559
 31
0.0
  0
LINE
  5
3C2
330
20
100
AcDbEntity
  8
33
  6
Continuous
100
AcDbLine
 10
550.9352914632882
 20
1216.325159930559
 30
0.0
 11
590.9352914632882
 21
1216.325159930559
 31
0.0
  0
LINE
  5
3C3
330
20
100
AcDbEntity
  8
33
  6
Continuous
100
AcDbLine
 10
590.9352914632882
 20
1216.325159930559
 30
0.0
 11
571.6167749375066
 21
1211.148779028509
 31
0.0
  0
LINE
  5
3C4
330
20
100
AcDbEntity
  8
33
  6
Continuous
100
AcDbLine
 10
590.9352914632882
 20
1216.325159930559
 30
0.0
 11
571.6167749375066
 21
1221.501540832609
 31
0.0
  0
TEXT
  5
3C5
330
20
100
AcDbEntity
  8
33
100
AcDbText
 10
527.7863831206541
 20
1222.23356987231
 30
0.0
 40
20.0
  1
15%%p1_
 50
0.00000001
 41
0.75
 51
15.0
 72
     1
 11
557.7863831206541
 21
1222.233569877546
 31
0.0
100
AcDbText
  0
LINE
  5
3C6
330
20
100
AcDbEntity
  8
33
  6
Continuous
100
AcDbLine
 10
590.9352914632882
 20
1168.964267073416
 30
0.0
 11
1550.935291463288
 21
1168.964267073416
 31
0.0
  0
LINE
  5
3C7
330
20
100
AcDbEntity
  8
33
  6
Continuous
100
AcDbLine
 10
590.9352914632882
 20
1168.964267073416
 30
0.0
 11
610.2538079890696
 21
1174.140647975467
 31
0.0
  0
LINE
  5
3C8
330
20
100
AcDbEntity
  8
33
  6
Continuous
100
AcDbLine
 10
590.9352914632882
 20
1168.964267073416
 30
0.0
 11
610.2538079890696
 21
1163.787886171365
 31
0.0
  0
LINE
  5
3C9
330
20
100
AcDbEntity
  8
33
  6
Continuous
100
AcDbLine
 10
1550.935291463288
 20
1168.964267073416
 30
0.0
 11
1531.616774937507
 21
1163.787886171365
 31
0.0
  0
LINE
  5
3CA
330
20
100
AcDbEntity
  8
33
  6
Continuous
100
AcDbLine
 10
1550.935291463288
 20
1168.964267073416
 30
0.0
 11
1531.616774937507
 21
1174.140647975467
 31
0.0
  0
LINE
  5
3CB
330
20
100
AcDbEntity
  8
33
  6
Continuous
100
AcDbLine
 10
590.9352914632882
 20
1415.452659930559
 30
0.0
 11
590.9352914632882
 21
1163.964267073416
 31
0.0
  0
LINE
  5
3CC
330
20
100
AcDbEntity
  8
33
  6
Continuous
100
AcDbLine
 10
1550.935291463288
 20
1415.452659930559
 30
0.0
 11
1550.935291463288
 21
1163.964267073416
 31
0.0
  0
TEXT
  5
3CD
330
20
100
AcDbEntity
  8
33
100
AcDbText
 10
1029.685308901904
 20
1173.964282760971
 30
0.0
 40
20.0
  1
960%%p2_
 50
0.00000001
 41
0.75
 51
15.0
 72
     1
 11
1070.935308901904
 21
1173.964282768171
 31
0.0
100
AcDbText
  0
LINE
  5
3CE
330
20
100
AcDbEntity
  8
33
  6
Continuous
100
AcDbLine
 10
544.034183363798
 20
1320.452659930559
 30
0.0
 11
544.034183363798
 21
1328.452659930559
 31
0.0
  0
LINE
  5
3CF
330
20
100
AcDbEntity
  8
33
  6
Continuous
100
AcDbLine
 10
700.9352914632881
 20
1320.452659930559
 30
0.0
 11
539.0341833637981
 21
1320.452659930559
 31
0.0
  0
LINE
  5
3D0
330
20
100
AcDbEntity
  8
33
  6
Continuous
100
AcDbLine
 10
700.9352914632881
 20
1328.452659930559
 30
0.0
 11
539.0341833637981
 21
1328.452659930559
 31
0.0
  0
LINE
  5
3D1
330
20
100
AcDbEntity
  8
33
  6
Continuous
100
AcDbLine
 10
544.034183363798
 20
1295.452659930559
 30
0.0
 11
544.034183363798
 21
1320.452659930559
 31
0.0
  0
LINE
  5
3D2
330
20
100
AcDbEntity
  8
33
  6
Continuous
100
AcDbLine
 10
544.034183363798
 20
1320.452659930559
 30
0.0
 11
549.2105642658486
 21
1301.134143404778
 31
0.0
  0
LINE
  5
3D3
330
20
100
AcDbEntity
  8
33
  6
Continuous
100
AcDbLine
 10
544.034183363798
 20
1320.452659930559
 30
0.0
 11
538.8578024617482
 21
1301.134143404778
 31
0.0
  0
TEXT
  5
3D4
330
20
100
AcDbEntity
  8
33
100
AcDbText
 10
536.9411072417481
 20
1325.134937065046
 30
0.0
 40
20.0
  1
8
 50
90.0
 41
0.75
 51
15.0
 72
     1
 11
536.9411072417481
 21
1330.134937065046
 31
0.0
100
AcDbText
  0
LINE
  5
3D5
330
20
100
AcDbEntity
  8
33
  6
Continuous
100
AcDbLine
 10
544.034183363798
 20
1328.452659930559
 30
0.0
 11
544.034183363798
 21
1722.452659930558
 31
0.0
  0
LINE
  5
3D6
330
20
100
AcDbEntity
  8
33
  6
Continuous
100
AcDbLine
 10
544.034183363798
 20
1328.452659930559
 30
0.0
 11
538.8578024617482
 21
1347.77117645634
 31
0.0
  0
LINE
  5
3D7
330
20
100
AcDbEntity
  8
33
  6
Continuous
100
AcDbLine
 10
544.034183363798
 20
1328.452659930559
 30
0.0
 11
549.2105642658486
 21
1347.77117645634
 31
0.0
  0
LINE
  5
3D8
330
20
100
AcDbEntity
  8
33
  6
Continuous
100
AcDbLine
 10
544.034183363798
 20
1722.452659930558
 30
0.0
 11
549.2105642658486
 21
1703.134143404777
 31
0.0
  0
LINE
  5
3D9
330
20
100
AcDbEntity
  8
33
  6
Continuous
100
AcDbLine
 10
544.034183363798
 20
1722.452659930558
 30
0.0
 11
538.8578024617482
 21
1703.134143404777
 31
0.0
  0
LINE
  5
3DA
330
20
100
AcDbEntity
  8
33
  6
Continuous
100
AcDbLine
 10
700.9352914632881
 20
1722.452659930558
 30
0.0
 11
539.0341833637981
 21
1722.452659930558
 31
0.0
  0
TEXT
  5
3DB
330
20
100
AcDbEntity
  8
33
100
AcDbText
 10
539.0341858550291
 20
1482.952625053327
 30
0.0
 40
20.0
  1
394%%p2_
 50
90.0
 41
0.75
 51
15.0
 72
     1
 11
539.0341858550291
 21
1525.452625053327
 31
0.0
100
AcDbText
  0
LINE
  5
3DC
330
20
100
AcDbEntity
  8
33
  6
Continuous
100
AcDbLine
 10
544.034183363798
 20
1722.452659930558
 30
0.0
 11
544.034183363798
 21
1730.452659930559
 31
0.0
  0
LINE
  5
3DD
330
20
100
AcDbEntity
  8
33
  6
Continuous
100
AcDbLine
 10
700.9352914632881
 20
1730.452659930559
 30
0.0
 11
539.0341833637981
 21
1730.452659930559
 31
0.0
  0
LINE
  5
3DE
330
20
100
AcDbEntity
  8
33
  6
Continuous
100
AcDbLine
 10
544.034183363798
 20
1730.452659930559
 30
0.0
 11
544.034183363798
 21
1755.452659930559
 31
0.0
  0
LINE
  5
3DF
330
20
100
AcDbEntity
  8
33
  6
Continuous
100
AcDbLine
 10
544.034183363798
 20
1730.452659930559
 30
0.0
 11
538.8578024617482
 21
1749.77117645634
 31
0.0
  0
LINE
  5
3E0
330
20
100
AcDbEntity
  8
33
  6
Continuous
100
AcDbLine
 10
544.034183363798
 20
1730.452659930559
 30
0.0
 11
549.2105642658486
 21
1749.77117645634
 31
0.0
  0
TEXT
  5
3E1
330
20
100
AcDbEntity
  8
33
100
AcDbText
 10
536.9245972319821
 20
1711.812732475201
 30
0.0
 40
20.0
  1
8
 50
90.0
 41
0.75
 51
15.0
 72
     1
 11
536.9245972319821
 21
1716.812732475202
 31
0.0
100
AcDbText
  0
LINE
  5
3E2
330
20
100
AcDbEntity
  8
33
  6
Continuous
100
AcDbLine
 10
498.3250794097166
 20
1305.452659930559
 30
0.0
 11
498.3250794097166
 21
1320.452659930559
 31
0.0
  0
LINE
  5
3E3
330
20
100
AcDbEntity
  8
33
  6
Continuous
100
AcDbLine
 10
700.9352914632881
 20
1305.452659930559
 30
0.0
 11
493.3250794097166
 21
1305.452659930559
 31
0.0
  0
LINE
  5
3E4
330
20
100
AcDbEntity
  8
33
  6
Continuous
100
AcDbLine
 10
700.9352914632881
 20
1320.452659930559
 30
0.0
 11
493.3250794097166
 21
1320.452659930559
 31
0.0
  0
LINE
  5
3E5
330
20
100
AcDbEntity
  8
33
  6
Continuous
100
AcDbLine
 10
498.3250794097166
 20
1265.452659930559
 30
0.0
 11
498.3250794097166
 21
1305.452659930559
 31
0.0
  0
LINE
  5
3E6
330
20
100
AcDbEntity
  8
33
  6
Continuous
100
AcDbLine
 10
498.3250794097166
 20
1305.452659930559
 30
0.0
 11
503.5014603117671
 21
1286.134143404777
 31
0.0
  0
LINE
  5
3E7
330
20
100
AcDbEntity
  8
33
  6
Continuous
100
AcDbLine
 10
498.3250794097166
 20
1305.452659930559
 30
0.0
 11
493.1486985076661
 21
1286.134143404777
 31
0.0
  0
TEXT
  5
3E8
330
20
100
AcDbEntity
  8
33
100
AcDbText
 10
492.3747315093261
 20
1247.079700248639
 30
0.0
 40
20.0
  1
15%%p1_
 50
90.0
 41
0.75
 51
15.0
 72
     1
 11
492.3747315093261
 21
1277.079700248639
 31
0.0
100
AcDbText
  0
LINE
  5
3E9
330
20
100
AcDbEntity
  8
33
  6
Continuous
100
AcDbLine
 10
498.3250794097166
 20
1320.452659930559
 30
0.0
 11
498.3250794097166
 21
1730.452659930559
 31
0.0
  0
LINE
  5
3EA
330
20
100
AcDbEntity
  8
33
  6
Continuous
100
AcDbLine
 10
498.3250794097166
 20
1320.452659930559
 30
0.0
 11
493.1486985076661
 21
1339.77117645634
 31
0.0
  0
LINE
  5
3EB
330
20
100
AcDbEntity
  8
33
  6
Continuous
100
AcDbLine
 10
498.3250794097166
 20
1320.452659930559
 30
0.0
 11
503.5014603117671
 21
1339.77117645634
 31
0.0
  0
LINE
  5
3EC
330
20
100
AcDbEntity
  8
33
  6
Continuous
100
AcDbLine
 10
498.3250794097166
 20
1730.452659930559
 30
0.0
 11
503.5014603117671
 21
1711.134143404777
 31
0.0
  0
LINE
  5
3ED
330
20
100
AcDbEntity
  8
33
  6
Continuous
100
AcDbLine
 10
498.3250794097166
 20
1730.452659930559
 30
0.0
 11
493.1486985076661
 21
1711.134143404777
 31
0.0
  0
LINE
  5
3EE
330
20
100
AcDbEntity
  8
33
  6
Continuous
100
AcDbLine
 10
700.9352914632881
 20
1730.452659930559
 30
0.0
 11
493.3250794097166
 21
1730.452659930559
 31
0.0
  0
TEXT
  5
3EF
330
20
100
AcDbEntity
  8
33
100
AcDbText
 10
493.3250794097166
 20
1486.702625053327
 30
0.0
 40
20.0
  1
410%%p2_
 50
90.0
 41
0.75
 51
15.0
 72
     1
 11
493.3250794097166
 21
1525.452625053327
 31
0.0
100
AcDbText
  0
LINE
  5
3F0
330
20
100
AcDbEntity
  8
33
  6
Continuous
100
AcDbLine
 10
498.3250794097166
 20
1730.452659930559
 30
0.0
 11
498.3250794097166
 21
1745.452659930559
 31
0.0
  0
LINE
  5
3F1
330
20
100
AcDbEntity
  8
33
  6
Continuous
100
AcDbLine
 10
700.9352914632881
 20
1745.452659930559
 30
0.0
 11
493.3250794097166
 21
1745.452659930559
 31
0.0
  0
LINE
  5
3F2
330
20
100
AcDbEntity
  8
33
  6
Continuous
100
AcDbLine
 10
498.3250794097166
 20
1745.452659930559
 30
0.0
 11
498.3250794097166
 21
1785.452659930559
 31
0.0
  0
LINE
  5
3F3
330
20
100
AcDbEntity
  8
33
  6
Continuous
100
AcDbLine
 10
498.3250794097166
 20
1745.452659930559
 30
0.0
 11
493.1486985076661
 21
1764.77117645634
 31
0.0
  0
LINE
  5
3F4
330
20
100
AcDbEntity
  8
33
  6
Continuous
100
AcDbLine
 10
498.3250794097166
 20
1745.452659930559
 30
0.0
 11
503.5014603117671
 21
1764.77117645634
 31
0.0
  0
TEXT
  5
3F5
330
20
100
AcDbEntity
  8
33
100
AcDbText
 10
493.3250794097166
 20
1735.452625053327
 30
0.0
 40
20.0
  1
15%%p1_
 50
90.0
 41
0.75
 51
15.0
 72
     1
 11
493.3250794097166
 21
1765.452625053327
 31
0.0
100
AcDbText
  0
LINE
  5
3F6
330
20
100
AcDbEntity
  8
33
  6
Continuous
100
AcDbLine
 10
448.9592471393087
 20
1305.452659930559
 30
0.0
 11
448.9592471393087
 21
1745.452659930559
 31
0.0
  0
LINE
  5
3F7
330
20
100
AcDbEntity
  8
33
  6
Continuous
100
AcDbLine
 10
448.9592471393087
 20
1305.452659930559
 30
0.0
 11
443.7828662372581
 21
1324.77117645634
 31
0.0
  0
LINE
  5
3F8
330
20
100
AcDbEntity
  8
33
  6
Continuous
100
AcDbLine
 10
448.9592471393087
 20
1305.452659930559
 30
0.0
 11
454.1356280413591
 21
1324.77117645634
 31
0.0
  0
LINE
  5
3F9
330
20
100
AcDbEntity
  8
33
  6
Continuous
100
AcDbLine
 10
448.9592471393087
 20
1745.452659930559
 30
0.0
 11
454.1356280413591
 21
1726.134143404777
 31
0.0
  0
LINE
  5
3FA
330
20
100
AcDbEntity
  8
33
  6
Continuous
100
AcDbLine
 10
448.9592471393087
 20
1745.452659930559
 30
0.0
 11
443.7828662372581
 21
1726.134143404777
 31
0.0
  0
LINE
  5
3FB
330
20
100
AcDbEntity
  8
33
  6
Continuous
100
AcDbLine
 10
700.9352914632881
 20
1305.452659930559
 30
0.0
 11
443.9592471393086
 21
1305.452659930559
 31
0.0
  0
LINE
  5
3FC
330
20
100
AcDbEntity
  8
33
  6
Continuous
100
AcDbLine
 10
700.9352914632881
 20
1745.452659930559
 30
0.0
 11
443.9592471393086
 21
1745.452659930559
 31
0.0
  0
TEXT
  5
3FD
330
20
100
AcDbEntity
  8
33
100
AcDbText
 10
443.9592499419431
 20
1484.202625053327
 30
0.0
 40
20.0
  1
440%%p2_
 50
90.0
 41
0.75
 51
15.0
 72
     1
 11
443.9592499419431
 21
1525.452625053327
 31
0.0
100
AcDbText
  0
MTEXT
  5
44C
330
20
100
AcDbEntity
  8
一般
 62
     7
100
AcDbMText
 10
855.1120476299011
 20
552.1585183476952
 30
0.0
 40
30.0
 41
0.0
 71
     5
 72
     1
  1
{\fMS Gothic|b0|i0|c128|p0;・表面仕様は\fArial|b0|i0|c0|p32;BA\fMS Gothic|b0|i0|c128|p0;材をプレスしたままとする。}
  7
ＭＳ ゴシック
 73
     1
 44
0.7828267384257842
1001
ACAD
1000
MTEXTBEGIN
1070
    73
1070
     1
1070
    44
1040
0.7828267384257842
1070
    74
1070
     0
1000
MTEXTEND
  0
MTEXT
  5
44D
330
20
100
AcDbEntity
  8
一般
100
AcDbMText
 10
-30.24736797502055
 20
396.5607787421686
 30
0.0
 40
30.0
 41
0.0
 71
     1
 72
     1
  3
{\C7;\l\U+203B\U+5b9f\U+5bf8\U+306b\U+306f\U+88fd\U+9020\U+4e0a\U+306e\U+8aa4\U+5dee\U+304c\U+591a\U+5c11\U+751f\U+305a\U+308b\U+5834\U+5408\U+304c\U+3042\U+308a\U+307e\U+3059\U+3002\U+30b7\U+30f3\U+30af\U+306e\U+7a74\U+3042\U+3051\U+52a0\U+5de5\U+30
  1
6f\U+73fe\U+7269\U+5408\U+308f\U+305b\U+306b\U+3066\U+304a\U+9858\U+3044\U+3057\U+307e\U+3059\U+3002}
  7
ＭＳ ゴシック
 73
     1
 44
0.7922963146858742
1001
ACAD
1000
MTEXTBEGIN
1070
    73
1070
     1
1070
    44
1040
0.7922963146858742
1070
    74
1070
     0
1000
MTEXTEND
  0
MTEXT
  5
44E
330
20
100
AcDbEntity
  8
一般
 62
     0
100
AcDbMText
 10
2346.697076469424
 20
388.8224538690727
 30
0.0
 40
32.57682291666667
 41
0.0
 71
     5
 72
     1
  1
{\fMS Gothic|b0|i0|c128|p49;930Z_A-H7-140}
  7
ＭＳ ゴシック
 73
     1
 44
0.9002507491896516
1001
ACAD
1000
MTEXTBEGIN
1070
    73
1070
     1
1070
    44
1040
0.9002507491896516
1070
    74
1070
     0
1000
MTEXTEND
  0
MTEXT
  5
44F
330
20
100
AcDbEntity
  8
一般
 62
     0
100
AcDbMText
 10
2445.252632024979
 20
2069.92345647324
 30
0.0
 40
35.29155815972223
 41
0.0
 71
     1
 72
     1
  1
0.7{\H0.9577x;\l\U+ff4d\U+ff4d}
  7
ＭＳ ゴシック
 73
     1
 44
0.7828267384257841
1001
ACAD
1000
MTEXTBEGIN
1070
    73
1070
     1
1070
    44
1040
0.7828267384257841
1070
    74
1070
     0
1000
MTEXTEND
  0
MTEXT
  5
451
330
20
100
AcDbEntity
  8
一般
 62
     0
100
AcDbMText
 10
2182.752632024979
 20
2069.92345647324
 30
0.0
 40
35.29155815972223
 41
0.0
 71
     1
 72
     1
  1
SUS304
  7
ＭＳ ゴシック
 73
     1
 44
0.7828267384257841
1001
ACAD
1000
MTEXTBEGIN
1070
    73
1070
     1
1070
    44
1040
0.7828267384257841
1070
    74
1070
     0
1000
MTEXTEND
  0
MTEXT
  5
453
330
20
100
AcDbEntity
  8
一般
 62
     0
100
AcDbMText
 10
2427.752632024979
 20
2132.143727631751
 30
0.0
 40
35.29155815972223
 41
0.0
 71
     1
 72
     1
  1
\U+7d20\U+6750\U+65b9\U+6cd5
  7
ＭＳ ゴシック
 73
     1
 44
0.7828267384257841
1001
ACAD
1000
MTEXTBEGIN
1070
    73
1070
     1
1070
    44
1040
0.7828267384257841
1070
    74
1070
     0
1000
MTEXTEND
  0
MTEXT
  5
455
330
20
100
AcDbEntity
  8
一般
 62
     0
100
AcDbMText
 10
2202.752632024979
 20
2132.143727631751
 30
0.0
 40
35.29155815972223
 41
0.0
 71
     1
 72
     1
  1
\U+6750\U+8cea
  7
ＭＳ ゴシック
 73
     1
 44
0.7828267384257841
1001
ACAD
1000
MTEXTBEGIN
1070
    73
1070
     1
1070
    44
1040
0.7828267384257841
1070
    74
1070
     0
1000
MTEXTEND
  0
MTEXT
  5
457
330
20
100
AcDbEntity
  8
一般
 62
     0
100
AcDbMText
 10
1952.752632024979
 20
2069.92345647324
 30
0.0
 40
35.29155815972223
 41
0.0
 71
     1
 72
     1
  1
\U+30dc\U+30fc\U+30eb
  7
ＭＳ ゴシック
 73
     1
 44
0.7828267384257841
1001
ACAD
1000
MTEXTBEGIN
1070
    73
1070
     1
1070
    44
1040
0.7828267384257841
1070
    74
1070
     0
1000
MTEXTEND
  0
MTEXT
  5
459
330
20
100
AcDbEntity
  8
一般
 62
     0
100
AcDbMText
 10
1960.252632024979
 20
2131.349014910984
 30
0.0
 40
33.79825020482697
 41
0.0
 71
     1
 72
     1
  1
\U+90e8\U+54c1\U+540d
  7
ＭＳ ゴシック
 73
     1
 44
0.7828267384257846
1001
ACAD
1000
MTEXTBEGIN
1070
    73
1070
     1
1070
    44
1040
0.7828267384257846
1070
    74
1070
     0
1000
MTEXTEND
  0
MTEXT
  5
45B
330
20
100
AcDbEntity
  8
一般
 62
     0
100
AcDbMText
 10
1955.323410207979
 20
342.1213731399064
 30
0.0
 40
35.29155815972223
 41
0.0
 71
     1
 72
     1
  1
\U+5c3a\U+5ea6
  7
ＭＳ ゴシック
 73
     1
 44
0.7828267384257841
1001
ACAD
1000
MTEXTBEGIN
1070
    73
1070
     1
1070
    44
1040
0.7828267384257841
1070
    74
1070
     0
1000
MTEXTEND
  0
MTEXT
  5
45C
330
20
100
AcDbEntity
  8
一般
 62
     0
100
AcDbMText
 10
1952.752632024979
 20
409.9234564732397
 30
0.0
 40
35.29155815972223
 41
0.0
 71
     1
 72
     1
  1
\U+54c1\U+756a
  7
ＭＳ ゴシック
 73
     1
 44
0.7828267384257841
1001
ACAD
1000
MTEXTBEGIN
1070
    73
1070
     1
1070
    44
1040
0.7828267384257841
1070
    74
1070
     0
1000
MTEXTEND
  0
MTEXT
  5
45D
330
20
100
AcDbEntity
  8
一般
 62
     0
100
AcDbMText
 10
2060.252632024979
 20
274.992100859814
 30
0.0
 40
35.36964699074076
 41
0.0
 71
     1
 72
     1
  1
e-KITCHEN {\H0.3571x;\lU-ARCHITECTURE WORKS}
  7
Arial
 73
     1
 44
0.9673603504928808
1001
ACAD
1000
MTEXTBEGIN
1070
    73
1070
     1
1070
    44
1040
0.9673603504928808
1070
    74
1070
     0
1000
MTEXTEND
  0
MTEXT
  5
45E
330
20
100
AcDbEntity
  8
一般
 62
     0
100
AcDbMText
 10
2350.6339512167
 20
339.9577330568901
 30
0.0
 40
35.0
 41
0.0
 71
     2
 72
     1
  1
1\U+ff1a10
  7
ＭＳ ゴシック
 73
     1
 44
0.7859706209094222
1001
ACAD
1000
MTEXTBEGIN
1070
    73
1070
     1
1070
    44
1040
0.7859706209094222
1070
    74
1070
     0
1000
MTEXTEND
  0
LINE
  5
45F
330
20
100
AcDbEntity
  8
一般
 62
     0
100
AcDbLine
 10
2384.752632024979
 20
2019.072453869073
 30
0.0
 11
2384.752632024979
 21
2149.072453869074
 31
0.0
  0
LINE
  5
460
330
20
100
AcDbEntity
  8
一般
 62
     0
100
AcDbLine
 10
2109.752632024979
 20
2019.072453869073
 30
0.0
 11
2109.752632024979
 21
2149.072453869074
 31
0.0
  0
LINE
  5
461
330
20
100
AcDbEntity
  8
一般
 62
     0
100
AcDbLine
 10
1939.752632024979
 20
2019.072453869073
 30
0.0
 11
1939.752632024979
 21
2149.072453869074
 31
0.0
  0
LINE
  5
462
330
20
100
AcDbEntity
  8
一般
 62
     0
100
AcDbLine
 10
2659.752632024979
 20
2019.072453869073
 30
0.0
 11
1939.752632024979
 21
2019.072453869073
 31
0.0
  0
LINE
  5
463
330
20
100
AcDbEntity
  8
一般
 62
     0
100
AcDbLine
 10
2659.752632024979
 20
2084.072453869073
 30
0.0
 11
1939.752632024979
 21
2084.072453869073
 31
0.0
  0
LINE
  5
464
330
20
100
AcDbEntity
  8
一般
 62
     0
100
AcDbLine
 10
1939.752632024979
 20
229.0724538690732
 30
0.0
 11
1939.752632024979
 21
424.0724538690731
 31
0.0
  0
LINE
  5
465
330
20
100
AcDbEntity
  8
一般
 62
     0
100
AcDbLine
 10
1939.752632024979
 20
294.0724538690731
 30
0.0
 11
2659.752632024979
 21
294.0724538690731
 31
0.0
  0
LINE
  5
466
330
20
100
AcDbEntity
  8
一般
 62
     0
100
AcDbLine
 10
2659.752632024979
 20
359.0724538690731
 30
0.0
 11
2659.752632024979
 21
424.0724538690731
 31
0.0
  0
LINE
  5
467
330
20
100
AcDbEntity
  8
一般
 62
     0
100
AcDbLine
 10
2659.752632024979
 20
229.0724538690732
 30
0.0
 11
2659.752632024979
 21
294.0724538690731
 31
0.0
  0
LINE
  5
468
330
20
100
AcDbEntity
  8
一般
 62
     0
100
AcDbLine
 10
1939.752632024979
 20
424.0724538690731
 30
0.0
 11
2659.752632024979
 21
424.0724538690731
 31
0.0
  0
LINE
  5
469
330
20
100
AcDbEntity
  8
一般
 62
     0
100
AcDbLine
 10
1939.752632024979
 20
359.0724538690731
 30
0.0
 11
2659.752632024979
 21
359.0724538690731
 31
0.0
  0
LINE
  5
46A
330
20
100
AcDbEntity
  8
一般
 62
     0
100
AcDbLine
 10
2059.752632024979
 20
294.0724538690731
 30
0.0
 11
2659.752632024979
 21
294.0724538690731
 31
0.0
  0
LINE
  5
46B
330
20
100
AcDbEntity
  8
一般
 62
     0
100
AcDbLine
 10
2059.752632024979
 20
294.0724538690731
 30
0.0
 11
2059.752632024979
 21
424.0724538690731
 31
0.0
  0
LINE
  5
46C
330
20
100
AcDbEntity
  8
一般
100
AcDbLine
 10
2659.752632024979
 20
229.0724538690732
 30
0.0
 11
2659.752632024979
 21
2149.072453869074
 31
0.0
  0
LINE
  5
46D
330
20
100
AcDbEntity
  8
一般
100
AcDbLine
 10
2659.752632024979
 20
2149.072453869074
 30
0.0
 11
-120.2473679750205
 21
2149.072453869074
 31
0.0
  0
LINE
  5
46E
330
20
100
AcDbEntity
  8
一般
100
AcDbLine
 10
-120.2473679750205
 20
2149.072453869074
 30
0.0
 11
-120.2473679750205
 21
229.0724538690732
 31
0.0
  0
LINE
  5
46F
330
20
100
AcDbEntity
  8
一般
100
AcDbLine
 10
-120.2473679750205
 20
229.0724538690732
 30
0.0
 11
2659.752632024979
 21
229.0724538690732
 31
0.0
  0
ENDSEC
  0
SECTION
  2
OBJECTS
  0
DICTIONARY
  5
C
330
0
100
AcDbDictionary
281
     1
  3
ACAD_COLOR
350
1B
  3
ACAD_GROUP
350
D
  3
ACAD_LAYOUT
350
19
  3
ACAD_MATERIAL
350
1A
  3
ACAD_MLINESTYLE
350
16
  3
ACAD_PLOTSETTINGS
350
18
  3
ACAD_PLOTSTYLENAME
350
E
  3
ACAD_WIPEOUT_VARS
350
44A
  3
ACDBHEADERROUNDTRIPXREC
350
481
  3
AcDbVariableDictionary
350
47D
  0
DICTIONARY
  5
1B
102
{ACAD_REACTORS
330
C
102
}
330
C
100
AcDbDictionary
281
     1
  0
DICTIONARY
  5
D
102
{ACAD_REACTORS
330
C
102
}
330
C
100
AcDbDictionary
281
     1
  0
DICTIONARY
  5
19
102
{ACAD_REACTORS
330
C
102
}
330
C
100
AcDbDictionary
281
     1
  3
Model
350
23
  3
レイアウト1
350
1F
  0
DICTIONARY
  5
1A
102
{ACAD_REACTORS
330
C
102
}
330
C
100
AcDbDictionary
281
     1
  0
DICTIONARY
  5
16
102
{ACAD_REACTORS
330
C
102
}
330
C
100
AcDbDictionary
281
     1
  3
Standard
350
17
  0
DICTIONARY
  5
18
102
{ACAD_REACTORS
330
C
102
}
330
C
100
AcDbDictionary
281
     1
  0
ACDBDICTIONARYWDFLT
  5
E
102
{ACAD_REACTORS
330
C
102
}
330
C
100
AcDbDictionary
281
     1
  3
Normal
350
F
100
AcDbDictionaryWithDefault
340
F
  0
WIPEOUTVARIABLES
  5
44A
102
{ACAD_REACTORS
330
C
102
}
330
C
100
AcDbWipeoutVariables
 70
     1
  0
DICTIONARY
  5
481
102
{ACAD_REACTORS
330
C
102
}
330
C
100
AcDbDictionary
281
     1
  3
COLORDICT
350
483
  3
MATERIALDICT
350
482
  0
DICTIONARY
  5
47D
102
{ACAD_REACTORS
330
C
102
}
330
C
100
AcDbDictionary
281
     1
  3
DIMASSOC
350
47E
  3
PROJECTNAME
350
47F
  0
LAYOUT
  5
23
102
{ACAD_XDICTIONARY
360
486
102
}
102
{ACAD_REACTORS
330
19
102
}
330
19
100
AcDbPlotSettings
  1

  2
Adobe PDF
  4

  6

 40
0.0
 41
0.0
 42
0.0
 43
0.0
 44
0.0
 45
0.0
 46
0.0
 47
0.0
 48
0.0
 49
0.0
140
0.0
141
0.0
142
1.0
143
1.0
 70
  1712
 72
     0
 73
     0
 74
     0
  7

 75
     0
147
1.0
148
0.0
149
0.0
100
AcDbLayout
  1
Model
 70
     1
 71
     0
 10
0.0
 20
0.0
 11
12.0
 21
9.0
 12
0.0
 22
0.0
 32
0.0
 14
0.0
 24
0.0
 34
0.0
 15
0.0
 25
0.0
 35
0.0
146
0.0
 13
0.0
 23
0.0
 33
0.0
 16
1.0
 26
0.0
 36
0.0
 17
0.0
 27
1.0
 37
0.0
 76
     0
330
20
  0
LAYOUT
  5
1F
102
{ACAD_XDICTIONARY
360
484
102
}
102
{ACAD_REACTORS
330
19
102
}
330
19
100
AcDbPlotSettings
  1

  2
Adobe PDF
  4

  6

 40
0.0
 41
0.0
 42
0.0
 43
0.0
 44
0.0
 45
0.0
 46
0.0
 47
0.0
 48
0.0
 49
0.0
140
0.0
141
0.0
142
1.0
143
1.0
 70
   688
 72
     0
 73
     0
 74
     5
  7

 75
    16
147
1.0
148
0.0
149
0.0
100
AcDbLayout
  1
レイアウト1
 70
     1
 71
     1
 10
0.0
 20
0.0
 11
12.0
 21
9.0
 12
0.0
 22
0.0
 32
0.0
 14
1.000000000000000E+20
 24
1.000000000000000E+20
 34
1.000000000000000E+20
 15
-1.000000000000000E+20
 25
-1.000000000000000E+20
 35
-1.000000000000000E+20
146
0.0
 13
0.0
 23
0.0
 33
0.0
 16
1.0
 26
0.0
 36
0.0
 17
0.0
 27
1.0
 37
0.0
 76
     0
330
1C
  0
MLINESTYLE
  5
17
102
{ACAD_REACTORS
330
16
102
}
330
16
100
AcDbMlineStyle
  2
STANDARD
 70
     0
  3

 62
   256
 51
90.0
 52
90.0
 71
     2
 49
0.5
 62
   256
  6
BYLAYER
 49
-0.5
 62
   256
  6
BYLAYER
  0
ACDBPLACEHOLDER
  5
F
102
{ACAD_REACTORS
330
E
102
}
330
E
  0
XRECORD
  5
483
102
{ACAD_REACTORS
330
481
102
}
330
481
100
AcDbXrecord
280
     1
340
1B
  0
XRECORD
  5
482
102
{ACAD_REACTORS
330
481
102
}
330
481
100
AcDbXrecord
280
     1
340
1A
  0
DICTIONARYVAR
  5
47E
102
{ACAD_REACTORS
330
47D
102
}
330
47D
100
DictionaryVariables
280
     0
  1
1
  0
DICTIONARYVAR
  5
47F
102
{ACAD_REACTORS
330
47D
102
}
330
47D
100
DictionaryVariables
280
     0
  1

  0
DICTIONARY
  5
486
330
23
100
AcDbDictionary
280
     1
281
     1
  3
ACAD_XREC_ROUNDTRIP
360
487
  0
DICTIONARY
  5
484
330
1F
100
AcDbDictionary
280
     1
281
     1
  3
ACAD_XREC_ROUNDTRIP
360
485
  0
XRECORD
  5
487
102
{ACAD_REACTORS
330
486
102
}
330
486
100
AcDbXrecord
280
     1
102
SHADEPLOT
 70
     0
102
SHADEPLOTRESLEVEL
 70
     2
102
SHADEPLOTCUSTOMDPI
 70
   300
  0
XRECORD
  5
485
102
{ACAD_REACTORS
330
484
102
}
330
484
100
AcDbXrecord
280
     1
102
SHADEPLOT
 70
     0
102
SHADEPLOTRESLEVEL
 70
     2
102
SHADEPLOTCUSTOMDPI
 70
   300
  0
ENDSEC
  0
EOF
