  0
SECTION
  2
HEADER
  9
$ACADVER
  1
AC1015
  9
$ACADMAINTVER
 70
               6
  9
$DWGCODEPAGE
  3
ANSI_932
  9
$INSBASE
 10
0.0
 20
0.0
 30
0.0
  9
$EXTMIN
 10
3944.9923847314139
 20
1380.3070741320407
 30
0.0
  9
$EXTMAX
 10
4206.8923847314154
 20
1559.8070741320412
 30
0.0
  9
$LIMMIN
 10
0.0
 20
0.0
  9
$LIMMAX
 10
0.0
 20
0.0
  9
$ORTHOMODE
 70
               0
  9
$REGENMODE
 70
               1
  9
$FILLMODE
 70
               1
  9
$QTEXTMODE
 70
               0
  9
$MIRRTEXT
 70
               1
  9
$LTSCALE
 40
5.0800000000000001
  9
$ATTMODE
 70
               1
  9
$TEXTSIZE
 40
0.2
  9
$TRACEWID
 40
1.0
  9
$TEXTSTYLE
  7
Standard
  9
$CLAYER
  8
0
  9
$CELTYPE
  6
Continuous
  9
$CECOLOR
 62
             256
  9
$CELTSCALE
 40
1.0
  9
$DISPSILH
 70
               0
  9
$DIMSCALE
 40
1.0
  9
$DIMASZ
 40
0.18
  9
$DIMEXO
 40
0.0625
  9
$DIMDLI
 40
0.38
  9
$DIMRND
 40
0.0
  9
$DIMDLE
 40
0.0
  9
$DIMEXE
 40
0.18
  9
$DIMTP
 40
0.0
  9
$DIMTM
 40
0.0
  9
$DIMTXT
 40
0.18
  9
$DIMCEN
 40
0.09
  9
$DIMTSZ
 40
0.0
  9
$DIMTOL
 70
               0
  9
$DIMLIM
 70
               0
  9
$DIMTIH
 70
               1
  9
$DIMTOH
 70
               1
  9
$DIMSE1
 70
               0
  9
$DIMSE2
 70
               0
  9
$DIMTAD
 70
               0
  9
$DIMZIN
 70
               0
  9
$DIMBLK
  1

  9
$DIMASO
 70
               1
  9
$DIMSHO
 70
               1
  9
$DIMPOST
  1

  9
$DIMAPOST
  1

  9
$DIMALT
 70
               0
  9
$DIMALTD
 70
               2
  9
$DIMALTF
 40
25.399999999999999
  9
$DIMLFAC
 40
1.0
  9
$DIMTOFL
 70
               0
  9
$DIMTVP
 40
0.0
  9
$DIMTIX
 70
               0
  9
$DIMSOXD
 70
               0
  9
$DIMSAH
 70
               0
  9
$DIMBLK1
  1

  9
$DIMBLK2
  1

  9
$DIMSTYLE
  2
Standard
  9
$DIMCLRD
 70
               0
  9
$DIMCLRE
 70
               0
  9
$DIMCLRT
 70
               0
  9
$DIMTFAC
 40
1.0
  9
$DIMGAP
 40
0.09
  9
$DIMJUST
 70
               0
  9
$DIMSD1
 70
               0
  9
$DIMSD2
 70
               0
  9
$DIMTOLJ
 70
               1
  9
$DIMTZIN
 70
               0
  9
$DIMALTZ
 70
               0
  9
$DIMALTTZ
 70
               0
  9
$DIMUPT
 70
               0
  9
$DIMDEC
 70
               4
  9
$DIMTDEC
 70
               4
  9
$DIMALTU
 70
               2
  9
$DIMALTTD
 70
               2
  9
$DIMTXSTY
  7
Standard
  9
$DIMAUNIT
 70
               0
  9
$DIMADEC
 70
               0
  9
$DIMALTRND
 40
0.0
  9
$DIMAZIN
 70
               0
  9
$DIMDSEP
 70
               0
  9
$DIMATFIT
 70
               3
  9
$DIMFRAC
 70
               0
  9
$DIMLDRBLK
  1

  9
$DIMLUNIT
 70
               2
  9
$DIMLWD
 70
               0
  9
$DIMLWE
 70
               0
  9
$DIMTMOVE
 70
               0
  9
$LUNITS
 70
               2
  9
$LUPREC
 70
               4
  9
$SKETCHINC
 40
0.1
  9
$FILLETRAD
 40
0.0
  9
$AUNITS
 70
               0
  9
$AUPREC
 70
               0
  9
$MENU
  1
acad
  9
$ELEVATION
 40
0.0
  9
$PELEVATION
 40
0.0
  9
$THICKNESS
 40
0.0
  9
$LIMCHECK
 70
               0
  9
$CHAMFERA
 40
0.0
  9
$CHAMFERB
 40
0.0
  9
$CHAMFERC
 40
0.0
  9
$CHAMFERD
 40
0.0
  9
$SKPOLY
 70
               0
  9
$TDCREATE
 40
2453560.889201389
  9
$TDUCREATE
 40
0.000000000
  9
$TDUPDATE
 40
2453560.889201389
  9
$TDUUPDATE
 40
0.000000000
  9
$TDINDWG
 40
0.0000000000
  9
$TDUSRTIMER
 40
0.0000000000
  9
$USRTIMER
 70
               1
  9
$ANGBASE
 50
0.0
  9
$ANGDIR
 70
               0
  9
$PDMODE
 70
               1
  9
$PDSIZE
 40
-2.0
  9
$PLINEWID
 40
0.0
  9
$SPLFRAME
 70
               0
  9
$SPLINETYPE
 70
               6
  9
$SPLINESEGS
 70
               8
  9
$HANDSEED
  5
2A7
  9
$SURFTAB1
 70
               6
  9
$SURFTAB2
 70
               6
  9
$SURFTYPE
 70
               6
  9
$SURFU
 70
               6
  9
$SURFV
 70
               6
  9
$UCSBASE
  2

  9
$UCSNAME
  2

  9
$UCSORG
 10
0.0
 20
0.0
 30
0.0
  9
$UCSXDIR
 10
1.0
 20
0.0
 30
0.0
  9
$UCSYDIR
 10
0.0
 20
1.0
 30
0.0
  9
$UCSORTHOREF
  2

  9
$UCSORTHOVIEW
 70
               0
  9
$UCSORGTOP
 10
0.0
 20
0.0
 30
0.0
  9
$UCSORGBOTTOM
 10
0.0
 20
0.0
 30
0.0
  9
$UCSORGLEFT
 10
0.0
 20
0.0
 30
0.0
  9
$UCSORGRIGHT
 10
0.0
 20
0.0
 30
0.0
  9
$UCSORGFRONT
 10
0.0
 20
0.0
 30
0.0
  9
$UCSORGBACK
 10
0.0
 20
0.0
 30
0.0
  9
$PUCSBASE
  2

  9
$PUCSNAME
  2

  9
$PUCSORG
 10
0.0
 20
0.0
 30
0.0
  9
$PUCSXDIR
 10
1.0
 20
0.0
 30
0.0
  9
$PUCSYDIR
 10
0.0
 20
1.0
 30
0.0
  9
$PUCSORTHOREF
  2

  9
$PUCSORTHOVIEW
 70
               0
  9
$PUCSORGTOP
 10
0.0
 20
0.0
 30
0.0
  9
$PUCSORGBOTTOM
 10
0.0
 20
0.0
 30
0.0
  9
$PUCSORGLEFT
 10
0.0
 20
0.0
 30
0.0
  9
$PUCSORGRIGHT
 10
0.0
 20
0.0
 30
0.0
  9
$PUCSORGFRONT
 10
0.0
 20
0.0
 30
0.0
  9
$PUCSORGBACK
 10
0.0
 20
0.0
 30
0.0
  9
$USERI1
 70
               0
  9
$USERI2
 70
               0
  9
$USERI3
 70
               0
  9
$USERI4
 70
               0
  9
$USERI5
 70
               0
  9
$USERR1
 40
0.0
  9
$USERR2
 40
0.0
  9
$USERR3
 40
0.0
  9
$USERR4
 40
0.0
  9
$USERR5
 40
0.0
  9
$WORLDVIEW
 70
               1
  9
$SHADEDGE
 70
               3
  9
$SHADEDIF
 70
              70
  9
$TILEMODE
 70
               1
  9
$MAXACTVP
 70
              16
  9
$PINSBASE
 10
0.0
 20
0.0
 30
0.0
  9
$PLIMCHECK
 70
               0
  9
$PEXTMIN
 10
1.0000000000000000E+20
 20
1.0000000000000000E+20
 30
1.0000000000000000E+20
  9
$PEXTMAX
 10
-1.0000000000000000E+20
 20
-1.0000000000000000E+20
 30
-1.0000000000000000E+20
  9
$PLIMMIN
 10
0.0
 20
0.0
  9
$PLIMMAX
 10
12.0
 20
9.0
  9
$UNITMODE
 70
               0
  9
$VISRETAIN
 70
               0
  9
$PLINEGEN
 70
               1
  9
$PSLTSCALE
 70
               0
  9
$TREEDEPTH
 70
            3020
  9
$CMLSTYLE
  2
Standard
  9
$CMLJUST
 70
               0
  9
$CMLSCALE
 40
1.0
  9
$PROXYGRAPHICS
 70
               0
  9
$MEASUREMENT
 70
               1
  9
$CELWEIGHT
370
               0
  9
$ENDCAPS
280
               0
  9
$JOINSTYLE
280
               0
  9
$LWDISPLAY
290
               1
  9
$INSUNITS
 70
               4
  9
$HYPERLINKBASE
  1

  9
$STYLESHEET
  1

  9
$XEDIT
290
               1
  9
$CEPSNTYPE
380
               0
  9
$PSTYLEMODE
290
               1
  9
$FINGERPRINTGUID
  2

  9
$VERSIONGUID
  2

  9
$EXTNAMES
290
               1
  9
$PSVPSCALE
 40
0.0
  0
ENDSEC
  0
SECTION
  2
CLASSES
  0
CLASS
  1
LWPOLYLINE
  2
AcDbPolyline
  3
AutoCAD 2000
 90
    32768
280
               0
281
               1
  0
CLASS
  1
IMAGE
  2
AcDbRasterImage
  3
ISM
 90
    32895
280
               0
281
               1
  0
CLASS
  1
OLE2FRAME
  2
AcDbOle2Frame
  3
AutoCAD 2000
 90
    32768
280
               0
281
               1
  0
CLASS
  1
HATCH
  2
AcDbHatch
  3
AutoCAD 2000
 90
    32768
280
               0
281
               1
  0
CLASS
  1
DICTIONARYVAR
  2
AcDbDictionaryVar
  3
AutoCAD 2000
 90
    32768
280
               0
281
               0
  0
CLASS
  1
RASTERVARIABLES
  2
AcDbRasterVariables
  3
ISM
 90
    32768
280
               0
281
               0
  0
CLASS
  1
IMAGEDEF
  2
AcDbRasterImageDef
  3
ISM
 90
    32768
280
               0
281
               0
  0
CLASS
  1
IMAGEDEF_REACTOR
  2
AcDbRasterImageDefReactor
  3
ISM
 90
    32769
280
               0
281
               0
  0
CLASS
  1
IDBUFFER
  2
AcDbIdBuffer
  3
AutoCAD 2000
 90
    32768
280
               0
281
               0
  0
CLASS
  1
SPATIAL_FILTER
  2
AcDbSpatialFilter
  3
AutoCAD 2000
 90
    32768
280
               0
281
               0
  0
CLASS
  1
XRECORD
  2
AcDbXrecord
  3
AutoCAD 2000
 90
    32768
280
               0
281
               0
  0
CLASS
  1
SORTENTSTABLE
  2
AcDbSortentsTable
  3
AutoCAD 2000
 90
    32768
280
               0
281
               0
  0
CLASS
  1
LAYER_INDEX
  2
AcDbLayerIndex
  3
AutoCAD 2000
 90
    32768
280
               0
281
               0
  0
CLASS
  1
SPATIAL_INDEX
  2
AcDbSpatialIndex
  3
AutoCAD 2000
 90
    32768
280
               0
281
               0
  0
CLASS
  1
OBJECT_PTR
  2
CAseDLPNTableRecord
  3
"ASE-LPNTableRecord"
 90
    32769
280
               0
281
               0
  0
CLASS
  1
LAYOUT
  2
AcDbLayout
  3
AutoCAD 2000
 90
        0
280
               0
281
               0
  0
CLASS
  1
PLOTSETTINGS
  2
AcDbPlotSettings
  3
AutoCAD 2000
 90
    32768
280
               0
281
               0
  0
CLASS
  1
ACDBDICTIONARYWDFLT
  2
AcDbDictionaryWithDefault
  3
AutoCAD 2000
 90
        0
280
               0
281
               0
  0
CLASS
  1
ACDBPLACEHOLDER
  2
AcDbPlaceHolder
  3
AutoCAD 2000
 90
        0
280
               0
281
               0
  0
CLASS
  1
VBA_PROJECT
  2
AcDbVbaProject
  3
acadvba
 90
    32768
280
               0
281
               0
  0
CLASS
  1
WIPEOUT
  2
AcDbWipeout
  3
WipeOut|AutoCAD Express Tool|expresstools@autodesk.com
 90
    32895
280
               0
281
               1
  0
CLASS
  1
WIPEOUTVARIABLES
  2
AcDbWipeoutVariables
  3
WipeOut|AutoCAD Express Tool|expresstools@autodesk.com
 90
        0
280
               0
281
               0
  0
CLASS
  1
RTEXT
  2
RText
  3
RText|AutoCAD Express Tool|expresstools@autodesk.com
 90
    32768
280
               0
281
               1
  0
CLASS
  1
ARCALIGNEDTEXT
  2
AcDbArcAlignedText
  3
ATEXT|AutoCAD Express Tool|expresstools@autodesk.com
 90
    32768
280
               0
281
               1
  0
ENDSEC
  0
SECTION
  2
TABLES
  0
TABLE
  2
VPORT
  5
7
100
AcDbSymbolTable
 70
               1
  0
VPORT
  5
15
100
AcDbSymbolTableRecord
100
AcDbViewportTableRecord
  2
*ACTIVE
 70
               0
 10
0.0
 20
0.0
 11
1.0
 21
1.0
 12
4075.9423847314147
 22
1470.057074132041
 13
0.0
 23
0.0
 14
1.0
 24
1.0
 15
0.0
 25
0.0
 16
0.0
 26
0.0
 36
1.0
 17
0.0
 27
0.0
 37
0.0
 40
179.50000000000045
 41
0.688564
 42
50.0
 43
0.0
 44
0.0
 50
0.0
 51
0.0
 71
               0
 72
             100
 73
               1
 74
               1
 75
               0
 76
               0
 77
               0
 78
               0
281
               0
 65
               0
110
0.0
120
0.0
130
0.0
111
1.0
121
0.0
131
0.0
112
0.0
122
1.0
132
0.0
345
0
346
0
 79
               0
146
0.0
  0
ENDTAB
  0
TABLE
  2
LTYPE
  5
4
100
AcDbSymbolTable
 70
              13
  0
LTYPE
  5
11
100
AcDbSymbolTableRecord
100
AcDbLinetypeTableRecord
  2
ByBlock
 70
              64
  3

 72
              65
 73
               0
 40
0.0
  0
LTYPE
  5
12
100
AcDbSymbolTableRecord
100
AcDbLinetypeTableRecord
  2
ByLayer
 70
              64
  3

 72
              65
 73
               0
 40
0.0
  0
LTYPE
  5
13
100
AcDbSymbolTableRecord
100
AcDbLinetypeTableRecord
  2
Continuous
 70
              64
  3
Solid line
 72
              65
 73
               0
 40
0.0
  0
LTYPE
  5
26
100
AcDbSymbolTableRecord
100
AcDbLinetypeTableRecord
  2
STYLE_01
 70
               0
  3

 72
              65
 73
               2
 40
0.4429133858267716
 49
0.2952755905511811
 74
               0
 49
-0.1476377952755905
 74
               0
  0
LTYPE
  5
27
100
AcDbSymbolTableRecord
100
AcDbLinetypeTableRecord
  2
STYLE_02
 70
               0
  3

 72
              65
 73
               2
 40
0.2214566929133858
 49
0.1476377952755905
 74
               0
 49
-0.0738188976377953
 74
               0
  0
LTYPE
  5
28
100
AcDbSymbolTableRecord
100
AcDbLinetypeTableRecord
  2
STYLE_03
 70
               0
  3

 72
              65
 73
               2
 40
0.1476377952755905
 49
0.0005
 74
               0
 49
-0.1471377952755906
 74
               0
  0
LTYPE
  5
29
100
AcDbSymbolTableRecord
100
AcDbLinetypeTableRecord
  2
STYLE_04
 70
               0
  3

 72
              65
 73
               4
 40
0.5905511811023622
 49
0.2952755905511811
 74
               0
 49
-0.1476377952755905
 74
               0
 49
0.0005
 74
               0
 49
-0.1471377952755906
 74
               0
  0
LTYPE
  5
2A
100
AcDbSymbolTableRecord
100
AcDbLinetypeTableRecord
  2
STYLE_05
 70
               0
  3

 72
              65
 73
               6
 40
0.7381889763779527
 49
0.2952755905511811
 74
               0
 49
-0.1476377952755905
 74
               0
 49
0.0005
 74
               0
 49
-0.1471377952755906
 74
               0
 49
0.0005
 74
               0
 49
-0.1471377952755905
 74
               0
  0
LTYPE
  5
2B
100
AcDbSymbolTableRecord
100
AcDbLinetypeTableRecord
  2
STYLE_06
 70
               0
  3

 72
              65
 73
               4
 40
1.0416400000000001
 49
0.625
 74
               0
 49
-0.20828
 74
               0
 49
0.06943
 74
               0
 49
-0.13893
 74
               0
  0
LTYPE
  5
2C
100
AcDbSymbolTableRecord
100
AcDbLinetypeTableRecord
  2
STYLE_07
 70
               0
  3

 72
              65
 73
               6
 40
1.875
 49
0.625
 74
               0
 49
-0.20828
 74
               0
 49
0.6250000000000001
 74
               0
 49
-0.2083599999999999
 74
               0
 49
0.06943
 74
               0
 49
-0.1389299999999999
 74
               0
  0
LTYPE
  5
2D
100
AcDbSymbolTableRecord
100
AcDbLinetypeTableRecord
  2
STYLE_08
 70
               0
  3

 72
              65
 73
               6
 40
1.25
 49
0.625
 74
               0
 49
-0.20828
 74
               0
 49
0.06943
 74
               0
 49
-0.13893
 74
               0
 49
0.0694299999999999
 74
               0
 49
-0.13893
 74
               0
  0
LTYPE
  5
2E
100
AcDbSymbolTableRecord
100
AcDbLinetypeTableRecord
  2
STYLE_09
 70
               0
  3

 72
              65
 73
               4
 40
5.0
 49
3.75
 74
               0
 49
-0.2777849999999998
 74
               0
 49
0.6944300000000003
 74
               0
 49
-0.2777849999999998
 74
               0
  0
LTYPE
  5
2F
100
AcDbSymbolTableRecord
100
AcDbLinetypeTableRecord
  2
STYLE_10
 70
               0
  3

 72
              65
 73
               6
 40
5.9375
 49
3.75
 74
               0
 49
-0.2777849999999998
 74
               0
 49
0.6944300000000003
 74
               0
 49
-0.2777849999999998
 74
               0
 49
0.625
 74
               0
 49
-0.3125
 74
               0
  0
ENDTAB
  0
TABLE
  2
LAYER
  5
2
100
AcDbSymbolTable
 70
               8
  0
LAYER
  5
14
100
AcDbSymbolTableRecord
100
AcDbLayerTableRecord
  2
0
 70
               0
 62
               7
  6
Continuous
290
               1
370
              15
390
1D
  0
LAYER
  5
30
100
AcDbSymbolTableRecord
100
AcDbLayerTableRecord
  2
Defpoints
 70
               0
 62
               7
  6
Continuous
290
               0
370
              -3
390
1D
  0
LAYER
  5
31
100
AcDbSymbolTableRecord
100
AcDbLayerTableRecord
  2
一般
 70
               0
 62
               7
  6
Continuous
290
               1
370
               5
390
1D
  0
LAYER
  5
32
100
AcDbSymbolTableRecord
100
AcDbLayerTableRecord
  2
寸法
 70
               0
 62
               7
  6
Continuous
290
               1
370
               5
390
1D
  0
LAYER
  5
33
100
AcDbSymbolTableRecord
100
AcDbLayerTableRecord
  2
1
 70
               0
 62
               7
  6
Continuous
290
               1
370
              15
390
1D
  0
LAYER
  5
34
100
AcDbSymbolTableRecord
100
AcDbLayerTableRecord
  2
17
 70
               0
 62
               7
  6
Continuous
290
               1
370
              15
390
1D
  0
LAYER
  5
35
100
AcDbSymbolTableRecord
100
AcDbLayerTableRecord
  2
33
 70
               0
 62
               7
  6
Continuous
290
               1
370
              15
390
1D
  0
LAYER
  5
36
100
AcDbSymbolTableRecord
100
AcDbLayerTableRecord
  2
実形
 70
               0
 62
               7
  6
Continuous
290
               1
370
              18
390
1D
  0
ENDTAB
  0
TABLE
  2
STYLE
  5
3
100
AcDbSymbolTable
 70
               3
  0
STYLE
  5
17
100
AcDbSymbolTableRecord
100
AcDbTextStyleTableRecord
  2
Standard
 70
               0
 40
0.0
 41
1.0
 50
0.0
 71
               0
 42
0.0
  3
txt
  4
BIGFONT.SHX
  0
STYLE
  5
24
100
AcDbSymbolTableRecord
100
AcDbTextStyleTableRecord
  2
Arial
 70
               0
 40
0.0
 41
1.0
 50
0.0
 71
               0
 42
0.0
  3
Arial
  4

1001
ACAD
1000
Arial
1071
        0
  0
STYLE
  5
25
100
AcDbSymbolTableRecord
100
AcDbTextStyleTableRecord
  2
ＭＳ ゴシック
 70
               0
 40
0.0
 41
1.0
 50
0.0
 71
               0
 42
0.0
  3
ＭＳ ゴシック
  4

1001
ACAD
1000
ＭＳ ゴシック
1071
        0
  0
ENDTAB
  0
TABLE
  2
VIEW
  5
5
100
AcDbSymbolTable
 70
               0
  0
ENDTAB
  0
TABLE
  2
UCS
  5
6
100
AcDbSymbolTable
 70
               0
  0
ENDTAB
  0
TABLE
  2
APPID
  5
8
100
AcDbSymbolTable
 70
               1
  0
APPID
  5
16
100
AcDbSymbolTableRecord
100
AcDbRegAppTableRecord
  2
ACAD
 70
               0
  0
ENDTAB
  0
TABLE
  2
DIMSTYLE
  5
9
100
AcDbSymbolTable
 70
               1
100
AcDbDimStyleTable
 71
               0
  0
DIMSTYLE
105
18
100
AcDbSymbolTableRecord
100
AcDbDimStyleTableRecord
  2
Standard
 70
               0
  3

  4

 40
1.0
 41
0.18
 42
0.0625
 43
0.38
 44
0.18
 45
0.0
 46
0.0
 47
0.0
 48
0.0
 71
               0
 72
               0
 73
               1
 74
               1
 75
               0
 76
               0
 77
               0
 78
               0
 79
               0
140
0.18
141
0.09
142
0.0
143
25.399999999999999
144
1.0
145
0.0
146
1.0
147
0.09
148
0.0
170
               0
171
               2
172
               0
173
               0
174
               0
175
               0
176
               0
177
               0
178
               0
179
               0
271
               4
272
               4
273
               2
274
               2
275
               0
276
               0
277
               2
278
              46
279
               0
280
               0
281
               0
282
               0
283
               1
284
               0
285
               0
286
               0
288
               0
340
17
341
0
342
0
343
0
344
0
371
              -2
372
              -2
  0
ENDTAB
  0
TABLE
  2
BLOCK_RECORD
  5
1
100
AcDbSymbolTable
 70
               0
  0
BLOCK_RECORD
  5
A
100
AcDbSymbolTableRecord
100
AcDbBlockTableRecord
  2
*MODEL_SPACE
340
20
  0
BLOCK_RECORD
  5
B
100
AcDbSymbolTableRecord
100
AcDbBlockTableRecord
  2
*PAPER_SPACE
340
21
  0
ENDTAB
  0
ENDSEC
  0
SECTION
  2
BLOCKS
  0
BLOCK
  5
D
100
AcDbEntity
  8
0
100
AcDbBlockBegin
  2
*MODEL_SPACE
 70
               0
 10
0.0
 20
0.0
 30
0.0
  3
*MODEL_SPACE
  1

  0
ENDBLK
  5
E
100
AcDbEntity
  8
0
100
AcDbBlockEnd
  0
BLOCK
  5
F
100
AcDbEntity
 67
               1
  8
0
100
AcDbBlockBegin
  2
*PAPER_SPACE
 70
               0
 10
0.0
 20
0.0
 30
0.0
  3
*PAPER_SPACE
  1

  0
ENDBLK
  5
10
100
AcDbEntity
 67
               1
  8
0
100
AcDbBlockEnd
  0
ENDSEC
  0
SECTION
  2
ENTITIES
  0
MTEXT
  5
37
100
AcDbEntity
  8
17
 62
               7
100
AcDbMText
 10
4142.8411351049499
 20
1428.4340647334375
 30
0.0
 40
3.0
 41
0.0
 71
               5
 72
               1
  1
1) 材質はＳＵＳ３０４とする。
  7
ＭＳ ゴシック
 73
               1
 44
0.7828267384257842
  0
MTEXT
  5
38
100
AcDbEntity
  8
17
 62
               7
100
AcDbMText
 10
4138.942659669905
 20
1421.7656687373437
 30
0.0
 40
3.0
 41
0.0
 71
               5
 72
               1
  1
2) 板厚はｔ０．７とする。
  7
ＭＳ ゴシック
 73
               1
 44
0.7828267384257842
  0
MTEXT
  5
39
100
AcDbEntity
  8
17
 62
               7
100
AcDbMText
 10
4154.5365694845277
 20
1414.3322031611717
 30
0.0
 40
3.0
 41
0.0
 71
               5
 72
               1
  1
3) 表面仕様はBA材をプレスしたままとする。
  7
ＭＳ ゴシック
 73
               1
 44
0.7828267384257842
  0
LINE
  5
3A
100
AcDbEntity
  8
33
370
              15
  6
STYLE_04
 62
               7
100
AcDbLine
 10
4027.7722403644357
 20
1477.4099235852789
 30
0.0
 11
4027.7722403644357
 21
1524.4099235852789
 31
0.0
  0
LINE
  5
3B
100
AcDbEntity
  8
33
370
              15
  6
STYLE_04
 62
               7
100
AcDbLine
 10
3986.7722403644357
 20
1500.9099235852789
 30
0.0
 11
4068.7722403644366
 21
1500.9099235852789
 31
0.0
  0
ARC
  5
3C
100
AcDbEntity
  8
33
370
              15
  6
Continuous
 62
               7
100
AcDbCircle
 10
4027.7722403644357
 20
1020.9099235852789
 30
0.0
 40
500.0
100
AcDbArc
 50
86.600214859199966
 51
93.39978514080002
  0
ARC
  5
3D
100
AcDbEntity
  8
33
370
              15
  6
Continuous
 62
               7
100
AcDbCircle
 10
4027.7722403644357
 20
1980.9099235852789
 30
0.0
 40
500.0
100
AcDbArc
 50
266.60021485919901
 51
273.39978514080008
  0
ARC
  5
3E
100
AcDbEntity
  8
33
370
              15
  6
Continuous
 62
               7
100
AcDbCircle
 10
4190.2722403644357
 20
1500.9099235852789
 30
0.0
 40
200.00000000000028
100
AcDbArc
 50
176.67554530369901
 51
183.32445469630096
  0
ARC
  5
3F
100
AcDbEntity
  8
33
370
              15
  6
Continuous
 62
               7
100
AcDbCircle
 10
3865.2722403644357
 20
1500.9099235852789
 30
0.0
 40
200.00000000000054
100
AcDbArc
 50
356.67554530369904
 51
3.324454696301018
  0
ARC
  5
40
100
AcDbEntity
  8
33
370
              15
  6
Continuous
 62
               7
100
AcDbCircle
 10
3998.5953463179762
 20
1512.0440283405908
 30
0.0
 40
8.0000000000000107
100
AcDbArc
 50
93.399785140800944
 51
176.67554530369898
  0
ARC
  5
41
100
AcDbEntity
  8
33
370
              15
  6
Continuous
 62
               7
100
AcDbCircle
 10
4056.949134410896
 20
1512.0440283405908
 30
0.0
 40
8.0000000000001119
100
AcDbArc
 50
3.3244546963009705
 51
86.600214859198999
  0
ARC
  5
42
100
AcDbEntity
  8
33
370
              15
  6
Continuous
 62
               7
100
AcDbCircle
 10
4056.949134410896
 20
1489.775818829967
 30
0.0
 40
7.9999999999999947
100
AcDbArc
 50
273.39978514079905
 51
356.67554530369898
  0
ARC
  5
43
100
AcDbEntity
  8
33
370
              15
  6
Continuous
 62
               7
100
AcDbCircle
 10
3998.5953463179762
 20
1489.775818829967
 30
0.0
 40
8.0000000000000107
100
AcDbArc
 50
183.32445469630099
 51
266.60021485919691
  0
ARC
  5
44
100
AcDbEntity
  8
33
370
              15
  6
Continuous
 62
               7
100
AcDbCircle
 10
4027.7722403644357
 20
1020.9099235852789
 30
0.0
 40
501.5
100
AcDbArc
 50
86.600214859199966
 51
93.39978514080002
  0
ARC
  5
45
100
AcDbEntity
  8
33
370
              15
  6
Continuous
 62
               7
100
AcDbCircle
 10
4056.949134410896
 20
1512.0440283405908
 30
0.0
 40
9.5000000000001315
100
AcDbArc
 50
3.3244546963009025
 51
86.600214859199923
  0
ARC
  5
46
100
AcDbEntity
  8
33
370
              15
  6
Continuous
 62
               7
100
AcDbCircle
 10
3865.2722403644357
 20
1500.9099235852789
 30
0.0
 40
201.50000000000054
100
AcDbArc
 50
356.67554530369904
 51
3.324454696301018
  0
ARC
  5
47
100
AcDbEntity
  8
33
370
              15
  6
Continuous
 62
               7
100
AcDbCircle
 10
4056.949134410896
 20
1489.775818829967
 30
0.0
 40
9.5000000000000036
100
AcDbArc
 50
273.39978514080008
 51
356.67554530369898
  0
ARC
  5
48
100
AcDbEntity
  8
33
370
              15
  6
Continuous
 62
               7
100
AcDbCircle
 10
4027.7722403644357
 20
1980.9099235852789
 30
0.0
 40
501.5
100
AcDbArc
 50
266.60021485919992
 51
273.39978514080008
  0
ARC
  5
49
100
AcDbEntity
  8
33
370
              15
  6
Continuous
 62
               7
100
AcDbCircle
 10
3998.5953463179762
 20
1489.775818829967
 30
0.0
 40
9.5000000000000071
100
AcDbArc
 50
183.32445469630099
 51
266.60021485919981
  0
ARC
  5
4A
100
AcDbEntity
  8
33
370
              15
  6
Continuous
 62
               7
100
AcDbCircle
 10
4190.2722403644357
 20
1500.9099235852789
 30
0.0
 40
201.50000000000028
100
AcDbArc
 50
176.67554530369901
 51
183.32445469630096
  0
ARC
  5
4B
100
AcDbEntity
  8
33
370
              15
  6
Continuous
 62
               7
100
AcDbCircle
 10
3998.5953463179762
 20
1512.0440283405908
 30
0.0
 40
9.4999999999999893
100
AcDbArc
 50
93.399785140801015
 51
176.67554530369904
  0
LINE
  5
4C
100
AcDbEntity
  8
33
370
              15
  6
STYLE_04
 62
               7
100
AcDbLine
 10
4050.9722403644359
 20
1488.9099235852789
 30
0.0
 11
4050.9722403644359
 21
1512.9099235852789
 31
0.0
  0
CIRCLE
  5
4D
100
AcDbEntity
  8
33
370
              15
  6
Continuous
 62
               7
100
AcDbCircle
 10
4050.9722403644359
 20
1500.9099235852789
 30
0.0
 40
7.9500000000000801
  0
CIRCLE
  5
4E
100
AcDbEntity
  8
33
370
              15
  6
Continuous
 62
               7
100
AcDbCircle
 10
4050.9722403644359
 20
1500.9099235852789
 30
0.0
 40
9.0500000000000966
  0
LINE
  5
4F
100
AcDbEntity
  8
33
370
              15
  6
Continuous
 62
               7
100
AcDbLine
 10
4027.7697690634154
 20
1518.9466742230341
 30
0.0
 11
4022.7697690634154
 21
1518.9466742230341
 31
0.0
  0
LINE
  5
50
100
AcDbEntity
  8
33
370
              15
  6
Continuous
 62
               7
100
AcDbLine
 10
4022.7697690634154
 20
1518.9466742230341
 30
0.0
 11
4025.7697690634154
 21
1517.9466742230341
 31
0.0
  0
LINE
  5
51
100
AcDbEntity
  8
33
370
              15
  6
Continuous
 62
               7
100
AcDbLine
 10
4025.7697690634154
 20
1517.9466742230341
 30
0.0
 11
4025.7697690634154
 21
1519.4466742230341
 31
0.0
  0
LINE
  5
52
100
AcDbEntity
  8
33
370
              15
  6
Continuous
 62
               7
100
AcDbLine
 10
4027.7697690634154
 20
1524.42196121283
 30
0.0
 11
4022.7697690634154
 21
1524.42196121283
 31
0.0
  0
LINE
  5
53
100
AcDbEntity
  8
33
370
              15
  6
Continuous
 62
               7
100
AcDbLine
 10
4022.7697690634154
 20
1524.42196121283
 30
0.0
 11
4025.7697690634154
 21
1525.42196121283
 31
0.0
  0
LINE
  5
54
100
AcDbEntity
  8
33
370
              15
  6
Continuous
 62
               7
100
AcDbLine
 10
4025.7697690634154
 20
1525.42196121283
 30
0.0
 11
4025.7697690634154
 21
1523.92196121283
 31
0.0
  0
LINE
  5
55
100
AcDbEntity
  8
33
370
              15
  6
Continuous
 62
               7
100
AcDbLine
 10
4063.0274323287222
 20
1500.934405728136
 30
0.0
 11
4063.0274323287222
 21
1505.934405728136
 31
0.0
  0
LINE
  5
56
100
AcDbEntity
  8
33
370
              15
  6
Continuous
 62
               7
100
AcDbLine
 10
4063.0274323287222
 20
1505.934405728136
 30
0.0
 11
4062.0274323287222
 21
1502.934405728136
 31
0.0
  0
LINE
  5
57
100
AcDbEntity
  8
33
370
              15
  6
Continuous
 62
               7
100
AcDbLine
 10
4062.0274323287222
 20
1502.934405728136
 30
0.0
 11
4063.5274323287222
 21
1502.934405728136
 31
0.0
  0
LINE
  5
58
100
AcDbEntity
  8
33
370
              15
  6
Continuous
 62
               7
100
AcDbLine
 10
4068.6599100072935
 20
1500.934405728136
 30
0.0
 11
4068.6599100072935
 21
1505.934405728136
 31
0.0
  0
LINE
  5
59
100
AcDbEntity
  8
33
370
              15
  6
Continuous
 62
               7
100
AcDbLine
 10
4068.6599100072935
 20
1505.934405728136
 30
0.0
 11
4069.6599100072935
 21
1502.934405728136
 31
0.0
  0
LINE
  5
5A
100
AcDbEntity
  8
33
370
              15
  6
Continuous
 62
               7
100
AcDbLine
 10
4069.6599100072935
 20
1502.934405728136
 30
0.0
 11
4068.1599100072935
 21
1502.934405728136
 31
0.0
  0
LINE
  5
5B
100
AcDbEntity
  8
33
370
              15
  6
Continuous
 62
               7
100
AcDbLine
 10
4050.9722403644359
 20
1529.7492092995647
 30
0.0
 11
4065.2722403644361
 21
1529.7492092995647
 31
0.0
  0
LINE
  5
5C
100
AcDbEntity
  8
33
370
              15
  6
Continuous
 62
               7
100
AcDbLine
 10
4050.9722403644359
 20
1529.7492092995647
 30
0.0
 11
4052.9040920170141
 21
1530.2668473897697
 31
0.0
  0
LINE
  5
5D
100
AcDbEntity
  8
33
370
              15
  6
Continuous
 62
               7
100
AcDbLine
 10
4050.9722403644359
 20
1529.7492092995647
 30
0.0
 11
4052.9040920170141
 21
1529.2315712093596
 31
0.0
  0
LINE
  5
5E
100
AcDbEntity
  8
33
370
              15
  6
Continuous
 62
               7
100
AcDbLine
 10
4065.2722403644361
 20
1529.7492092995647
 30
0.0
 11
4063.3403887118584
 21
1529.2315712093596
 31
0.0
  0
LINE
  5
5F
100
AcDbEntity
  8
33
370
              15
  6
Continuous
 62
               7
100
AcDbLine
 10
4065.2722403644361
 20
1529.7492092995647
 30
0.0
 11
4063.3403887118584
 21
1530.2668473897697
 31
0.0
  0
LINE
  5
60
100
AcDbEntity
  8
33
370
              15
  6
Continuous
 62
               7
100
AcDbLine
 10
4050.9722403644359
 20
1513.4099235852789
 30
0.0
 11
4050.9722403644359
 21
1530.2492092995647
 31
0.0
  0
LINE
  5
61
100
AcDbEntity
  8
33
370
              15
  6
Continuous
 62
               7
100
AcDbLine
 10
4065.2722403644361
 20
1501.4099235852789
 30
0.0
 11
4065.2722403644361
 21
1530.2492092995647
 31
0.0
  0
MTEXT
  5
62
100
AcDbEntity
  8
33
 62
               7
100
AcDbMText
 10
4058.1222386202257
 20
1532.2492197627341
 30
0.0
 40
2.0
 41
0.0
 71
               2
 72
               1
  1
143±1
  7
ＭＳ ゴシック
 11
1.0
 21
0.0000000001745329
 31
0.0
 73
               1
 44
0.7828267384257843
  0
LINE
  5
63
100
AcDbEntity
  8
33
370
              15
  6
Continuous
 62
               7
100
AcDbLine
 10
4076.234293935865
 20
1500.9099235852789
 30
0.0
 11
4076.234293935865
 21
1520.9099235852789
 31
0.0
  0
LINE
  5
64
100
AcDbEntity
  8
33
370
              15
  6
Continuous
 62
               7
100
AcDbLine
 10
4076.234293935865
 20
1500.9099235852789
 30
0.0
 11
4075.7166558456602
 21
1502.8417752378571
 31
0.0
  0
LINE
  5
65
100
AcDbEntity
  8
33
370
              15
  6
Continuous
 62
               7
100
AcDbLine
 10
4076.234293935865
 20
1500.9099235852789
 30
0.0
 11
4076.7519320260703
 21
1502.8417752378571
 31
0.0
  0
LINE
  5
66
100
AcDbEntity
  8
33
370
              15
  6
Continuous
 62
               7
100
AcDbLine
 10
4076.234293935865
 20
1520.9099235852789
 30
0.0
 11
4076.7519320260703
 21
1518.9780719327007
 31
0.0
  0
LINE
  5
67
100
AcDbEntity
  8
33
370
              15
  6
Continuous
 62
               7
100
AcDbLine
 10
4076.234293935865
 20
1520.9099235852789
 30
0.0
 11
4075.7166558456602
 21
1518.9780719327007
 31
0.0
  0
LINE
  5
68
100
AcDbEntity
  8
33
370
              15
  6
Continuous
 62
               7
100
AcDbLine
 10
4069.2722403644366
 20
1500.9099235852789
 30
0.0
 11
4076.734293935865
 21
1500.9099235852789
 31
0.0
  0
LINE
  5
69
100
AcDbEntity
  8
33
370
              15
  6
Continuous
 62
               7
100
AcDbLine
 10
4028.2722403644357
 20
1520.9099235852789
 30
0.0
 11
4076.734293935865
 21
1520.9099235852789
 31
0.0
  0
MTEXT
  5
6A
100
AcDbEntity
  8
33
 62
               7
100
AcDbMText
 10
4073.7342869604186
 20
1510.9099253291404
 30
0.0
 40
2.0
 41
0.0
 71
               2
 72
               1
  1
200±1
  7
ＭＳ ゴシック
 11
0.0
 21
1.0
 31
0.0
 73
               1
 44
0.7828267384257843
  0
MTEXT
  5
6B
100
AcDbEntity
  8
33
 62
               7
100
AcDbMText
 10
4019.7662815893241
 20
1518.8000742549218
 30
0.0
 40
3.0
 41
0.0
 71
               5
 72
               1
  1
A
  7
ＭＳ ゴシック
 11
0.0
 21
1.0
 31
0.0
 73
               1
 44
0.7828267384257842
  0
MTEXT
  5
6C
100
AcDbEntity
  8
33
 62
               7
100
AcDbMText
 10
4019.8386265600275
 20
1524.8047373408592
 30
0.0
 40
3.0
 41
0.0
 71
               5
 72
               1
  1
A
  7
ＭＳ ゴシック
 11
0.0
 21
1.0
 31
0.0
 73
               1
 44
0.7828267384257842
  0
MTEXT
  5
6D
100
AcDbEntity
  8
33
 62
               7
100
AcDbMText
 10
4062.8242039526058
 20
1509.2877695674217
 30
0.0
 40
3.0
 41
0.0
 71
               5
 72
               1
  1
B
  7
ＭＳ ゴシック
 73
               1
 44
0.7828267384257842
  0
MTEXT
  5
6E
100
AcDbEntity
  8
33
 62
               7
100
AcDbMText
 10
4068.9542576635436
 20
1509.1587168330468
 30
0.0
 40
3.0
 41
0.0
 71
               5
 72
               1
  1
B
  7
ＭＳ ゴシック
 73
               1
 44
0.7828267384257842
  0
LINE
  5
6F
100
AcDbEntity
  8
33
370
              15
  6
Continuous
 62
               7
100
AcDbLine
 10
3991.5262553268876
 20
1483.4293274717668
 30
0.0
 11
3997.6698806705581
 21
1488.9449539081472
 31
0.0
  0
LINE
  5
70
100
AcDbEntity
  8
33
370
              15
  6
Continuous
 62
               7
100
AcDbLine
 10
3991.5262553268876
 20
1483.4293274717668
 30
0.0
 11
3992.6179657950133
 21
1485.1050864800327
 31
0.0
  0
LINE
  5
71
100
AcDbEntity
  8
33
370
              15
  6
Continuous
 62
               7
100
AcDbLine
 10
3991.5262553268876
 20
1483.4293274717668
 30
0.0
 11
3993.3095838299951
 21
1484.3347221094825
 31
0.0
  0
MTEXT
  5
72
100
AcDbEntity
  8
33
 62
               7
100
AcDbMText
 10
3993.7117760287629
 20
1489.0454145175888
 30
0.0
 40
2.0
 41
0.0
 71
               2
 72
               1
  1
R105
  7
ＭＳ ゴシック
 11
0.7441148334819622
 21
0.6680517304761
 31
0.0
 73
               1
 44
0.7828267384257843
  0
LINE
  5
73
100
AcDbEntity
  8
33
370
              15
  6
Continuous
 62
               7
100
AcDbLine
 10
3992.7960101101471
 20
1517.5547179116484
 30
0.0
 11
3997.4317987190275
 21
1513.1496634321204
 31
0.0
  0
LINE
  5
74
100
AcDbEntity
  8
33
370
              15
  6
Continuous
 62
               7
100
AcDbLine
 10
3992.7960101101471
 20
1517.5547179116484
 30
0.0
 11
3994.5530101179252
 21
1516.5992332321964
 31
0.0
  0
LINE
  5
75
100
AcDbEntity
  8
33
370
              15
  6
Continuous
 62
               7
100
AcDbLine
 10
3992.7960101101471
 20
1517.5547179116484
 30
0.0
 11
3993.8398744116066
 21
1515.848743902427
 31
0.0
  0
MTEXT
  5
76
100
AcDbEntity
  8
33
 62
               7
100
AcDbMText
 10
3997.4596675142025
 20
1516.5244322030726
 30
0.0
 40
2.0
 41
0.0
 71
               2
 72
               1
  1
R90
  7
ＭＳ ゴシック
 11
0.7249170111848394
 21
-0.6888362119508812
 31
0.0
 73
               1
 44
0.7828267384257843
  0
LINE
  5
77
100
AcDbEntity
  8
33
370
              15
  6
Continuous
 62
               7
100
AcDbLine
 10
4022.3170054668872
 20
1480.9396840587519
 30
0.0
 11
4022.4343497394357
 21
1491.6942427817075
 31
0.0
  0
LINE
  5
78
100
AcDbEntity
  8
33
370
              15
  6
Continuous
 62
               7
100
AcDbLine
 10
4022.3170054668872
 20
1480.9396840587519
 30
0.0
 11
4021.8204755960955
 21
1482.8770684004385
 31
0.0
  0
LINE
  5
79
100
AcDbEntity
  8
33
370
              15
  6
Continuous
 62
               7
100
AcDbLine
 10
4022.3170054668872
 20
1480.9396840587519
 30
0.0
 11
4022.8556901558868
 21
1482.8657730509424
 31
0.0
  0
LINE
  5
7A
100
AcDbEntity
  8
33
370
              15
  6
Continuous
 62
               7
100
AcDbLine
 10
4022.4343497394357
 20
1491.6942427817075
 30
0.0
 11
4024.1101309894357
 21
1483.0759392102789
 31
0.0
  0
LINE
  5
7B
100
AcDbEntity
  8
33
370
              15
  6
Continuous
 62
               7
100
AcDbLine
 10
4024.1101309894357
 20
1483.0759392102789
 30
0.0
 11
4024.8283229537215
 21
1497.2003811745647
 31
0.0
  0
MTEXT
  5
7C
100
AcDbEntity
  8
33
 62
               7
100
AcDbMText
 10
4019.8826726042757
 20
1487.241829313346
 30
0.0
 40
2.0
 41
0.0
 71
               2
 72
               1
  1
R5000
  7
ＭＳ ゴシック
 11
0.0109104881965397
 21
0.9999404788522731
 31
0.0
 73
               1
 44
0.7828267384257843
  0
LINE
  5
7D
100
AcDbEntity
  8
33
370
              15
  6
Continuous
 62
               7
100
AcDbLine
 10
3990.3071968923946
 20
1504.6490931755411
 30
0.0
 11
4001.127988132293
 21
1504.4467539424218
 31
0.0
  0
LINE
  5
7E
100
AcDbEntity
  8
33
370
              15
  6
Continuous
 62
               7
100
AcDbLine
 10
3990.3071968923946
 20
1504.6490931755411
 30
0.0
 11
3992.2483885738698
 21
1505.130523186833
 31
0.0
  0
LINE
  5
7F
100
AcDbEntity
  8
33
370
              15
  6
Continuous
 62
               7
100
AcDbLine
 10
3990.3071968923946
 20
1504.6490931755411
 30
0.0
 11
3992.2290332078132
 21
1504.0954279547268
 31
0.0
  0
LINE
  5
80
100
AcDbEntity
  8
33
370
              15
  6
Continuous
 62
               7
100
AcDbLine
 10
4001.127988132293
 20
1504.4467539424218
 30
0.0
 11
3991.5152649180072
 21
1503.4523342995647
 31
0.0
  0
LINE
  5
81
100
AcDbEntity
  8
33
370
              15
  6
Continuous
 62
               7
100
AcDbLine
 10
3991.5152649180072
 20
1503.4523342995647
 30
0.0
 11
4004.4427202751499
 21
1502.8722561745647
 31
0.0
  0
MTEXT
  5
82
100
AcDbEntity
  8
33
 62
               7
100
AcDbMText
 10
3996.8147939936475
 20
1507.0679131642796
 30
0.0
 40
2.0
 41
0.0
 71
               2
 72
               1
  1
R2000
  7
ＭＳ ゴシック
 11
0.9998252163976482
 21
-0.0186958994273031
 31
0.0
 73
               1
 44
0.7828267384257843
  0
LINE
  5
83
100
AcDbEntity
  8
33
370
              15
  6
Continuous
 62
               7
100
AcDbLine
 10
4109.1919688450835
 20
1479.4099235852789
 30
0.0
 11
4109.1919688450835
 21
1480.4099235852789
 31
0.0
  0
LINE
  5
84
100
AcDbEntity
  8
33
370
              15
  6
Continuous
 62
               7
100
AcDbLine
 10
4109.6919688450835
 20
1480.9099235852789
 30
0.0
 11
4124.7518521229304
 21
1480.9099235852789
 31
0.0
  0
LINE
  5
85
100
AcDbEntity
  8
33
370
              15
  6
Continuous
 62
               7
100
AcDbLine
 10
4128.1919688450835
 20
1491.8599235852789
 30
0.0
 11
4128.1919688450835
 21
1509.9599235852784
 31
0.0
  0
LINE
  5
86
100
AcDbEntity
  8
33
370
              15
  6
Continuous
 62
               7
100
AcDbLine
 10
4124.7518521229304
 20
1520.9099235852789
 30
0.0
 11
4109.6919688450835
 21
1520.9099235852789
 31
0.0
  0
LINE
  5
87
100
AcDbEntity
  8
33
370
              15
  6
STYLE_04
 62
               7
100
AcDbLine
 10
4107.7004589598801
 20
1500.9099235852789
 30
0.0
 11
4130.714170694574
 21
1500.9099235852789
 31
0.0
  0
LINE
  5
88
100
AcDbEntity
  8
33
370
              15
  6
Continuous
 62
               7
100
AcDbLine
 10
4128.1919688450835
 20
1491.8599235852789
 30
0.0
 11
4128.8919688450842
 21
1491.8599235852789
 31
0.0
  0
LINE
  5
89
100
AcDbEntity
  8
33
370
              15
  6
Continuous
 62
               7
100
AcDbLine
 10
4128.8919688450842
 20
1491.8599235852789
 30
0.0
 11
4128.8919688450842
 21
1509.9599235852788
 31
0.0
  0
LINE
  5
8A
100
AcDbEntity
  8
33
370
              15
  6
Continuous
 62
               7
100
AcDbLine
 10
4128.8919688450842
 20
1509.9599235852788
 30
0.0
 11
4128.1919688450835
 21
1509.9599235852788
 31
0.0
  0
LINE
  5
8B
100
AcDbEntity
  8
33
370
              15
  6
Continuous
 62
               7
100
AcDbLine
 10
4127.7473585798725
 20
1483.7457862451724
 30
0.0
 11
4128.1919688450835
 21
1491.8599235852789
 31
0.0
  0
LINE
  5
8C
100
AcDbEntity
  8
33
370
              15
  6
Continuous
 62
               7
100
AcDbLine
 10
4127.7473585798725
 20
1518.0740609253853
 30
0.0
 11
4128.1919688450835
 21
1509.9599235852788
 31
0.0
  0
ARC
  5
8D
100
AcDbEntity
  8
33
370
              15
  6
Continuous
 62
               7
100
AcDbCircle
 10
4124.7518521229304
 20
1517.9099235852789
 30
0.0
 40
2.9999999999999671
100
AcDbArc
 50
3.1363583683328198
 51
90.0
  0
ARC
  5
8E
100
AcDbEntity
  8
33
370
              15
  6
Continuous
 62
               7
100
AcDbCircle
 10
4124.7518521229304
 20
1483.9099235852789
 30
0.0
 40
3.0
100
AcDbArc
 50
270.0
 51
356.86364163166701
  0
LINE
  5
8F
100
AcDbEntity
  8
33
370
              15
  6
Continuous
 62
               7
100
AcDbLine
 10
4109.1919688450835
 20
1521.4099235852789
 30
0.0
 11
4109.1919688450835
 21
1522.4099235852789
 31
0.0
  0
ARC
  5
90
100
AcDbEntity
  8
33
370
              15
  6
Continuous
 62
               7
100
AcDbCircle
 10
4109.6919688450835
 20
1480.4099235852789
 30
0.0
 40
0.5
100
AcDbArc
 50
90.0
 51
180.0
  0
ARC
  5
91
100
AcDbEntity
  8
33
370
              15
  6
Continuous
 62
               7
100
AcDbCircle
 10
4109.6919688450835
 20
1521.4099235852789
 30
0.0
 40
0.5000000000000057
100
AcDbArc
 50
180.0
 51
270.0
  0
LINE
  5
92
100
AcDbEntity
  8
33
370
              15
  6
Continuous
 62
               7
100
AcDbLine
 10
4109.1919688450835
 20
1480.4099235852789
 30
0.0
 11
4109.1919688450835
 21
1522.2320696311972
 31
0.0
  0
LINE
  5
93
100
AcDbEntity
  8
33
370
              15
  6
Continuous
 62
               7
100
AcDbLine
 10
4109.2919688450838
 20
1479.4099235852789
 30
0.0
 11
4109.2919688450838
 21
1480.4099235852789
 31
0.0
  0
ARC
  5
94
100
AcDbEntity
  8
33
370
              15
  6
Continuous
 62
               7
100
AcDbCircle
 10
4109.6919688450835
 20
1480.4099235852789
 30
0.0
 40
0.4
100
AcDbArc
 50
90.0
 51
180.0
  0
LINE
  5
95
100
AcDbEntity
  8
33
370
              15
  6
Continuous
 62
               7
100
AcDbLine
 10
4109.6919688450835
 20
1480.8099235852787
 30
0.0
 11
4124.7518521229304
 21
1480.8099235852787
 31
0.0
  0
ARC
  5
96
100
AcDbEntity
  8
33
370
              15
  6
Continuous
 62
               7
100
AcDbCircle
 10
4124.7518521229304
 20
1483.9099235852789
 30
0.0
 40
3.1000000000000001
100
AcDbArc
 50
270.0
 51
356.86364163166803
  0
LINE
  5
97
100
AcDbEntity
  8
33
370
              15
  6
Continuous
 62
               7
100
AcDbLine
 10
4127.8472087951041
 20
1483.7403150005023
 30
0.0
 11
4128.2866394024886
 21
1491.7599235852788
 31
0.0
  0
LINE
  5
98
100
AcDbEntity
  8
33
370
              15
  6
Continuous
 62
               7
100
AcDbLine
 10
4128.2866394024886
 20
1491.7599235852788
 30
0.0
 11
4128.9919688450836
 21
1491.7599235852788
 31
0.0
  0
LINE
  5
99
100
AcDbEntity
  8
33
370
              15
  6
Continuous
 62
               7
100
AcDbLine
 10
4128.9919688450836
 20
1491.7599235852788
 30
0.0
 11
4128.9919688450836
 21
1510.059923585279
 31
0.0
  0
LINE
  5
9A
100
AcDbEntity
  8
33
370
              15
  6
Continuous
 62
               7
100
AcDbLine
 10
4128.9919688450836
 20
1510.059923585279
 30
0.0
 11
4128.2866394024886
 21
1510.059923585279
 31
0.0
  0
LINE
  5
9B
100
AcDbEntity
  8
33
370
              15
  6
Continuous
 62
               7
100
AcDbLine
 10
4128.2866394024886
 20
1510.059923585279
 30
0.0
 11
4127.8472087951041
 21
1518.0795321700555
 31
0.0
  0
ARC
  5
9C
100
AcDbEntity
  8
33
370
              15
  6
Continuous
 62
               7
100
AcDbCircle
 10
4124.7518521229304
 20
1517.9099235852789
 30
0.0
 40
3.0999999999999726
100
AcDbArc
 50
3.1363583683330933
 51
90.0
  0
LINE
  5
9D
100
AcDbEntity
  8
33
370
              15
  6
Continuous
 62
               7
100
AcDbLine
 10
4124.7518521229304
 20
1521.0099235852788
 30
0.0
 11
4109.6919688450835
 21
1521.0099235852788
 31
0.0
  0
ARC
  5
9E
100
AcDbEntity
  8
33
370
              15
  6
Continuous
 62
               7
100
AcDbCircle
 10
4109.6919688450835
 20
1521.4099235852789
 30
0.0
 40
0.4000000000000057
100
AcDbArc
 50
180.0
 51
270.0
  0
LINE
  5
9F
100
AcDbEntity
  8
33
370
              15
  6
Continuous
 62
               7
100
AcDbLine
 10
4109.2919688450838
 20
1521.4099235852789
 30
0.0
 11
4109.2919688450838
 21
1522.2320696311972
 31
0.0
  0
LINE
  5
A0
100
AcDbEntity
  8
33
370
              15
  6
Continuous
 62
               7
100
AcDbLine
 10
4104.4105992660025
 20
1505.6912931643606
 30
0.0
 11
4123.4105992660025
 21
1505.6912931643606
 31
0.0
  0
LINE
  5
A1
100
AcDbEntity
  8
33
370
              15
  6
Continuous
 62
               7
100
AcDbLine
 10
4104.4105992660025
 20
1505.6912931643606
 30
0.0
 11
4106.3424509185807
 21
1506.2089312545656
 31
0.0
  0
LINE
  5
A2
100
AcDbEntity
  8
33
370
              15
  6
Continuous
 62
               7
100
AcDbLine
 10
4104.4105992660025
 20
1505.6912931643606
 30
0.0
 11
4106.3424509185807
 21
1505.1736550741555
 31
0.0
  0
LINE
  5
A3
100
AcDbEntity
  8
33
370
              15
  6
Continuous
 62
               7
100
AcDbLine
 10
4123.4105992660025
 20
1505.6912931643606
 30
0.0
 11
4121.4787476134243
 21
1505.1736550741555
 31
0.0
  0
LINE
  5
A4
100
AcDbEntity
  8
33
370
              15
  6
Continuous
 62
               7
100
AcDbLine
 10
4123.4105992660025
 20
1505.6912931643606
 30
0.0
 11
4121.4787476134243
 21
1506.2089312545656
 31
0.0
  0
LINE
  5
A5
100
AcDbEntity
  8
33
370
              15
  6
Continuous
 62
               7
100
AcDbLine
 10
4108.8384154544901
 20
1501.2634769758722
 30
0.0
 11
4104.0570458754091
 21
1506.0448465549539
 31
0.0
  0
LINE
  5
A6
100
AcDbEntity
  8
33
370
              15
  6
Continuous
 62
               7
100
AcDbLine
 10
4127.838415454491
 20
1501.2634769758722
 30
0.0
 11
4123.0570458754091
 21
1506.0448465549539
 31
0.0
  0
MTEXT
  5
A7
100
AcDbEntity
  8
33
 62
               7
100
AcDbMText
 10
4113.9105950305611
 20
1508.1912973994529
 30
0.0
 40
2.0
 41
0.0
 71
               2
 72
               1
  1
190±2
  7
ＭＳ ゴシック
 11
1.0
 21
0.0000000001745329
 31
0.0
 73
               1
 44
0.7828267384257843
  0
LINE
  5
A8
100
AcDbEntity
  8
33
370
              15
  6
Continuous
 62
               7
100
AcDbLine
 10
4123.4105992660025
 20
1505.6912931643606
 30
0.0
 11
4124.1105992660023
 21
1505.6912931643606
 31
0.0
  0
LINE
  5
A9
100
AcDbEntity
  8
33
370
              15
  6
Continuous
 62
               7
100
AcDbLine
 10
4128.5384154544909
 20
1501.2634769758722
 30
0.0
 11
4123.7570458754089
 21
1506.0448465549539
 31
0.0
  0
LINE
  5
AA
100
AcDbEntity
  8
33
370
              15
  6
Continuous
 62
               7
100
AcDbLine
 10
4124.1105992660023
 20
1505.6912931643606
 30
0.0
 11
4126.6105992660023
 21
1505.6912931643606
 31
0.0
  0
LINE
  5
AB
100
AcDbEntity
  8
33
370
              15
  6
Continuous
 62
               7
100
AcDbLine
 10
4124.1105992660023
 20
1505.6912931643606
 30
0.0
 11
4126.0424509185805
 21
1506.2089312545656
 31
0.0
  0
LINE
  5
AC
100
AcDbEntity
  8
33
370
              15
  6
Continuous
 62
               7
100
AcDbLine
 10
4124.1105992660023
 20
1505.6912931643606
 30
0.0
 11
4126.0424509185805
 21
1505.1736550741555
 31
0.0
  0
MTEXT
  5
AD
100
AcDbEntity
  8
33
 62
               7
100
AcDbMText
 10
4125.1105950307874
 20
1509.3918050136663
 30
0.0
 40
2.0
 41
0.0
 71
               2
 72
               1
  1
7±1
  7
ＭＳ ゴシック
 11
1.0
 21
0.0000000001745329
 31
0.0
 73
               1
 44
0.7828267384257843
  0
LINE
  5
AE
100
AcDbEntity
  8
33
370
              15
  6
Continuous
 62
               7
100
AcDbLine
 10
4127.775227861709
 20
1477.4587574045208
 30
0.0
 11
4128.2866394024886
 21
1477.4587574045208
 31
0.0
  0
LINE
  5
AF
100
AcDbEntity
  8
33
370
              15
  6
Continuous
 62
               7
100
AcDbLine
 10
4127.775227861709
 20
1482.7249424598729
 30
0.0
 11
4127.775227861709
 21
1476.9587574045208
 31
0.0
  0
LINE
  5
B0
100
AcDbEntity
  8
33
370
              15
  6
Continuous
 62
               7
100
AcDbLine
 10
4128.2866394024886
 20
1491.2599235852788
 30
0.0
 11
4128.2866394024886
 21
1476.9587574045208
 31
0.0
  0
LINE
  5
B1
100
AcDbEntity
  8
33
370
              15
  6
Continuous
 62
               7
100
AcDbLine
 10
4124.775227861709
 20
1477.4587574045208
 30
0.0
 11
4127.775227861709
 21
1477.4587574045208
 31
0.0
  0
LINE
  5
B2
100
AcDbEntity
  8
33
370
              15
  6
Continuous
 62
               7
100
AcDbLine
 10
4127.775227861709
 20
1477.4587574045208
 30
0.0
 11
4125.8433762091308
 21
1476.9411193143158
 31
0.0
  0
LINE
  5
B3
100
AcDbEntity
  8
33
370
              15
  6
Continuous
 62
               7
100
AcDbLine
 10
4127.775227861709
 20
1477.4587574045208
 30
0.0
 11
4125.8433762091308
 21
1477.9763954947259
 31
0.0
  0
LINE
  5
B4
100
AcDbEntity
  8
33
370
              15
  6
Continuous
 62
               7
100
AcDbLine
 10
4128.2866394024886
 20
1477.4587574045208
 30
0.0
 11
4128.2982433303241
 21
1477.4587574045208
 31
0.0
  0
LINE
  5
B5
100
AcDbEntity
  8
33
370
              15
  6
Continuous
 62
               7
100
AcDbLine
 10
4128.2866394024886
 20
1477.4587574045208
 30
0.0
 11
4130.2184910550668
 21
1477.9763954947259
 31
0.0
  0
LINE
  5
B6
100
AcDbEntity
  8
33
370
              15
  6
Continuous
 62
               7
100
AcDbLine
 10
4128.2866394024886
 20
1477.4587574045208
 30
0.0
 11
4130.2184910550668
 21
1476.9411193143158
 31
0.0
  0
MTEXT
  5
B7
100
AcDbEntity
  8
33
 62
               7
100
AcDbMText
 10
4129.433214659467
 20
1480.1397410029685
 30
0.0
 40
2.0
 41
0.0
 71
               2
 72
               1
  1
6±2
  7
ＭＳ ゴシック
 11
1.0
 21
0.0000000001745329
 31
0.0
 73
               1
 44
0.7828267384257843
  0
LINE
  5
B8
100
AcDbEntity
  8
33
370
              15
  6
Continuous
 62
               7
100
AcDbLine
 10
4109.3237437119833
 20
1480.7481694298256
 30
0.0
 11
4111.620954173869
 21
1478.6379878508556
 31
0.0
  0
LINE
  5
B9
100
AcDbEntity
  8
33
370
              15
  6
Continuous
 62
               7
100
AcDbLine
 10
4109.3237437119833
 20
1480.7481694298256
 30
0.0
 11
4111.0966342417669
 21
1479.8225025516219
 31
0.0
  0
LINE
  5
BA
100
AcDbEntity
  8
33
370
              15
  6
Continuous
 62
               7
100
AcDbLine
 10
4109.3237437119833
 20
1480.7481694298256
 30
0.0
 11
4110.3962785098029
 21
1479.0600731329675
 31
0.0
  0
MTEXT
  5
BB
100
AcDbEntity
  8
33
 62
               7
100
AcDbMText
 10
4113.4178752644375
 20
1480.0664135260852
 30
0.0
 40
2.0
 41
0.0
 71
               2
 72
               1
  1
R5
  7
ＭＳ ゴシック
 11
0.7364502752301786
 21
-0.676491679263976
 31
0.0
 73
               1
 44
0.7828267384257843
  0
LINE
  5
BC
100
AcDbEntity
  8
33
370
              15
  6
Continuous
 62
               7
100
AcDbLine
 10
4109.1919688450835
 20
1479.4099235852789
 30
0.0
 11
4109.2919688450838
 21
1479.4099235852789
 31
0.0
  0
LINE
  5
BD
100
AcDbEntity
  8
33
370
              15
  6
Continuous
 62
               7
100
AcDbLine
 10
4109.1919688450835
 20
1522.4099235852789
 30
0.0
 11
4109.2919688815782
 21
1522.4097204050768
 31
0.0
  0
LINE
  5
BE
100
AcDbEntity
  8
33
370
              15
  6
Continuous
 62
               7
100
AcDbLine
 10
4109.2919688450838
 20
1522.2320696311972
 30
0.0
 11
4109.2919688450838
 21
1522.4097024436971
 31
0.0
  0
LINE
  5
BF
100
AcDbEntity
  8
33
370
              15
  6
Continuous
 62
               7
100
AcDbLine
 10
4126.8666131963
 20
1481.7820641908263
 30
0.0
 11
4123.7830043993727
 21
1484.884772118442
 31
0.0
  0
LINE
  5
C0
100
AcDbEntity
  8
33
370
              15
  6
Continuous
 62
               7
100
AcDbLine
 10
4126.8666131963
 20
1481.7820641908263
 30
0.0
 11
4125.1376579471116
 21
1482.7874067922824
 31
0.0
  0
LINE
  5
C1
100
AcDbEntity
  8
33
370
              15
  6
Continuous
 62
               7
100
AcDbLine
 10
4126.8666131963
 20
1481.7820641908263
 30
0.0
 11
4125.8719653292237
 21
1483.5171940477883
 31
0.0
  0
MTEXT
  5
C2
100
AcDbEntity
  8
33
 62
               7
100
AcDbMText
 10
4125.6473073658481
 20
1486.4899445120172
 30
0.0
 40
2.0
 41
0.0
 71
               2
 72
               1
  1
R30
  7
ＭＳ ゴシック
 11
0.7049204801102057
 21
-0.7092863432501694
 31
0.0
 73
               1
 44
0.7828267384257843
  0
LINE
  5
C3
100
AcDbEntity
  8
33
370
              15
  6
Continuous
 62
               7
100
AcDbLine
 10
3988.7722403644357
 20
1440.6836189444161
 30
0.0
 11
3989.7722403644357
 21
1440.6836189444161
 31
0.0
  0
LINE
  5
C4
100
AcDbEntity
  8
33
370
              15
  6
Continuous
 62
               7
100
AcDbLine
 10
3990.2722403644357
 20
1440.1836189444161
 30
0.0
 11
3990.2722403644357
 21
1426.0977589228687
 31
0.0
  0
LINE
  5
C5
100
AcDbEntity
  8
33
370
              15
  6
Continuous
 62
               7
100
AcDbLine
 10
4041.9222403644362
 20
1421.6836189444161
 30
0.0
 11
4060.0222403644361
 21
1421.6836189444161
 31
0.0
  0
LINE
  5
C6
100
AcDbEntity
  8
33
370
              15
  6
Continuous
 62
               7
100
AcDbLine
 10
4065.2722403644361
 20
1424.7706376872388
 30
0.0
 11
4065.2722403644361
 21
1440.1836189444161
 31
0.0
  0
LINE
  5
C7
100
AcDbEntity
  8
33
370
              15
  6
Continuous
 62
               7
100
AcDbLine
 10
4065.7722403644361
 20
1440.6836189444161
 30
0.0
 11
4066.7722403644361
 21
1440.6836189444161
 31
0.0
  0
ARC
  5
C8
100
AcDbEntity
  8
33
370
              15
  6
Continuous
 62
               7
100
AcDbCircle
 10
3989.7722403644357
 20
1440.1836189444161
 30
0.0
 40
0.5
100
AcDbArc
 50
0.0
 51
90.0
  0
ARC
  5
C9
100
AcDbEntity
  8
33
370
              15
  6
Continuous
 62
               7
100
AcDbCircle
 10
4065.7722403644361
 20
1440.1836189444161
 30
0.0
 40
0.5
100
AcDbArc
 50
90.0
 51
180.0
  0
LINE
  5
CA
100
AcDbEntity
  8
33
370
              15
  6
Continuous
 62
               7
100
AcDbLine
 10
4065.7722403644361
 20
1440.6836189444161
 30
0.0
 11
3989.2295617930072
 21
1440.6836189444161
 31
0.0
  0
LINE
  5
CB
100
AcDbEntity
  8
33
370
              15
  6
STYLE_04
 62
               7
100
AcDbLine
 10
4050.9722403644359
 20
1443.4760296587019
 30
0.0
 11
4050.9722403644359
 21
1417.8421010872732
 31
0.0
  0
LINE
  5
CC
100
AcDbEntity
  8
33
370
              15
  6
Continuous
 62
               7
100
AcDbLine
 10
4041.9222403644362
 20
1421.6836189444161
 30
0.0
 11
4041.9222403644362
 21
1420.9836189444161
 31
0.0
  0
LINE
  5
CD
100
AcDbEntity
  8
33
370
              15
  6
Continuous
 62
               7
100
AcDbLine
 10
4041.9222403644362
 20
1420.9836189444161
 30
0.0
 11
4060.0222403644361
 21
1420.9836189444161
 31
0.0
  0
LINE
  5
CE
100
AcDbEntity
  8
33
370
              15
  6
Continuous
 62
               7
100
AcDbLine
 10
4060.0222403644361
 20
1420.9836189444161
 30
0.0
 11
4060.0222403644361
 21
1421.6836189444161
 31
0.0
  0
LINE
  5
CF
100
AcDbEntity
  8
33
370
              15
  6
Continuous
 62
               7
100
AcDbLine
 10
4060.0222403644361
 20
1421.6836189444161
 30
0.0
 11
4062.3853393354784
 21
1421.7727703414828
 31
0.0
  0
ARC
  5
D0
100
AcDbEntity
  8
33
370
              15
  6
Continuous
 62
               7
100
AcDbCircle
 10
4062.2722403644361
 20
1424.7706376872388
 30
0.0
 40
2.9999999999999982
100
AcDbArc
 50
272.16054322599996
 51
0.0
  0
LINE
  5
D1
100
AcDbEntity
  8
33
370
              15
  6
Continuous
 62
               7
100
AcDbLine
 10
3993.185152203479
 20
1423.0990232472514
 30
0.0
 11
4041.9222403644362
 21
1421.6836189444161
 31
0.0
  0
ARC
  5
D2
100
AcDbEntity
  8
33
370
              15
  6
Continuous
 62
               7
100
AcDbCircle
 10
3993.2722403644357
 20
1426.0977589228687
 30
0.0
 40
3.0
100
AcDbArc
 50
180.0
 51
268.33650494870892
  0
LINE
  5
D3
100
AcDbEntity
  8
33
370
              15
  6
Continuous
 62
               7
100
AcDbLine
 10
3988.7722403644357
 20
1440.5836189444162
 30
0.0
 11
3989.7722403644357
 21
1440.5836189444162
 31
0.0
  0
ARC
  5
D4
100
AcDbEntity
  8
33
370
              15
  6
Continuous
 62
               7
100
AcDbCircle
 10
3989.7722403644357
 20
1440.1836189444161
 30
0.0
 40
0.4
100
AcDbArc
 50
0.0
 51
90.0
  0
LINE
  5
D5
100
AcDbEntity
  8
33
370
              15
  6
Continuous
 62
               7
100
AcDbLine
 10
3990.1722403644358
 20
1440.1836189444161
 30
0.0
 11
3990.1722403644358
 21
1426.0977589228687
 31
0.0
  0
ARC
  5
D6
100
AcDbEntity
  8
33
370
              15
  6
Continuous
 62
               7
100
AcDbCircle
 10
3993.2722403644357
 20
1426.0977589228687
 30
0.0
 40
3.1000000000000001
100
AcDbArc
 50
180.0
 51
268.33650494870921
  0
LINE
  5
D7
100
AcDbEntity
  8
33
370
              15
  6
Continuous
 62
               7
100
AcDbLine
 10
3993.1822492647802
 20
1422.9990653913974
 30
0.0
 11
4041.8222403644359
 21
1421.5864809451343
 31
0.0
  0
LINE
  5
D8
100
AcDbEntity
  8
33
370
              15
  6
Continuous
 62
               7
100
AcDbLine
 10
4041.8222403644359
 20
1421.5864809451343
 30
0.0
 11
4041.8222403644359
 21
1420.8836189444162
 31
0.0
  0
LINE
  5
D9
100
AcDbEntity
  8
33
370
              15
  6
Continuous
 62
               7
100
AcDbLine
 10
4041.8222403644359
 20
1420.8836189444162
 30
0.0
 11
4060.122240364436
 21
1420.8836189444162
 31
0.0
  0
LINE
  5
DA
100
AcDbEntity
  8
33
370
              15
  6
Continuous
 62
               7
100
AcDbLine
 10
4060.122240364436
 20
1420.8836189444162
 30
0.0
 11
4060.122240364436
 21
1421.5873204529887
 31
0.0
  0
LINE
  5
DB
100
AcDbEntity
  8
33
370
              15
  6
Continuous
 62
               7
100
AcDbLine
 10
4060.122240364436
 20
1421.5873204529887
 30
0.0
 11
4062.3891093011794
 21
1421.6728414299578
 31
0.0
  0
ARC
  5
DC
100
AcDbEntity
  8
33
370
              15
  6
Continuous
 62
               7
100
AcDbCircle
 10
4062.2722403644361
 20
1424.7706376872388
 30
0.0
 40
3.1000000000000023
100
AcDbArc
 50
272.1605432259999
 51
0.0
  0
LINE
  5
DD
100
AcDbEntity
  8
33
370
              15
  6
Continuous
 62
               7
100
AcDbLine
 10
4065.3722403644365
 20
1424.7706376872388
 30
0.0
 11
4065.3722403644365
 21
1440.1836189444161
 31
0.0
  0
ARC
  5
DE
100
AcDbEntity
  8
33
370
              15
  6
Continuous
 62
               7
100
AcDbCircle
 10
4065.7722403644361
 20
1440.1836189444161
 30
0.0
 40
0.4
100
AcDbArc
 50
90.0
 51
180.0
  0
LINE
  5
DF
100
AcDbEntity
  8
33
370
              15
  6
Continuous
 62
               7
100
AcDbLine
 10
4065.7722403644361
 20
1440.5836189444162
 30
0.0
 11
4066.7722403644361
 21
1440.5836189444162
 31
0.0
  0
LINE
  5
E0
100
AcDbEntity
  8
33
370
              15
  6
Continuous
 62
               7
100
AcDbLine
 10
3988.7722403644357
 20
1440.6836189444161
 30
0.0
 11
3988.7722403644357
 21
1440.5836189444162
 31
0.0
  0
LINE
  5
E1
100
AcDbEntity
  8
33
370
              15
  6
Continuous
 62
               7
100
AcDbLine
 10
4066.7722403644361
 20
1440.6836189444161
 30
0.0
 11
4066.7722403644361
 21
1440.5836189444162
 31
0.0
  0
LINE
  5
E2
100
AcDbEntity
  8
33
370
              15
  6
STYLE_05
 62
               7
100
AcDbLine
 10
4114.1919688450835
 20
1480.9099235852789
 30
0.0
 11
4114.1919688450835
 21
1520.9099235852789
 31
0.0
  0
LINE
  5
E3
100
AcDbEntity
  8
33
370
              15
  6
STYLE_05
 62
               7
100
AcDbLine
 10
4065.2722403644361
 20
1435.6836189444161
 30
0.0
 11
3990.2722403644357
 21
1435.6836189444161
 31
0.0
  0
LINE
  5
E4
100
AcDbEntity
  8
33
370
              15
  6
Continuous
 62
               7
100
AcDbLine
 10
3984.5270617930073
 20
1421.5864809451343
 30
0.0
 11
3984.5270617930073
 21
1422.9990653913974
 31
0.0
  0
LINE
  5
E5
100
AcDbEntity
  8
33
370
              15
  6
Continuous
 62
               7
100
AcDbLine
 10
4041.3222403644359
 20
1421.5864809451343
 30
0.0
 11
3984.0270617930073
 21
1421.5864809451343
 31
0.0
  0
LINE
  5
E6
100
AcDbEntity
  8
33
370
              15
  6
Continuous
 62
               7
100
AcDbLine
 10
3992.6822492647802
 20
1422.9990653913974
 30
0.0
 11
3984.0270617930073
 21
1422.9990653913974
 31
0.0
  0
LINE
  5
E7
100
AcDbEntity
  8
33
370
              15
  6
Continuous
 62
               7
100
AcDbLine
 10
3984.5270617930073
 20
1418.5864809451343
 30
0.0
 11
3984.5270617930073
 21
1421.5864809451343
 31
0.0
  0
LINE
  5
E8
100
AcDbEntity
  8
33
370
              15
  6
Continuous
 62
               7
100
AcDbLine
 10
3984.5270617930073
 20
1421.5864809451343
 30
0.0
 11
3985.0446998832122
 21
1419.6546292925561
 31
0.0
  0
LINE
  5
E9
100
AcDbEntity
  8
33
370
              15
  6
Continuous
 62
               7
100
AcDbLine
 10
3984.5270617930073
 20
1421.5864809451343
 30
0.0
 11
3984.009423702802
 21
1419.6546292925561
 31
0.0
  0
LINE
  5
EA
100
AcDbEntity
  8
33
370
              15
  6
Continuous
 62
               7
100
AcDbLine
 10
3984.5270617930073
 20
1422.9990653913974
 30
0.0
 11
3984.5270617930073
 21
1423.2057796587019
 31
0.0
  0
LINE
  5
EB
100
AcDbEntity
  8
33
370
              15
  6
Continuous
 62
               7
100
AcDbLine
 10
3984.5270617930073
 20
1422.9990653913974
 30
0.0
 11
3984.009423702802
 21
1424.9309170439756
 31
0.0
  0
LINE
  5
EC
100
AcDbEntity
  8
33
370
              15
  6
Continuous
 62
               7
100
AcDbLine
 10
3984.5270617930073
 20
1422.9990653913974
 30
0.0
 11
3985.0446998832122
 21
1424.9309170439756
 31
0.0
  0
MTEXT
  5
ED
100
AcDbEntity
  8
33
 62
               7
100
AcDbMText
 10
3981.706113132293
 20
1422.1907129734341
 30
0.0
 40
2.0
 41
0.0
 71
               2
 72
               1
  1
15±2
  7
ＭＳ ゴシック
 11
0.0
 21
1.0
 31
0.0
 73
               1
 44
0.7828267384257843
  0
LINE
  5
EE
100
AcDbEntity
  8
33
370
              15
  6
Continuous
 62
               7
100
AcDbLine
 10
3991.1519733410496
 20
1423.9753857818919
 30
0.0
 11
3994.7065506474555
 21
1427.533493944416
 31
0.0
  0
LINE
  5
EF
100
AcDbEntity
  8
33
370
              15
  6
Continuous
 62
               7
100
AcDbLine
 10
3991.1519733410496
 20
1423.9753857818919
 30
0.0
 11
3992.1511133989288
 21
1425.7079327927231
 31
0.0
  0
LINE
  5
F0
100
AcDbEntity
  8
33
370
              15
  6
Continuous
 62
               7
100
AcDbLine
 10
3991.1519733410496
 20
1423.9753857818919
 30
0.0
 11
3992.8835275185274
 21
1424.976245477583
 31
0.0
  0
MTEXT
  5
F1
100
AcDbEntity
  8
33
 62
               7
100
AcDbMText
 10
3992.5393697069503
 20
1428.8257819444555
 30
0.0
 40
2.0
 41
0.0
 71
               2
 72
               1
  1
R30
  7
ＭＳ ゴシック
 11
0.7067556769169621
 21
0.7074577112065759
 31
0.0
 73
               1
 44
0.7828267384257843
  0
LINE
  5
F2
100
AcDbEntity
  8
33
370
              15
  6
Continuous
 62
               7
100
AcDbLine
 10
3984.5270617930073
 20
1425.3949550413549
 30
0.0
 11
3984.5270617930073
 21
1422.9990653913974
 31
0.0
  0
LINE
  5
F3
100
AcDbEntity
  8
33
370
              15
  6
Continuous
 62
               7
100
AcDbLine
 10
4065.3891081954243
 20
1440.5048816734529
 30
0.0
 11
4067.2924508236201
 21
1438.9088970590487
 31
0.0
  0
LINE
  5
F4
100
AcDbEntity
  8
33
370
              15
  6
Continuous
 62
               7
100
AcDbLine
 10
4065.3891081954243
 20
1440.5048816734529
 30
0.0
 11
4067.2020128741729
 21
1439.6602654139765
 31
0.0
  0
LINE
  5
F5
100
AcDbEntity
  8
33
370
              15
  6
Continuous
 62
               7
100
AcDbLine
 10
4065.3891081954243
 20
1440.5048816734529
 30
0.0
 11
4066.5368215721219
 21
1438.8669701969229
 31
0.0
  0
MTEXT
  5
F6
100
AcDbEntity
  8
33
 62
               7
100
AcDbMText
 10
4068.8104755962336
 20
1438.4422296661689
 30
0.0
 40
2.0
 41
0.0
 71
               2
 72
               1
  1
R5
  7
ＭＳ ゴシック
 11
0.7662643278127367
 21
-0.6425254702513317
 31
0.0
 73
               1
 44
0.7828267384257843
  0
LINE
  5
F7
100
AcDbEntity
  8
33
370
              15
  6
Continuous
 62
               7
100
AcDbLine
 10
4120.6160759879413
 20
1512.8429592995647
 30
0.0
 11
4133.8750045593697
 21
1521.6822450138502
 31
0.0
  0
LINE
  5
F8
100
AcDbEntity
  8
33
370
              15
  6
Continuous
 62
               7
100
AcDbLine
 10
4133.8750045593697
 20
1521.6822450138502
 30
0.0
 11
4147.1286716512059
 21
1521.6822450138502
 31
0.0
  0
LINE
  5
F9
100
AcDbEntity
  8
33
370
              15
  6
Continuous
 62
               7
100
AcDbLine
 10
4122.1530857137068
 20
1514.5483363722687
 30
0.0
 11
4120.6160759879413
 21
1512.8429592995647
 31
0.0
  0
LINE
  5
FA
100
AcDbEntity
  8
33
370
              15
  6
Continuous
 62
               7
100
AcDbLine
 10
4120.6160759879413
 20
1512.8429592995647
 30
0.0
 11
4122.6345110963593
 21
1513.5854856069625
 31
0.0
  0
MTEXT
  5
FB
100
AcDbEntity
  8
33
 62
               7
100
AcDbMText
 10
4141.1095330191911
 20
1524.102527868203
 30
0.0
 40
3.0
 41
0.0
 71
               5
 72
               1
  1
防滴パット
  7
ＭＳ ゴシック
 73
               1
 44
0.7828267384257842
  0
LINE
  5
FC
100
AcDbEntity
  8
17
370
              15
  6
Continuous
 62
               7
100
AcDbLine
 10
4184.0480253625619
 20
1465.3317985852789
 30
0.0
 11
4179.0480253625619
 21
1465.3317985852789
 31
0.0
  0
LINE
  5
FD
100
AcDbEntity
  8
17
370
              15
  6
Continuous
 62
               7
100
AcDbLine
 10
4176.5480253625619
 20
1462.8317985852789
 30
0.0
 11
4176.5480253625619
 21
1445.3317985852789
 31
0.0
  0
ARC
  5
FE
100
AcDbEntity
  8
17
370
              15
  6
Continuous
 62
               7
100
AcDbCircle
 10
4179.0480253625619
 20
1462.8317985852789
 30
0.0
 40
2.5
100
AcDbArc
 50
90.0
 51
180.0
  0
LINE
  5
FF
100
AcDbEntity
  8
17
370
              15
  6
Continuous
 62
               7
100
AcDbLine
 10
4184.0480253625619
 20
1464.8317985852789
 30
0.0
 11
4179.0480253625619
 21
1464.8317985852789
 31
0.0
  0
ARC
  5
100
100
AcDbEntity
  8
17
370
              15
  6
Continuous
 62
               7
100
AcDbCircle
 10
4179.0480253625619
 20
1462.8317985852789
 30
0.0
 40
2.0
100
AcDbArc
 50
90.0
 51
180.0
  0
LINE
  5
101
100
AcDbEntity
  8
17
370
              15
  6
Continuous
 62
               7
100
AcDbLine
 10
4177.0480253625619
 20
1462.8317985852789
 30
0.0
 11
4177.0480253625619
 21
1445.3317985852789
 31
0.0
  0
LINE
  5
102
100
AcDbEntity
  8
17
370
              15
  6
Continuous
 62
               7
100
AcDbLine
 10
4184.0480253625619
 20
1465.3317985852789
 30
0.0
 11
4184.0480253625619
 21
1464.8317985852789
 31
0.0
  0
LINE
  5
103
100
AcDbEntity
  8
17
370
              15
  6
Continuous
 62
               7
100
AcDbLine
 10
4160.4095655411329
 20
1465.3317985852789
 30
0.0
 11
4178.9941637554193
 21
1465.3317985852789
 31
0.0
  0
LINE
  5
104
100
AcDbEntity
  8
17
370
              15
  6
Continuous
 62
               7
100
AcDbLine
 10
4160.4095655411329
 20
1465.3317985852789
 30
0.0
 11
4160.4522545510017
 21
1465.1761701979935
 31
0.0
  0
LINE
  5
105
100
AcDbEntity
  8
17
370
              15
  6
Continuous
 62
               7
100
AcDbLine
 10
4160.4522545510017
 20
1465.1761701979935
 30
0.0
 11
4160.4946870934809
 21
1465.0205260520315
 31
0.0
  0
LINE
  5
106
100
AcDbEntity
  8
17
370
              15
  6
Continuous
 62
               7
100
AcDbLine
 10
4160.4946870934809
 20
1465.0205260520315
 30
0.0
 11
4160.5366067011855
 21
1464.8648503887159
 31
0.0
  0
LINE
  5
107
100
AcDbEntity
  8
17
370
              15
  6
Continuous
 62
               7
100
AcDbLine
 10
4160.5366067011855
 20
1464.8648503887159
 30
0.0
 11
4160.5777569067259
 21
1464.7091274493705
 31
0.0
  0
LINE
  5
108
100
AcDbEntity
  8
17
370
              15
  6
Continuous
 62
               7
100
AcDbLine
 10
4160.5777569067259
 20
1464.7091274493705
 30
0.0
 11
4160.6178812427152
 21
1464.5533414753181
 31
0.0
  0
LINE
  5
109
100
AcDbEntity
  8
17
370
              15
  6
Continuous
 62
               7
100
AcDbLine
 10
4160.6178812427152
 20
1464.5533414753181
 30
0.0
 11
4160.6567232417638
 21
1464.3974767078823
 31
0.0
  0
LINE
  5
10A
100
AcDbEntity
  8
17
370
              15
  6
Continuous
 62
               7
100
AcDbLine
 10
4160.6567232417638
 20
1464.3974767078823
 30
0.0
 11
4160.6940264364857
 21
1464.2415173883862
 31
0.0
  0
LINE
  5
10B
100
AcDbEntity
  8
17
370
              15
  6
Continuous
 62
               7
100
AcDbLine
 10
4160.6940264364857
 20
1464.2415173883862
 30
0.0
 11
4160.7295343594915
 21
1464.0854477581534
 31
0.0
  0
LINE
  5
10C
100
AcDbEntity
  8
17
370
              15
  6
Continuous
 62
               7
100
AcDbLine
 10
4160.7295343594915
 20
1464.0854477581534
 30
0.0
 11
4160.7629905433951
 21
1463.929252058507
 31
0.0
  0
LINE
  5
10D
100
AcDbEntity
  8
17
370
              15
  6
Continuous
 62
               7
100
AcDbLine
 10
4160.7629905433951
 20
1463.929252058507
 30
0.0
 11
4160.794138520806
 21
1463.7729145307701
 31
0.0
  0
LINE
  5
10E
100
AcDbEntity
  8
17
370
              15
  6
Continuous
 62
               7
100
AcDbLine
 10
4160.794138520806
 20
1463.7729145307701
 30
0.0
 11
4160.8227218243392
 21
1463.6164194162666
 31
0.0
  0
LINE
  5
10F
100
AcDbEntity
  8
17
370
              15
  6
Continuous
 62
               7
100
AcDbLine
 10
4160.8227218243392
 20
1463.6164194162666
 30
0.0
 11
4160.8484839866042
 21
1463.4597509563191
 31
0.0
  0
LINE
  5
110
100
AcDbEntity
  8
17
370
              15
  6
Continuous
 62
               7
100
AcDbLine
 10
4160.8484839866042
 20
1463.4597509563191
 30
0.0
 11
4160.871168540215
 21
1463.3028933922515
 31
0.0
  0
LINE
  5
111
100
AcDbEntity
  8
17
370
              15
  6
Continuous
 62
               7
100
AcDbLine
 10
4160.871168540215
 20
1463.3028933922515
 30
0.0
 11
4160.890519017782
 21
1463.1458309653865
 31
0.0
  0
LINE
  5
112
100
AcDbEntity
  8
17
370
              15
  6
Continuous
 62
               7
100
AcDbLine
 10
4160.890519017782
 20
1463.1458309653865
 30
0.0
 11
4160.9062789519185
 21
1462.988547917048
 31
0.0
  0
LINE
  5
113
100
AcDbEntity
  8
17
370
              15
  6
Continuous
 62
               7
100
AcDbLine
 10
4160.9062789519185
 20
1462.988547917048
 30
0.0
 11
4160.9181918752365
 21
1462.831028488559
 31
0.0
  0
LINE
  5
114
100
AcDbEntity
  8
17
370
              15
  6
Continuous
 62
               7
100
AcDbLine
 10
4160.9181918752365
 20
1462.831028488559
 30
0.0
 11
4160.9260013203475
 21
1462.6732569212429
 31
0.0
  0
LINE
  5
115
100
AcDbEntity
  8
17
370
              15
  6
Continuous
 62
               7
100
AcDbLine
 10
4160.9260013203475
 20
1462.6732569212429
 30
0.0
 11
4160.9294508198645
 21
1462.515217456423
 31
0.0
  0
LINE
  5
116
100
AcDbEntity
  8
17
370
              15
  6
Continuous
 62
               7
100
AcDbLine
 10
4160.9294508198645
 20
1462.515217456423
 30
0.0
 11
4160.9282839063981
 21
1462.3568943354223
 31
0.0
  0
LINE
  5
117
100
AcDbEntity
  8
17
370
              15
  6
Continuous
 62
               7
100
AcDbLine
 10
4160.9282839063981
 20
1462.3568943354223
 30
0.0
 11
4160.9222441125621
 21
1462.1982717995645
 31
0.0
  0
LINE
  5
118
100
AcDbEntity
  8
17
370
              15
  6
Continuous
 62
               7
100
AcDbLine
 10
4160.9222441125621
 20
1462.1982717995645
 30
0.0
 11
4160.9086857030934
 21
1462.0104404036413
 31
0.0
  0
LINE
  5
119
100
AcDbEntity
  8
17
370
              15
  6
Continuous
 62
               7
100
AcDbLine
 10
4160.9086857030934
 20
1462.0104404036413
 30
0.0
 11
4160.8888062892102
 21
1461.8222616261355
 31
0.0
  0
LINE
  5
11A
100
AcDbEntity
  8
17
370
              15
  6
Continuous
 62
               7
100
AcDbLine
 10
4160.8888062892102
 20
1461.8222616261355
 30
0.0
 11
4160.8634475204371
 21
1461.6338281957983
 31
0.0
  0
LINE
  5
11B
100
AcDbEntity
  8
17
370
              15
  6
Continuous
 62
               7
100
AcDbLine
 10
4160.8634475204371
 20
1461.6338281957983
 30
0.0
 11
4160.8334510462964
 21
1461.4452328413806
 31
0.0
  0
LINE
  5
11C
100
AcDbEntity
  8
17
370
              15
  6
Continuous
 62
               7
100
AcDbLine
 10
4160.8334510462964
 20
1461.4452328413806
 30
0.0
 11
4160.799658516311
 21
1461.2565682916338
 31
0.0
  0
LINE
  5
11D
100
AcDbEntity
  8
17
370
              15
  6
Continuous
 62
               7
100
AcDbLine
 10
4160.799658516311
 20
1461.2565682916338
 30
0.0
 11
4160.7629115800055
 21
1461.0679272753089
 31
0.0
  0
LINE
  5
11E
100
AcDbEntity
  8
17
370
              15
  6
Continuous
 62
               7
100
AcDbLine
 10
4160.7629115800055
 20
1461.0679272753089
 30
0.0
 11
4160.724051886903
 21
1460.8794025211573
 31
0.0
  0
LINE
  5
11F
100
AcDbEntity
  8
17
370
              15
  6
Continuous
 62
               7
100
AcDbLine
 10
4160.724051886903
 20
1460.8794025211573
 30
0.0
 11
4160.6839210865255
 21
1460.6910867579297
 31
0.0
  0
LINE
  5
120
100
AcDbEntity
  8
17
370
              15
  6
Continuous
 62
               7
100
AcDbLine
 10
4160.6839210865255
 20
1460.6910867579297
 30
0.0
 11
4160.6433608283987
 21
1460.5030727143776
 31
0.0
  0
LINE
  5
121
100
AcDbEntity
  8
17
370
              15
  6
Continuous
 62
               7
100
AcDbLine
 10
4160.6433608283987
 20
1460.5030727143776
 30
0.0
 11
4160.6032127620438
 21
1460.3154531192522
 31
0.0
  0
LINE
  5
122
100
AcDbEntity
  8
17
370
              15
  6
Continuous
 62
               7
100
AcDbLine
 10
4160.6032127620438
 20
1460.3154531192522
 30
0.0
 11
4160.5643185369854
 21
1460.1283207013043
 31
0.0
  0
LINE
  5
123
100
AcDbEntity
  8
17
370
              15
  6
Continuous
 62
               7
100
AcDbLine
 10
4160.5643185369854
 20
1460.1283207013043
 30
0.0
 11
4160.5275198027457
 21
1459.9417681892851
 31
0.0
  0
LINE
  5
124
100
AcDbEntity
  8
17
370
              15
  6
Continuous
 62
               7
100
AcDbLine
 10
4160.5275198027457
 20
1459.9417681892851
 30
0.0
 11
4160.4936582088494
 21
1459.7558883119461
 31
0.0
  0
LINE
  5
125
100
AcDbEntity
  8
17
370
              15
  6
Continuous
 62
               7
100
AcDbLine
 10
4160.4936582088494
 20
1459.7558883119461
 30
0.0
 11
4160.4635754048186
 21
1459.5707737980381
 31
0.0
  0
LINE
  5
126
100
AcDbEntity
  8
17
370
              15
  6
Continuous
 62
               7
100
AcDbLine
 10
4160.4635754048186
 20
1459.5707737980381
 30
0.0
 11
4160.438113040178
 21
1459.3865173763124
 31
0.0
  0
LINE
  5
127
100
AcDbEntity
  8
17
370
              15
  6
Continuous
 62
               7
100
AcDbLine
 10
4160.438113040178
 20
1459.3865173763124
 30
0.0
 11
4160.4181127644497
 21
1459.20321177552
 31
0.0
  0
LINE
  5
128
100
AcDbEntity
  8
17
370
              15
  6
Continuous
 62
               7
100
AcDbLine
 10
4160.4181127644497
 20
1459.20321177552
 30
0.0
 11
4160.4044162271584
 21
1459.0209497244123
 31
0.0
  0
LINE
  5
129
100
AcDbEntity
  8
17
370
              15
  6
Continuous
 62
               7
100
AcDbLine
 10
4160.4044162271584
 20
1459.0209497244123
 30
0.0
 11
4160.3978650778263
 21
1458.8398239517401
 31
0.0
  0
LINE
  5
12A
100
AcDbEntity
  8
17
370
              15
  6
Continuous
 62
               7
100
AcDbLine
 10
4160.3978650778263
 20
1458.8398239517401
 30
0.0
 11
4160.3993009659762
 21
1458.6599271862547
 31
0.0
  0
LINE
  5
12B
100
AcDbEntity
  8
17
370
              15
  6
Continuous
 62
               7
100
AcDbLine
 10
4160.3993009659762
 20
1458.6599271862547
 30
0.0
 11
4160.4095655411329
 21
1458.4813521567075
 31
0.0
  0
LINE
  5
12C
100
AcDbEntity
  8
17
370
              15
  6
Continuous
 62
               7
100
AcDbLine
 10
4160.4095655411329
 20
1458.4813521567075
 30
0.0
 11
4160.4309995285794
 21
1458.2919267534799
 31
0.0
  0
LINE
  5
12D
100
AcDbEntity
  8
17
370
              15
  6
Continuous
 62
               7
100
AcDbLine
 10
4160.4309995285794
 20
1458.2919267534799
 30
0.0
 11
4160.4629388641106
 21
1458.1040379507485
 31
0.0
  0
LINE
  5
12E
100
AcDbEntity
  8
17
370
              15
  6
Continuous
 62
               7
100
AcDbLine
 10
4160.4629388641106
 20
1458.1040379507485
 30
0.0
 11
4160.5048306346698
 21
1457.9176048748038
 31
0.0
  0
LINE
  5
12F
100
AcDbEntity
  8
17
370
              15
  6
Continuous
 62
               7
100
AcDbLine
 10
4160.5048306346698
 20
1457.9176048748038
 30
0.0
 11
4160.5561219272004
 21
1457.7325466519346
 31
0.0
  0
LINE
  5
130
100
AcDbEntity
  8
17
370
              15
  6
Continuous
 62
               7
100
AcDbLine
 10
4160.5561219272004
 20
1457.7325466519346
 30
0.0
 11
4160.6162598286446
 21
1457.5487824084312
 31
0.0
  0
LINE
  5
131
100
AcDbEntity
  8
17
370
              15
  6
Continuous
 62
               7
100
AcDbLine
 10
4160.6162598286446
 20
1457.5487824084312
 30
0.0
 11
4160.6846914259449
 21
1457.3662312705828
 31
0.0
  0
LINE
  5
132
100
AcDbEntity
  8
17
370
              15
  6
Continuous
 62
               7
100
AcDbLine
 10
4160.6846914259449
 20
1457.3662312705828
 30
0.0
 11
4160.7608638060456
 21
1457.1848123646794
 31
0.0
  0
LINE
  5
133
100
AcDbEntity
  8
17
370
              15
  6
Continuous
 62
               7
100
AcDbLine
 10
4160.7608638060456
 20
1457.1848123646794
 30
0.0
 11
4160.8442240558888
 21
1457.0044448170104
 31
0.0
  0
LINE
  5
134
100
AcDbEntity
  8
17
370
              15
  6
Continuous
 62
               7
100
AcDbLine
 10
4160.8442240558888
 20
1457.0044448170104
 30
0.0
 11
4160.9342192624172
 21
1456.8250477538656
 31
0.0
  0
LINE
  5
135
100
AcDbEntity
  8
17
370
              15
  6
Continuous
 62
               7
100
AcDbLine
 10
4160.9342192624172
 20
1456.8250477538656
 30
0.0
 11
4161.0302965125748
 21
1456.6465403015345
 31
0.0
  0
LINE
  5
136
100
AcDbEntity
  8
17
370
              15
  6
Continuous
 62
               7
100
AcDbLine
 10
4161.0302965125748
 20
1456.6465403015345
 30
0.0
 11
4161.1319028933021
 21
1456.468841586307
 31
0.0
  0
LINE
  5
137
100
AcDbEntity
  8
17
370
              15
  6
Continuous
 62
               7
100
AcDbLine
 10
4161.1319028933021
 20
1456.468841586307
 30
0.0
 11
4161.2384854915445
 21
1456.2918707344727
 31
0.0
  0
LINE
  5
138
100
AcDbEntity
  8
17
370
              15
  6
Continuous
 62
               7
100
AcDbLine
 10
4161.2384854915445
 20
1456.2918707344727
 30
0.0
 11
4161.3494913942432
 21
1456.1155468723209
 31
0.0
  0
LINE
  5
139
100
AcDbEntity
  8
17
370
              15
  6
Continuous
 62
               7
100
AcDbLine
 10
4161.3494913942432
 20
1456.1155468723209
 30
0.0
 11
4161.4643676883425
 21
1455.9397891261417
 31
0.0
  0
LINE
  5
13A
100
AcDbEntity
  8
17
370
              15
  6
Continuous
 62
               7
100
AcDbLine
 10
4161.4643676883425
 20
1455.9397891261417
 30
0.0
 11
4161.5825614607838
 21
1455.7645166222244
 31
0.0
  0
LINE
  5
13B
100
AcDbEntity
  8
17
370
              15
  6
Continuous
 62
               7
100
AcDbLine
 10
4161.5825614607838
 20
1455.7645166222244
 30
0.0
 11
4161.7035197985115
 21
1455.589648486859
 31
0.0
  0
LINE
  5
13C
100
AcDbEntity
  8
17
370
              15
  6
Continuous
 62
               7
100
AcDbLine
 10
4161.7035197985115
 20
1455.589648486859
 30
0.0
 11
4161.8266897884669
 21
1455.4151038463349
 31
0.0
  0
LINE
  5
13D
100
AcDbEntity
  8
17
370
              15
  6
Continuous
 62
               7
100
AcDbLine
 10
4161.8266897884669
 20
1455.4151038463349
 30
0.0
 11
4161.9515185175942
 21
1455.2408018269418
 31
0.0
  0
LINE
  5
13E
100
AcDbEntity
  8
17
370
              15
  6
Continuous
 62
               7
100
AcDbLine
 10
4161.9515185175942
 20
1455.2408018269418
 30
0.0
 11
4162.0774530728349
 21
1455.0666615549694
 31
0.0
  0
LINE
  5
13F
100
AcDbEntity
  8
17
370
              15
  6
Continuous
 62
               7
100
AcDbLine
 10
4162.0774530728349
 20
1455.0666615549694
 30
0.0
 11
4162.2039405411333
 21
1454.8926021567074
 31
0.0
  0
LINE
  5
140
100
AcDbEntity
  8
17
370
              15
  6
Continuous
 62
               7
100
AcDbLine
 10
4177.0480253625619
 20
1445.3317985852789
 30
0.0
 11
4177.0230051831904
 21
1445.3318108526216
 31
0.0
  0
LINE
  5
141
100
AcDbEntity
  8
17
370
              15
  6
Continuous
 62
               7
100
AcDbLine
 10
4177.0230051831904
 20
1445.3318108526216
 30
0.0
 11
4176.9979853072682
 21
1445.3318229354932
 31
0.0
  0
LINE
  5
142
100
AcDbEntity
  8
17
370
              15
  6
Continuous
 62
               7
100
AcDbLine
 10
4176.9979853072682
 20
1445.3318229354932
 30
0.0
 11
4176.9729660382436
 21
1445.331834649422
 31
0.0
  0
LINE
  5
143
100
AcDbEntity
  8
17
370
              15
  6
Continuous
 62
               7
100
AcDbLine
 10
4176.9729660382436
 20
1445.331834649422
 30
0.0
 11
4176.9479476795677
 21
1445.3318458099368
 31
0.0
  0
LINE
  5
144
100
AcDbEntity
  8
17
370
              15
  6
Continuous
 62
               7
100
AcDbLine
 10
4176.9479476795677
 20
1445.3318458099368
 30
0.0
 11
4176.922930534688
 21
1445.3318562325665
 31
0.0
  0
LINE
  5
145
100
AcDbEntity
  8
17
370
              15
  6
Continuous
 62
               7
100
AcDbLine
 10
4176.922930534688
 20
1445.3318562325665
 30
0.0
 11
4176.8979149070547
 21
1445.3318657328393
 31
0.0
  0
LINE
  5
146
100
AcDbEntity
  8
17
370
              15
  6
Continuous
 62
               7
100
AcDbLine
 10
4176.8979149070547
 20
1445.3318657328393
 30
0.0
 11
4176.872901100116
 21
1445.3318741262844
 31
0.0
  0
LINE
  5
147
100
AcDbEntity
  8
17
370
              15
  6
Continuous
 62
               7
100
AcDbLine
 10
4176.872901100116
 20
1445.3318741262844
 30
0.0
 11
4176.8478894173222
 21
1445.3318812284301
 31
0.0
  0
LINE
  5
148
100
AcDbEntity
  8
17
370
              15
  6
Continuous
 62
               7
100
AcDbLine
 10
4176.8478894173222
 20
1445.3318812284301
 30
0.0
 11
4176.8228801621217
 21
1445.3318868548056
 31
0.0
  0
LINE
  5
149
100
AcDbEntity
  8
17
370
              15
  6
Continuous
 62
               7
100
AcDbLine
 10
4176.8228801621217
 20
1445.3318868548056
 30
0.0
 11
4176.7978736379637
 21
1445.331890820939
 31
0.0
  0
LINE
  5
14A
100
AcDbEntity
  8
17
370
              15
  6
Continuous
 62
               7
100
AcDbLine
 10
4176.7978736379637
 20
1445.331890820939
 30
0.0
 11
4176.7728701482984
 21
1445.331892942359
 31
0.0
  0
LINE
  5
14B
100
AcDbEntity
  8
17
370
              15
  6
Continuous
 62
               7
100
AcDbLine
 10
4176.7728701482984
 20
1445.331892942359
 30
0.0
 11
4176.7478699965732
 21
1445.3318930345947
 31
0.0
  0
LINE
  5
14C
100
AcDbEntity
  8
17
370
              15
  6
Continuous
 62
               7
100
AcDbLine
 10
4176.7478699965732
 20
1445.3318930345947
 30
0.0
 11
4176.7228734862392
 21
1445.3318909131744
 31
0.0
  0
LINE
  5
14D
100
AcDbEntity
  8
17
370
              15
  6
Continuous
 62
               7
100
AcDbLine
 10
4176.7228734862392
 20
1445.3318909131744
 30
0.0
 11
4176.6978809207449
 21
1445.3318863936272
 31
0.0
  0
LINE
  5
14E
100
AcDbEntity
  8
17
370
              15
  6
Continuous
 62
               7
100
AcDbLine
 10
4176.6978809207449
 20
1445.3318863936272
 30
0.0
 11
4176.6728926035385
 21
1445.3318792914813
 31
0.0
  0
LINE
  5
14F
100
AcDbEntity
  8
17
370
              15
  6
Continuous
 62
               7
100
AcDbLine
 10
4176.6728926035385
 20
1445.3318792914813
 30
0.0
 11
4176.6479088380702
 21
1445.3318694222658
 31
0.0
  0
LINE
  5
150
100
AcDbEntity
  8
17
370
              15
  6
Continuous
 62
               7
100
AcDbLine
 10
4176.6479088380702
 20
1445.3318694222658
 30
0.0
 11
4176.6229299277893
 21
1445.3318566015091
 31
0.0
  0
LINE
  5
151
100
AcDbEntity
  8
17
370
              15
  6
Continuous
 62
               7
100
AcDbLine
 10
4176.6229299277893
 20
1445.3318566015091
 30
0.0
 11
4176.5979561761451
 21
1445.3318406447399
 31
0.0
  0
LINE
  5
152
100
AcDbEntity
  8
17
370
              15
  6
Continuous
 62
               7
100
AcDbLine
 10
4176.5979561761451
 20
1445.3318406447399
 30
0.0
 11
4176.5729878865859
 21
1445.3318213674868
 31
0.0
  0
LINE
  5
153
100
AcDbEntity
  8
17
370
              15
  6
Continuous
 62
               7
100
AcDbLine
 10
4176.5729878865859
 20
1445.3318213674868
 30
0.0
 11
4176.5480253625619
 21
1445.3317985852789
 31
0.0
  0
LINE
  5
154
100
AcDbEntity
  8
17
370
              15
  6
Continuous
 62
               7
100
AcDbLine
 10
4176.5480253625619
 20
1445.3317985852789
 30
0.0
 11
4176.38868915476
 21
1445.3315798542467
 31
0.0
  0
LINE
  5
155
100
AcDbEntity
  8
17
370
              15
  6
Continuous
 62
               7
100
AcDbLine
 10
4176.38868915476
 20
1445.3315798542467
 30
0.0
 11
4176.2295602897111
 21
1445.3312926789442
 31
0.0
  0
LINE
  5
156
100
AcDbEntity
  8
17
370
              15
  6
Continuous
 62
               7
100
AcDbLine
 10
4176.2295602897111
 20
1445.3312926789442
 30
0.0
 11
4176.0705984192919
 21
1445.3310191901014
 31
0.0
  0
LINE
  5
157
100
AcDbEntity
  8
17
370
              15
  6
Continuous
 62
               7
100
AcDbLine
 10
4176.0705984192919
 20
1445.3310191901014
 30
0.0
 11
4175.9117631953804
 21
1445.3308415184479
 31
0.0
  0
LINE
  5
158
100
AcDbEntity
  8
17
370
              15
  6
Continuous
 62
               7
100
AcDbLine
 10
4175.9117631953804
 20
1445.3308415184479
 30
0.0
 11
4175.7530142698533
 21
1445.3308417947135
 31
0.0
  0
LINE
  5
159
100
AcDbEntity
  8
17
370
              15
  6
Continuous
 62
               7
100
AcDbLine
 10
4175.7530142698533
 20
1445.3308417947135
 30
0.0
 11
4175.5943112945879
 21
1445.3311021496281
 31
0.0
  0
LINE
  5
15A
100
AcDbEntity
  8
17
370
              15
  6
Continuous
 62
               7
100
AcDbLine
 10
4175.5943112945879
 20
1445.3311021496281
 30
0.0
 11
4175.4356139214624
 21
1445.3317047139217
 31
0.0
  0
LINE
  5
15B
100
AcDbEntity
  8
17
370
              15
  6
Continuous
 62
               7
100
AcDbLine
 10
4175.4356139214624
 20
1445.3317047139217
 30
0.0
 11
4175.2768818023533
 21
1445.3327316183238
 31
0.0
  0
LINE
  5
15C
100
AcDbEntity
  8
17
370
              15
  6
Continuous
 62
               7
100
AcDbLine
 10
4175.2768818023533
 20
1445.3327316183238
 30
0.0
 11
4175.1180745891388
 21
1445.3342649935644
 31
0.0
  0
LINE
  5
15D
100
AcDbEntity
  8
17
370
              15
  6
Continuous
 62
               7
100
AcDbLine
 10
4175.1180745891388
 20
1445.3342649935644
 30
0.0
 11
4174.9591519336955
 21
1445.3363869703733
 31
0.0
  0
LINE
  5
15E
100
AcDbEntity
  8
17
370
              15
  6
Continuous
 62
               7
100
AcDbLine
 10
4174.9591519336955
 20
1445.3363869703733
 30
0.0
 11
4174.8000734879006
 21
1445.3391796794801
 31
0.0
  0
LINE
  5
15F
100
AcDbEntity
  8
17
370
              15
  6
Continuous
 62
               7
100
AcDbLine
 10
4174.8000734879006
 20
1445.3391796794801
 30
0.0
 11
4174.6407989036325
 21
1445.3427252516151
 31
0.0
  0
LINE
  5
160
100
AcDbEntity
  8
17
370
              15
  6
Continuous
 62
               7
100
AcDbLine
 10
4174.6407989036325
 20
1445.3427252516151
 30
0.0
 11
4174.4812878327675
 21
1445.3471058175078
 31
0.0
  0
LINE
  5
161
100
AcDbEntity
  8
17
370
              15
  6
Continuous
 62
               7
100
AcDbLine
 10
4174.4812878327675
 20
1445.3471058175078
 30
0.0
 11
4174.3214999271831
 21
1445.3524035078881
 31
0.0
  0
LINE
  5
162
100
AcDbEntity
  8
17
370
              15
  6
Continuous
 62
               7
100
AcDbLine
 10
4174.3214999271831
 20
1445.3524035078881
 30
0.0
 11
4174.1613948387567
 21
1445.3587004534857
 31
0.0
  0
LINE
  5
163
100
AcDbEntity
  8
17
370
              15
  6
Continuous
 62
               7
100
AcDbLine
 10
4174.1613948387567
 20
1445.3587004534857
 30
0.0
 11
4174.0009322193655
 21
1445.3660787850306
 31
0.0
  0
LINE
  5
164
100
AcDbEntity
  8
17
370
              15
  6
Continuous
 62
               7
100
AcDbLine
 10
4174.0009322193655
 20
1445.3660787850306
 30
0.0
 11
4173.8400717208879
 21
1445.3746206332526
 31
0.0
  0
LINE
  5
165
100
AcDbEntity
  8
17
370
              15
  6
Continuous
 62
               7
100
AcDbLine
 10
4173.8400717208879
 20
1445.3746206332526
 30
0.0
 11
4173.6787729952002
 21
1445.3844081288814
 31
0.0
  0
LINE
  5
166
100
AcDbEntity
  8
17
370
              15
  6
Continuous
 62
               7
100
AcDbLine
 10
4173.6787729952002
 20
1445.3844081288814
 30
0.0
 11
4173.51699569418
 21
1445.3955234026469
 31
0.0
  0
LINE
  5
167
100
AcDbEntity
  8
17
370
              15
  6
Continuous
 62
               7
100
AcDbLine
 10
4173.51699569418
 20
1445.3955234026469
 30
0.0
 11
4173.3546994697044
 21
1445.4080485852789
 31
0.0
  0
LINE
  5
168
100
AcDbEntity
  8
17
370
              15
  6
Continuous
 62
               7
100
AcDbLine
 10
4173.3546994697044
 20
1445.4080485852789
 30
0.0
 11
4173.1292946472977
 21
1445.4278627000838
 31
0.0
  0
LINE
  5
169
100
AcDbEntity
  8
17
370
              15
  6
Continuous
 62
               7
100
AcDbLine
 10
4173.1292946472977
 20
1445.4278627000838
 30
0.0
 11
4172.903181536004
 21
1445.4507907670779
 31
0.0
  0
LINE
  5
16A
100
AcDbEntity
  8
17
370
              15
  6
Continuous
 62
               7
100
AcDbLine
 10
4172.903181536004
 20
1445.4507907670779
 30
0.0
 11
4172.6767224806663
 21
1445.4770904732929
 31
0.0
  0
LINE
  5
16B
100
AcDbEntity
  8
17
370
              15
  6
Continuous
 62
               7
100
AcDbLine
 10
4172.6767224806663
 20
1445.4770904732929
 30
0.0
 11
4172.4502798261292
 21
1445.5070195057615
 31
0.0
  0
LINE
  5
16C
100
AcDbEntity
  8
17
370
              15
  6
Continuous
 62
               7
100
AcDbLine
 10
4172.4502798261292
 20
1445.5070195057615
 30
0.0
 11
4172.2242159172383
 21
1445.5408355515151
 31
0.0
  0
LINE
  5
16D
100
AcDbEntity
  8
17
370
              15
  6
Continuous
 62
               7
100
AcDbLine
 10
4172.2242159172383
 20
1445.5408355515151
 30
0.0
 11
4171.9988930988366
 21
1445.5787962975862
 31
0.0
  0
LINE
  5
16E
100
AcDbEntity
  8
17
370
              15
  6
Continuous
 62
               7
100
AcDbLine
 10
4171.9988930988366
 20
1445.5787962975862
 30
0.0
 11
4171.7746737157686
 21
1445.6211594310066
 31
0.0
  0
LINE
  5
16F
100
AcDbEntity
  8
17
370
              15
  6
Continuous
 62
               7
100
AcDbLine
 10
4171.7746737157686
 20
1445.6211594310066
 30
0.0
 11
4171.5519201128791
 21
1445.6681826388083
 31
0.0
  0
LINE
  5
170
100
AcDbEntity
  8
17
370
              15
  6
Continuous
 62
               7
100
AcDbLine
 10
4171.5519201128791
 20
1445.6681826388083
 30
0.0
 11
4171.3309946350118
 21
1445.7201236080236
 31
0.0
  0
LINE
  5
171
100
AcDbEntity
  8
17
370
              15
  6
Continuous
 62
               7
100
AcDbLine
 10
4171.3309946350118
 20
1445.7201236080236
 30
0.0
 11
4171.1122596270116
 21
1445.7772400256845
 31
0.0
  0
LINE
  5
172
100
AcDbEntity
  8
17
370
              15
  6
Continuous
 62
               7
100
AcDbLine
 10
4171.1122596270116
 20
1445.7772400256845
 30
0.0
 11
4170.896077433722
 21
1445.839789578823
 31
0.0
  0
LINE
  5
173
100
AcDbEntity
  8
17
370
              15
  6
Continuous
 62
               7
100
AcDbLine
 10
4170.896077433722
 20
1445.839789578823
 30
0.0
 11
4170.6828103999878
 21
1445.9080299544712
 31
0.0
  0
LINE
  5
174
100
AcDbEntity
  8
17
370
              15
  6
Continuous
 62
               7
100
AcDbLine
 10
4170.6828103999878
 20
1445.9080299544712
 30
0.0
 11
4170.4728208706538
 21
1445.9822188396608
 31
0.0
  0
LINE
  5
175
100
AcDbEntity
  8
17
370
              15
  6
Continuous
 62
               7
100
AcDbLine
 10
4170.4728208706538
 20
1445.9822188396608
 30
0.0
 11
4170.2664711905627
 21
1446.0626139214246
 31
0.0
  0
LINE
  5
176
100
AcDbEntity
  8
17
370
              15
  6
Continuous
 62
               7
100
AcDbLine
 10
4170.2664711905627
 20
1446.0626139214246
 30
0.0
 11
4170.0641237045602
 21
1446.149472886794
 31
0.0
  0
LINE
  5
177
100
AcDbEntity
  8
17
370
              15
  6
Continuous
 62
               7
100
AcDbLine
 10
4170.0641237045602
 20
1446.149472886794
 30
0.0
 11
4169.86614075749
 21
1446.2430534228013
 31
0.0
  0
LINE
  5
178
100
AcDbEntity
  8
17
370
              15
  6
Continuous
 62
               7
100
AcDbLine
 10
4169.86614075749
 20
1446.2430534228013
 30
0.0
 11
4169.672884694196
 21
1446.3436132164784
 31
0.0
  0
LINE
  5
179
100
AcDbEntity
  8
17
370
              15
  6
Continuous
 62
               7
100
AcDbLine
 10
4169.672884694196
 20
1446.3436132164784
 30
0.0
 11
4169.4847178595237
 21
1446.4514099548576
 31
0.0
  0
LINE
  5
17A
100
AcDbEntity
  8
17
370
              15
  6
Continuous
 62
               7
100
AcDbLine
 10
4169.4847178595237
 20
1446.4514099548576
 30
0.0
 11
4169.3020025983169
 21
1446.5667013249708
 31
0.0
  0
LINE
  5
17B
100
AcDbEntity
  8
17
370
              15
  6
Continuous
 62
               7
100
AcDbLine
 10
4169.3020025983169
 20
1446.5667013249708
 30
0.0
 11
4169.1251012554194
 21
1446.6897450138504
 31
0.0
  0
LINE
  5
17C
100
AcDbEntity
  8
17
370
              15
  6
Continuous
 62
               7
100
AcDbLine
 10
4169.1251012554194
 20
1446.6897450138504
 30
0.0
 11
4168.9838311274116
 21
1446.7971192383782
 31
0.0
  0
LINE
  5
17D
100
AcDbEntity
  8
17
370
              15
  6
Continuous
 62
               7
100
AcDbLine
 10
4168.9838311274116
 20
1446.7971192383782
 30
0.0
 11
4168.846548299317
 21
1446.9096645986929
 31
0.0
  0
LINE
  5
17E
100
AcDbEntity
  8
17
370
              15
  6
Continuous
 62
               7
100
AcDbLine
 10
4168.846548299317
 20
1446.9096645986929
 30
0.0
 11
4168.7130429132458
 21
1447.027108929753
 31
0.0
  0
LINE
  5
17F
100
AcDbEntity
  8
17
370
              15
  6
Continuous
 62
               7
100
AcDbLine
 10
4168.7130429132458
 20
1447.027108929753
 30
0.0
 11
4168.5831051113073
 21
1447.1491800665174
 31
0.0
  0
LINE
  5
180
100
AcDbEntity
  8
17
370
              15
  6
Continuous
 62
               7
100
AcDbLine
 10
4168.5831051113073
 20
1447.1491800665174
 30
0.0
 11
4168.4565250356118
 21
1447.2756058439445
 31
0.0
  0
LINE
  5
181
100
AcDbEntity
  8
17
370
              15
  6
Continuous
 62
               7
100
AcDbLine
 10
4168.4565250356118
 20
1447.2756058439445
 30
0.0
 11
4168.3330928282685
 21
1447.4061140969927
 31
0.0
  0
LINE
  5
182
100
AcDbEntity
  8
17
370
              15
  6
Continuous
 62
               7
100
AcDbLine
 10
4168.3330928282685
 20
1447.4061140969927
 30
0.0
 11
4168.2125986313877
 21
1447.5404326606208
 31
0.0
  0
LINE
  5
183
100
AcDbEntity
  8
17
370
              15
  6
Continuous
 62
               7
100
AcDbLine
 10
4168.2125986313877
 20
1447.5404326606208
 30
0.0
 11
4168.0948325870795
 21
1447.6782893697873
 31
0.0
  0
LINE
  5
184
100
AcDbEntity
  8
17
370
              15
  6
Continuous
 62
               7
100
AcDbLine
 10
4168.0948325870795
 20
1447.6782893697873
 30
0.0
 11
4167.9795848374533
 21
1447.819412059451
 31
0.0
  0
LINE
  5
185
100
AcDbEntity
  8
17
370
              15
  6
Continuous
 62
               7
100
AcDbLine
 10
4167.9795848374533
 20
1447.819412059451
 30
0.0
 11
4167.8666455246184
 21
1447.9635285645702
 31
0.0
  0
LINE
  5
186
100
AcDbEntity
  8
17
370
              15
  6
Continuous
 62
               7
100
AcDbLine
 10
4167.8666455246184
 20
1447.9635285645702
 30
0.0
 11
4167.7558047906859
 21
1448.1103667201035
 31
0.0
  0
LINE
  5
187
100
AcDbEntity
  8
17
370
              15
  6
Continuous
 62
               7
100
AcDbLine
 10
4167.7558047906859
 20
1448.1103667201035
 30
0.0
 11
4167.6468527777652
 21
1448.2596543610096
 31
0.0
  0
LINE
  5
188
100
AcDbEntity
  8
17
370
              15
  6
Continuous
 62
               7
100
AcDbLine
 10
4167.6468527777652
 20
1448.2596543610096
 30
0.0
 11
4167.5395796279654
 21
1448.411119322247
 31
0.0
  0
LINE
  5
189
100
AcDbEntity
  8
17
370
              15
  6
Continuous
 62
               7
100
AcDbLine
 10
4167.5395796279654
 20
1448.411119322247
 30
0.0
 11
4167.4337754833959
 21
1448.5644894387742
 31
0.0
  0
LINE
  5
18A
100
AcDbEntity
  8
17
370
              15
  6
Continuous
 62
               7
100
AcDbLine
 10
4167.4337754833959
 20
1448.5644894387742
 30
0.0
 11
4167.3292304861689
 21
1448.7194925455501
 31
0.0
  0
LINE
  5
18B
100
AcDbEntity
  8
17
370
              15
  6
Continuous
 62
               7
100
AcDbLine
 10
4167.3292304861689
 20
1448.7194925455501
 30
0.0
 11
4167.2257347783925
 21
1448.875856477533
 31
0.0
  0
LINE
  5
18C
100
AcDbEntity
  8
17
370
              15
  6
Continuous
 62
               7
100
AcDbLine
 10
4167.2257347783925
 20
1448.875856477533
 30
0.0
 11
4167.1230785021762
 21
1449.0333090696818
 31
0.0
  0
LINE
  5
18D
100
AcDbEntity
  8
17
370
              15
  6
Continuous
 62
               7
100
AcDbLine
 10
4167.1230785021762
 20
1449.0333090696818
 30
0.0
 11
4167.0210517996302
 21
1449.1915781569546
 31
0.0
  0
LINE
  5
18E
100
AcDbEntity
  8
17
370
              15
  6
Continuous
 62
               7
100
AcDbLine
 10
4167.0210517996302
 20
1449.1915781569546
 30
0.0
 11
4166.9194448128655
 21
1449.3503915743104
 31
0.0
  0
LINE
  5
18F
100
AcDbEntity
  8
17
370
              15
  6
Continuous
 62
               7
100
AcDbLine
 10
4166.9194448128655
 20
1449.3503915743104
 30
0.0
 11
4166.8180476839907
 21
1449.5094771567074
 31
0.0
  0
LINE
  5
190
100
AcDbEntity
  8
17
370
              15
  6
Continuous
 62
               7
100
AcDbLine
 10
4176.5480253625619
 20
1470.672936978136
 30
0.0
 11
4184.0480253625619
 21
1470.672936978136
 31
0.0
  0
LINE
  5
191
100
AcDbEntity
  8
17
370
              15
  6
Continuous
 62
               7
100
AcDbLine
 10
4176.5480253625619
 20
1470.672936978136
 30
0.0
 11
4178.4798770151401
 21
1471.1905750683411
 31
0.0
  0
LINE
  5
192
100
AcDbEntity
  8
17
370
              15
  6
Continuous
 62
               7
100
AcDbLine
 10
4176.5480253625619
 20
1470.672936978136
 30
0.0
 11
4178.4798770151401
 21
1470.1552988879309
 31
0.0
  0
LINE
  5
193
100
AcDbEntity
  8
17
370
              15
  6
Continuous
 62
               7
100
AcDbLine
 10
4184.0480253625619
 20
1470.672936978136
 30
0.0
 11
4182.1161737099837
 21
1470.1552988879309
 31
0.0
  0
LINE
  5
194
100
AcDbEntity
  8
17
370
              15
  6
Continuous
 62
               7
100
AcDbLine
 10
4184.0480253625619
 20
1470.672936978136
 30
0.0
 11
4182.1161737099837
 21
1471.1905750683411
 31
0.0
  0
LINE
  5
195
100
AcDbEntity
  8
17
370
              15
  6
Continuous
 62
               7
100
AcDbLine
 10
4176.5480253625619
 20
1463.3317985852789
 30
0.0
 11
4176.5480253625619
 21
1471.172936978136
 31
0.0
  0
LINE
  5
196
100
AcDbEntity
  8
17
370
              15
  6
Continuous
 62
               7
100
AcDbLine
 10
4184.0480253625619
 20
1465.8317985852789
 30
0.0
 11
4184.0480253625619
 21
1471.172936978136
 31
0.0
  0
MTEXT
  5
197
100
AcDbEntity
  8
17
 62
               7
100
AcDbMText
 10
4180.2980148990437
 20
1473.1729380244531
 30
0.0
 40
2.0
 41
0.0
 71
               2
 72
               1
  1
15±1
  7
ＭＳ ゴシック
 11
1.0
 21
0.0000000001745329
 31
0.0
 73
               1
 44
0.7828267384257843
  0
LINE
  5
198
100
AcDbEntity
  8
17
370
              15
  6
Continuous
 62
               7
100
AcDbLine
 10
4177.2180951128612
 20
1464.5351350996621
 30
0.0
 11
4180.7710706431744
 21
1461.2279527868484
 31
0.0
  0
LINE
  5
199
100
AcDbEntity
  8
17
370
              15
  6
Continuous
 62
               7
100
AcDbLine
 10
4177.2180951128612
 20
1464.5351350996621
 30
0.0
 11
4178.9848413677691
 21
1463.5977943554442
 31
0.0
  0
LINE
  5
19A
100
AcDbEntity
  8
17
370
              15
  6
Continuous
 62
               7
100
AcDbLine
 10
4177.2180951128612
 20
1464.5351350996621
 30
0.0
 11
4178.2794718795431
 21
1462.8400010757136
 31
0.0
  0
MTEXT
  5
19B
100
AcDbEntity
  8
17
 62
               7
100
AcDbMText
 10
4181.6360014645352
 20
1463.7568224369184
 30
0.0
 40
2.0
 41
0.0
 71
               2
 72
               1
  1
R5
  7
ＭＳ ゴシック
 11
0.7319721134591923
 21
-0.6813345911650776
 31
0.0
 73
               1
 44
0.7828267384257843
  0
LINE
  5
19C
100
AcDbEntity
  8
17
370
              15
  6
Continuous
 62
               7
100
AcDbLine
 10
4145.5837396482766
 20
1465.8429592995647
 30
0.0
 11
4140.5837396482766
 21
1465.8429592995647
 31
0.0
  0
LINE
  5
19D
100
AcDbEntity
  8
17
370
              15
  6
Continuous
 62
               7
100
AcDbLine
 10
4138.0837396482766
 20
1463.3429592995647
 30
0.0
 11
4138.0837396482766
 21
1445.8429592995647
 31
0.0
  0
ARC
  5
19E
100
AcDbEntity
  8
17
370
              15
  6
Continuous
 62
               7
100
AcDbCircle
 10
4140.5837396482766
 20
1463.3429592995647
 30
0.0
 40
2.5
100
AcDbArc
 50
90.0
 51
180.0
  0
LINE
  5
19F
100
AcDbEntity
  8
17
370
              15
  6
Continuous
 62
               7
100
AcDbLine
 10
4145.5837396482766
 20
1465.3429592995647
 30
0.0
 11
4140.5837396482766
 21
1465.3429592995647
 31
0.0
  0
ARC
  5
1A0
100
AcDbEntity
  8
17
370
              15
  6
Continuous
 62
               7
100
AcDbCircle
 10
4140.5837396482766
 20
1463.3429592995647
 30
0.0
 40
2.0
100
AcDbArc
 50
90.0
 51
180.0
  0
LINE
  5
1A1
100
AcDbEntity
  8
17
370
              15
  6
Continuous
 62
               7
100
AcDbLine
 10
4138.5837396482766
 20
1463.3429592995647
 30
0.0
 11
4138.5837396482766
 21
1445.8429592995647
 31
0.0
  0
LINE
  5
1A2
100
AcDbEntity
  8
17
370
              15
  6
Continuous
 62
               7
100
AcDbLine
 10
4145.5837396482766
 20
1465.8429592995647
 30
0.0
 11
4145.5837396482766
 21
1465.3429592995647
 31
0.0
  0
LINE
  5
1A3
100
AcDbEntity
  8
17
370
              15
  6
Continuous
 62
               7
100
AcDbLine
 10
4121.9452798268476
 20
1465.8429592995647
 30
0.0
 11
4140.5298780411331
 21
1465.8429592995647
 31
0.0
  0
LINE
  5
1A4
100
AcDbEntity
  8
17
370
              15
  6
Continuous
 62
               7
100
AcDbLine
 10
4121.9452798268476
 20
1465.8429592995647
 30
0.0
 11
4121.9879688367155
 21
1465.6873309122793
 31
0.0
  0
LINE
  5
1A5
100
AcDbEntity
  8
17
370
              15
  6
Continuous
 62
               7
100
AcDbLine
 10
4121.9879688367155
 20
1465.6873309122793
 30
0.0
 11
4122.0304013791956
 21
1465.5316867663171
 31
0.0
  0
LINE
  5
1A6
100
AcDbEntity
  8
17
370
              15
  6
Continuous
 62
               7
100
AcDbLine
 10
4122.0304013791956
 20
1465.5316867663171
 30
0.0
 11
4122.0723209868993
 21
1465.3760111030017
 31
0.0
  0
LINE
  5
1A7
100
AcDbEntity
  8
17
370
              15
  6
Continuous
 62
               7
100
AcDbLine
 10
4122.0723209868993
 20
1465.3760111030017
 30
0.0
 11
4122.1134711924406
 21
1465.2202881636561
 31
0.0
  0
LINE
  5
1A8
100
AcDbEntity
  8
17
370
              15
  6
Continuous
 62
               7
100
AcDbLine
 10
4122.1134711924406
 20
1465.2202881636561
 30
0.0
 11
4122.1535955284289
 21
1465.0645021896039
 31
0.0
  0
LINE
  5
1A9
100
AcDbEntity
  8
17
370
              15
  6
Continuous
 62
               7
100
AcDbLine
 10
4122.1535955284289
 20
1465.0645021896039
 30
0.0
 11
4122.1924375274784
 21
1464.9086374221679
 31
0.0
  0
LINE
  5
1AA
100
AcDbEntity
  8
17
370
              15
  6
Continuous
 62
               7
100
AcDbLine
 10
4122.1924375274784
 20
1464.9086374221679
 30
0.0
 11
4122.2297407221995
 21
1464.752678102672
 31
0.0
  0
LINE
  5
1AB
100
AcDbEntity
  8
17
370
              15
  6
Continuous
 62
               7
100
AcDbLine
 10
4122.2297407221995
 20
1464.752678102672
 30
0.0
 11
4122.2652486452062
 21
1464.5966084724391
 31
0.0
  0
LINE
  5
1AC
100
AcDbEntity
  8
17
370
              15
  6
Continuous
 62
               7
100
AcDbLine
 10
4122.2652486452062
 20
1464.5966084724391
 30
0.0
 11
4122.2987048291088
 21
1464.4404127727926
 31
0.0
  0
LINE
  5
1AD
100
AcDbEntity
  8
17
370
              15
  6
Continuous
 62
               7
100
AcDbLine
 10
4122.2987048291088
 20
1464.4404127727926
 30
0.0
 11
4122.3298528065206
 21
1464.2840752450559
 31
0.0
  0
LINE
  5
1AE
100
AcDbEntity
  8
17
370
              15
  6
Continuous
 62
               7
100
AcDbLine
 10
4122.3298528065206
 20
1464.2840752450559
 30
0.0
 11
4122.3584361100529
 21
1464.1275801305521
 31
0.0
  0
LINE
  5
1AF
100
AcDbEntity
  8
17
370
              15
  6
Continuous
 62
               7
100
AcDbLine
 10
4122.3584361100529
 20
1464.1275801305521
 30
0.0
 11
4122.3841982723188
 21
1463.9709116706049
 31
0.0
  0
LINE
  5
1B0
100
AcDbEntity
  8
17
370
              15
  6
Continuous
 62
               7
100
AcDbLine
 10
4122.3841982723188
 20
1463.9709116706049
 30
0.0
 11
4122.4068828259287
 21
1463.8140541065372
 31
0.0
  0
LINE
  5
1B1
100
AcDbEntity
  8
17
370
              15
  6
Continuous
 62
               7
100
AcDbLine
 10
4122.4068828259287
 20
1463.8140541065372
 30
0.0
 11
4122.4262333034967
 21
1463.6569916796723
 31
0.0
  0
LINE
  5
1B2
100
AcDbEntity
  8
17
370
              15
  6
Continuous
 62
               7
100
AcDbLine
 10
4122.4262333034967
 20
1463.6569916796723
 30
0.0
 11
4122.4419932376331
 21
1463.4997086313338
 31
0.0
  0
LINE
  5
1B3
100
AcDbEntity
  8
17
370
              15
  6
Continuous
 62
               7
100
AcDbLine
 10
4122.4419932376331
 20
1463.4997086313338
 30
0.0
 11
4122.4539061609503
 21
1463.3421892028448
 31
0.0
  0
LINE
  5
1B4
100
AcDbEntity
  8
17
370
              15
  6
Continuous
 62
               7
100
AcDbLine
 10
4122.4539061609503
 20
1463.3421892028448
 30
0.0
 11
4122.4617156060622
 21
1463.1844176355287
 31
0.0
  0
LINE
  5
1B5
100
AcDbEntity
  8
17
370
              15
  6
Continuous
 62
               7
100
AcDbLine
 10
4122.4617156060622
 20
1463.1844176355287
 30
0.0
 11
4122.4651651055783
 21
1463.0263781707085
 31
0.0
  0
LINE
  5
1B6
100
AcDbEntity
  8
17
370
              15
  6
Continuous
 62
               7
100
AcDbLine
 10
4122.4651651055783
 20
1463.0263781707085
 30
0.0
 11
4122.4639981921127
 21
1462.8680550497081
 31
0.0
  0
LINE
  5
1B7
100
AcDbEntity
  8
17
370
              15
  6
Continuous
 62
               7
100
AcDbLine
 10
4122.4639981921127
 20
1462.8680550497081
 30
0.0
 11
4122.4579583982759
 21
1462.7094325138503
 31
0.0
  0
LINE
  5
1B8
100
AcDbEntity
  8
17
370
              15
  6
Continuous
 62
               7
100
AcDbLine
 10
4122.4579583982759
 20
1462.7094325138503
 30
0.0
 11
4122.4443999888072
 21
1462.521601117927
 31
0.0
  0
LINE
  5
1B9
100
AcDbEntity
  8
17
370
              15
  6
Continuous
 62
               7
100
AcDbLine
 10
4122.4443999888072
 20
1462.521601117927
 30
0.0
 11
4122.4245205749248
 21
1462.3334223404213
 31
0.0
  0
LINE
  5
1BA
100
AcDbEntity
  8
17
370
              15
  6
Continuous
 62
               7
100
AcDbLine
 10
4122.4245205749248
 20
1462.3334223404213
 30
0.0
 11
4122.3991618061509
 21
1462.1449889100838
 31
0.0
  0
LINE
  5
1BB
100
AcDbEntity
  8
17
370
              15
  6
Continuous
 62
               7
100
AcDbLine
 10
4122.3991618061509
 20
1462.1449889100838
 30
0.0
 11
4122.3691653320102
 21
1461.9563935556664
 31
0.0
  0
LINE
  5
1BC
100
AcDbEntity
  8
17
370
              15
  6
Continuous
 62
               7
100
AcDbLine
 10
4122.3691653320102
 20
1461.9563935556664
 30
0.0
 11
4122.3353728020256
 21
1461.7677290059196
 31
0.0
  0
LINE
  5
1BD
100
AcDbEntity
  8
17
370
              15
  6
Continuous
 62
               7
100
AcDbLine
 10
4122.3353728020256
 20
1461.7677290059196
 30
0.0
 11
4122.2986258657202
 21
1461.5790879895947
 31
0.0
  0
LINE
  5
1BE
100
AcDbEntity
  8
17
370
              15
  6
Continuous
 62
               7
100
AcDbLine
 10
4122.2986258657202
 20
1461.5790879895947
 30
0.0
 11
4122.2597661726168
 21
1461.3905632354429
 31
0.0
  0
LINE
  5
1BF
100
AcDbEntity
  8
17
370
              15
  6
Continuous
 62
               7
100
AcDbLine
 10
4122.2597661726168
 20
1461.3905632354429
 30
0.0
 11
4122.2196353722402
 21
1461.2022474722155
 31
0.0
  0
LINE
  5
1C0
100
AcDbEntity
  8
17
370
              15
  6
Continuous
 62
               7
100
AcDbLine
 10
4122.2196353722402
 20
1461.2022474722155
 30
0.0
 11
4122.1790751141125
 21
1461.0142334286634
 31
0.0
  0
LINE
  5
1C1
100
AcDbEntity
  8
17
370
              15
  6
Continuous
 62
               7
100
AcDbLine
 10
4122.1790751141125
 20
1461.0142334286634
 30
0.0
 11
4122.1389270477575
 21
1460.8266138335377
 31
0.0
  0
LINE
  5
1C2
100
AcDbEntity
  8
17
370
              15
  6
Continuous
 62
               7
100
AcDbLine
 10
4122.1389270477575
 20
1460.8266138335377
 30
0.0
 11
4122.1000328226992
 21
1460.6394814155899
 31
0.0
  0
LINE
  5
1C3
100
AcDbEntity
  8
17
370
              15
  6
Continuous
 62
               7
100
AcDbLine
 10
4122.1000328226992
 20
1460.6394814155899
 30
0.0
 11
4122.0632340884604
 21
1460.4529289035709
 31
0.0
  0
LINE
  5
1C4
100
AcDbEntity
  8
17
370
              15
  6
Continuous
 62
               7
100
AcDbLine
 10
4122.0632340884604
 20
1460.4529289035709
 30
0.0
 11
4122.0293724945632
 21
1460.2670490262319
 31
0.0
  0
LINE
  5
1C5
100
AcDbEntity
  8
17
370
              15
  6
Continuous
 62
               7
100
AcDbLine
 10
4122.0293724945632
 20
1460.2670490262319
 30
0.0
 11
4121.9992896905333
 21
1460.0819345123239
 31
0.0
  0
LINE
  5
1C6
100
AcDbEntity
  8
17
370
              15
  6
Continuous
 62
               7
100
AcDbLine
 10
4121.9992896905333
 20
1460.0819345123239
 30
0.0
 11
4121.9738273258927
 21
1459.897678090598
 31
0.0
  0
LINE
  5
1C7
100
AcDbEntity
  8
17
370
              15
  6
Continuous
 62
               7
100
AcDbLine
 10
4121.9738273258927
 20
1459.897678090598
 30
0.0
 11
4121.9538270501644
 21
1459.7143724898058
 31
0.0
  0
LINE
  5
1C8
100
AcDbEntity
  8
17
370
              15
  6
Continuous
 62
               7
100
AcDbLine
 10
4121.9538270501644
 20
1459.7143724898058
 30
0.0
 11
4121.9401305128722
 21
1459.5321104386978
 31
0.0
  0
LINE
  5
1C9
100
AcDbEntity
  8
17
370
              15
  6
Continuous
 62
               7
100
AcDbLine
 10
4121.9401305128722
 20
1459.5321104386978
 30
0.0
 11
4121.93357936354
 21
1459.3509846660259
 31
0.0
  0
LINE
  5
1CA
100
AcDbEntity
  8
17
370
              15
  6
Continuous
 62
               7
100
AcDbLine
 10
4121.93357936354
 20
1459.3509846660259
 30
0.0
 11
4121.9350152516909
 21
1459.1710879005404
 31
0.0
  0
LINE
  5
1CB
100
AcDbEntity
  8
17
370
              15
  6
Continuous
 62
               7
100
AcDbLine
 10
4121.9350152516909
 20
1459.1710879005404
 30
0.0
 11
4121.9452798268476
 21
1458.9925128709931
 31
0.0
  0
LINE
  5
1CC
100
AcDbEntity
  8
17
370
              15
  6
Continuous
 62
               7
100
AcDbLine
 10
4121.9452798268476
 20
1458.9925128709931
 30
0.0
 11
4121.9667138142931
 21
1458.8030874677654
 31
0.0
  0
LINE
  5
1CD
100
AcDbEntity
  8
17
370
              15
  6
Continuous
 62
               7
100
AcDbLine
 10
4121.9667138142931
 20
1458.8030874677654
 30
0.0
 11
4121.9986531498243
 21
1458.6151986650343
 31
0.0
  0
LINE
  5
1CE
100
AcDbEntity
  8
17
370
              15
  6
Continuous
 62
               7
100
AcDbLine
 10
4121.9986531498243
 20
1458.6151986650343
 30
0.0
 11
4122.0405449203836
 21
1458.4287655890894
 31
0.0
  0
LINE
  5
1CF
100
AcDbEntity
  8
17
370
              15
  6
Continuous
 62
               7
100
AcDbLine
 10
4122.0405449203836
 20
1458.4287655890894
 30
0.0
 11
4122.0918362129141
 21
1458.2437073662204
 31
0.0
  0
LINE
  5
1D0
100
AcDbEntity
  8
17
370
              15
  6
Continuous
 62
               7
100
AcDbLine
 10
4122.0918362129141
 20
1458.2437073662204
 30
0.0
 11
4122.1519741143584
 21
1458.059943122717
 31
0.0
  0
LINE
  5
1D1
100
AcDbEntity
  8
17
370
              15
  6
Continuous
 62
               7
100
AcDbLine
 10
4122.1519741143584
 20
1458.059943122717
 30
0.0
 11
4122.2204057116596
 21
1457.8773919848686
 31
0.0
  0
LINE
  5
1D2
100
AcDbEntity
  8
17
370
              15
  6
Continuous
 62
               7
100
AcDbLine
 10
4122.2204057116596
 20
1457.8773919848686
 30
0.0
 11
4122.2965780917602
 21
1457.6959730789652
 31
0.0
  0
LINE
  5
1D3
100
AcDbEntity
  8
17
370
              15
  6
Continuous
 62
               7
100
AcDbLine
 10
4122.2965780917602
 20
1457.6959730789652
 30
0.0
 11
4122.3799383416035
 21
1457.5156055312962
 31
0.0
  0
LINE
  5
1D4
100
AcDbEntity
  8
17
370
              15
  6
Continuous
 62
               7
100
AcDbLine
 10
4122.3799383416035
 20
1457.5156055312962
 30
0.0
 11
4122.4699335481318
 21
1457.3362084681514
 31
0.0
  0
LINE
  5
1D5
100
AcDbEntity
  8
17
370
              15
  6
Continuous
 62
               7
100
AcDbLine
 10
4122.4699335481318
 20
1457.3362084681514
 30
0.0
 11
4122.5660107982885
 21
1457.1577010158203
 31
0.0
  0
LINE
  5
1D6
100
AcDbEntity
  8
17
370
              15
  6
Continuous
 62
               7
100
AcDbLine
 10
4122.5660107982885
 20
1457.1577010158203
 30
0.0
 11
4122.6676171790168
 21
1456.9800023005928
 31
0.0
  0
LINE
  5
1D7
100
AcDbEntity
  8
17
370
              15
  6
Continuous
 62
               7
100
AcDbLine
 10
4122.6676171790168
 20
1456.9800023005928
 30
0.0
 11
4122.7741997772591
 21
1456.8030314487582
 31
0.0
  0
LINE
  5
1D8
100
AcDbEntity
  8
17
370
              15
  6
Continuous
 62
               7
100
AcDbLine
 10
4122.7741997772591
 20
1456.8030314487582
 30
0.0
 11
4122.8852056799578
 21
1456.6267075866067
 31
0.0
  0
LINE
  5
1D9
100
AcDbEntity
  8
17
370
              15
  6
Continuous
 62
               7
100
AcDbLine
 10
4122.8852056799578
 20
1456.6267075866067
 30
0.0
 11
4123.0000819740562
 21
1456.4509498404275
 31
0.0
  0
LINE
  5
1DA
100
AcDbEntity
  8
17
370
              15
  6
Continuous
 62
               7
100
AcDbLine
 10
4123.0000819740562
 20
1456.4509498404275
 30
0.0
 11
4123.1182757464985
 21
1456.2756773365102
 31
0.0
  0
LINE
  5
1DB
100
AcDbEntity
  8
17
370
              15
  6
Continuous
 62
               7
100
AcDbLine
 10
4123.1182757464985
 20
1456.2756773365102
 30
0.0
 11
4123.2392340842252
 21
1456.1008092011448
 31
0.0
  0
LINE
  5
1DC
100
AcDbEntity
  8
17
370
              15
  6
Continuous
 62
               7
100
AcDbLine
 10
4123.2392340842252
 20
1456.1008092011448
 30
0.0
 11
4123.3624040741806
 21
1455.9262645606207
 31
0.0
  0
LINE
  5
1DD
100
AcDbEntity
  8
17
370
              15
  6
Continuous
 62
               7
100
AcDbLine
 10
4123.3624040741806
 20
1455.9262645606207
 30
0.0
 11
4123.487232803308
 21
1455.7519625412276
 31
0.0
  0
LINE
  5
1DE
100
AcDbEntity
  8
17
370
              15
  6
Continuous
 62
               7
100
AcDbLine
 10
4123.487232803308
 20
1455.7519625412276
 30
0.0
 11
4123.6131673585496
 21
1455.5778222692552
 31
0.0
  0
LINE
  5
1DF
100
AcDbEntity
  8
17
370
              15
  6
Continuous
 62
               7
100
AcDbLine
 10
4123.6131673585496
 20
1455.5778222692552
 30
0.0
 11
4123.739654826848
 21
1455.4037628709932
 31
0.0
  0
LINE
  5
1E0
100
AcDbEntity
  8
17
370
              15
  6
Continuous
 62
               7
100
AcDbLine
 10
4138.5837396482766
 20
1445.8429592995647
 30
0.0
 11
4138.5587194689042
 21
1445.8429715669074
 31
0.0
  0
LINE
  5
1E1
100
AcDbEntity
  8
17
370
              15
  6
Continuous
 62
               7
100
AcDbLine
 10
4138.5587194689042
 20
1445.8429715669074
 30
0.0
 11
4138.533699592982
 21
1445.8429836497789
 31
0.0
  0
LINE
  5
1E2
100
AcDbEntity
  8
17
370
              15
  6
Continuous
 62
               7
100
AcDbLine
 10
4138.533699592982
 20
1445.8429836497789
 30
0.0
 11
4138.5086803239583
 21
1445.8429953637076
 31
0.0
  0
LINE
  5
1E3
100
AcDbEntity
  8
17
370
              15
  6
Continuous
 62
               7
100
AcDbLine
 10
4138.5086803239583
 20
1445.8429953637076
 30
0.0
 11
4138.4836619652824
 21
1445.8430065242226
 31
0.0
  0
LINE
  5
1E4
100
AcDbEntity
  8
17
370
              15
  6
Continuous
 62
               7
100
AcDbLine
 10
4138.4836619652824
 20
1445.8430065242226
 30
0.0
 11
4138.4586448204027
 21
1445.8430169468522
 31
0.0
  0
LINE
  5
1E5
100
AcDbEntity
  8
17
370
              15
  6
Continuous
 62
               7
100
AcDbLine
 10
4138.4586448204027
 20
1445.8430169468522
 30
0.0
 11
4138.4336291927684
 21
1445.8430264471251
 31
0.0
  0
LINE
  5
1E6
100
AcDbEntity
  8
17
370
              15
  6
Continuous
 62
               7
100
AcDbLine
 10
4138.4336291927684
 20
1445.8430264471251
 30
0.0
 11
4138.4086153858307
 21
1445.8430348405702
 31
0.0
  0
LINE
  5
1E7
100
AcDbEntity
  8
17
370
              15
  6
Continuous
 62
               7
100
AcDbLine
 10
4138.4086153858307
 20
1445.8430348405702
 30
0.0
 11
4138.383603703036
 21
1445.8430419427159
 31
0.0
  0
LINE
  5
1E8
100
AcDbEntity
  8
17
370
              15
  6
Continuous
 62
               7
100
AcDbLine
 10
4138.383603703036
 20
1445.8430419427159
 30
0.0
 11
4138.3585944478355
 21
1445.8430475690911
 31
0.0
  0
LINE
  5
1E9
100
AcDbEntity
  8
17
370
              15
  6
Continuous
 62
               7
100
AcDbLine
 10
4138.3585944478355
 20
1445.8430475690911
 30
0.0
 11
4138.3335879236784
 21
1445.8430515352247
 31
0.0
  0
LINE
  5
1EA
100
AcDbEntity
  8
17
370
              15
  6
Continuous
 62
               7
100
AcDbLine
 10
4138.3335879236784
 20
1445.8430515352247
 30
0.0
 11
4138.3085844340121
 21
1445.8430536566448
 31
0.0
  0
LINE
  5
1EB
100
AcDbEntity
  8
17
370
              15
  6
Continuous
 62
               7
100
AcDbLine
 10
4138.3085844340121
 20
1445.8430536566448
 30
0.0
 11
4138.2835842822878
 21
1445.8430537488805
 31
0.0
  0
LINE
  5
1EC
100
AcDbEntity
  8
17
370
              15
  6
Continuous
 62
               7
100
AcDbLine
 10
4138.2835842822878
 20
1445.8430537488805
 30
0.0
 11
4138.2585877719539
 21
1445.8430516274602
 31
0.0
  0
LINE
  5
1ED
100
AcDbEntity
  8
17
370
              15
  6
Continuous
 62
               7
100
AcDbLine
 10
4138.2585877719539
 20
1445.8430516274602
 30
0.0
 11
4138.2335952064586
 21
1445.843047107913
 31
0.0
  0
LINE
  5
1EE
100
AcDbEntity
  8
17
370
              15
  6
Continuous
 62
               7
100
AcDbLine
 10
4138.2335952064586
 20
1445.843047107913
 30
0.0
 11
4138.2086068892531
 21
1445.8430400057671
 31
0.0
  0
LINE
  5
1EF
100
AcDbEntity
  8
17
370
              15
  6
Continuous
 62
               7
100
AcDbLine
 10
4138.2086068892531
 20
1445.8430400057671
 30
0.0
 11
4138.1836231237849
 21
1445.8430301365515
 31
0.0
  0
LINE
  5
1F0
100
AcDbEntity
  8
17
370
              15
  6
Continuous
 62
               7
100
AcDbLine
 10
4138.1836231237849
 20
1445.8430301365515
 30
0.0
 11
4138.158644213504
 21
1445.8430173157947
 31
0.0
  0
LINE
  5
1F1
100
AcDbEntity
  8
17
370
              15
  6
Continuous
 62
               7
100
AcDbLine
 10
4138.158644213504
 20
1445.8430173157947
 30
0.0
 11
4138.1336704618598
 21
1445.8430013590255
 31
0.0
  0
LINE
  5
1F2
100
AcDbEntity
  8
17
370
              15
  6
Continuous
 62
               7
100
AcDbLine
 10
4138.1336704618598
 20
1445.8430013590255
 30
0.0
 11
4138.1087021723006
 21
1445.8429820817726
 31
0.0
  0
LINE
  5
1F3
100
AcDbEntity
  8
17
370
              15
  6
Continuous
 62
               7
100
AcDbLine
 10
4138.1087021723006
 20
1445.8429820817726
 30
0.0
 11
4138.0837396482766
 21
1445.8429592995647
 31
0.0
  0
LINE
  5
1F4
100
AcDbEntity
  8
17
370
              15
  6
Continuous
 62
               7
100
AcDbLine
 10
4138.0837396482766
 20
1445.8429592995647
 30
0.0
 11
4137.9244034404746
 21
1445.8427405685325
 31
0.0
  0
LINE
  5
1F5
100
AcDbEntity
  8
17
370
              15
  6
Continuous
 62
               7
100
AcDbLine
 10
4137.9244034404746
 20
1445.8427405685325
 30
0.0
 11
4137.7652745754249
 21
1445.84245339323
 31
0.0
  0
LINE
  5
1F6
100
AcDbEntity
  8
17
370
              15
  6
Continuous
 62
               7
100
AcDbLine
 10
4137.7652745754249
 20
1445.84245339323
 30
0.0
 11
4137.6063127050065
 21
1445.8421799043872
 31
0.0
  0
LINE
  5
1F7
100
AcDbEntity
  8
17
370
              15
  6
Continuous
 62
               7
100
AcDbLine
 10
4137.6063127050065
 20
1445.8421799043872
 30
0.0
 11
4137.4474774810942
 21
1445.8420022327334
 31
0.0
  0
LINE
  5
1F8
100
AcDbEntity
  8
17
370
              15
  6
Continuous
 62
               7
100
AcDbLine
 10
4137.4474774810942
 20
1445.8420022327334
 30
0.0
 11
4137.2887285555671
 21
1445.8420025089993
 31
0.0
  0
LINE
  5
1F9
100
AcDbEntity
  8
17
370
              15
  6
Continuous
 62
               7
100
AcDbLine
 10
4137.2887285555671
 20
1445.8420025089993
 30
0.0
 11
4137.1300255803026
 21
1445.8422628639139
 31
0.0
  0
LINE
  5
1FA
100
AcDbEntity
  8
17
370
              15
  6
Continuous
 62
               7
100
AcDbLine
 10
4137.1300255803026
 20
1445.8422628639139
 30
0.0
 11
4136.9713282071771
 21
1445.8428654282072
 31
0.0
  0
LINE
  5
1FB
100
AcDbEntity
  8
17
370
              15
  6
Continuous
 62
               7
100
AcDbLine
 10
4136.9713282071771
 20
1445.8428654282072
 30
0.0
 11
4136.8125960880679
 21
1445.8438923326094
 31
0.0
  0
LINE
  5
1FC
100
AcDbEntity
  8
17
370
              15
  6
Continuous
 62
               7
100
AcDbLine
 10
4136.8125960880679
 20
1445.8438923326094
 30
0.0
 11
4136.6537888748526
 21
1445.8454257078499
 31
0.0
  0
LINE
  5
1FD
100
AcDbEntity
  8
17
370
              15
  6
Continuous
 62
               7
100
AcDbLine
 10
4136.6537888748526
 20
1445.8454257078499
 30
0.0
 11
4136.4948662194092
 21
1445.8475476846588
 31
0.0
  0
LINE
  5
1FE
100
AcDbEntity
  8
17
370
              15
  6
Continuous
 62
               7
100
AcDbLine
 10
4136.4948662194092
 20
1445.8475476846588
 30
0.0
 11
4136.3357877736153
 21
1445.8503403937659
 31
0.0
  0
LINE
  5
1FF
100
AcDbEntity
  8
17
370
              15
  6
Continuous
 62
               7
100
AcDbLine
 10
4136.3357877736153
 20
1445.8503403937659
 30
0.0
 11
4136.1765131893462
 21
1445.8538859659009
 31
0.0
  0
LINE
  5
200
100
AcDbEntity
  8
17
370
              15
  6
Continuous
 62
               7
100
AcDbLine
 10
4136.1765131893462
 20
1445.8538859659009
 30
0.0
 11
4136.0170021184813
 21
1445.8582665317936
 31
0.0
  0
LINE
  5
201
100
AcDbEntity
  8
17
370
              15
  6
Continuous
 62
               7
100
AcDbLine
 10
4136.0170021184813
 20
1445.8582665317936
 30
0.0
 11
4135.8572142128969
 21
1445.8635642221739
 31
0.0
  0
LINE
  5
202
100
AcDbEntity
  8
17
370
              15
  6
Continuous
 62
               7
100
AcDbLine
 10
4135.8572142128969
 20
1445.8635642221739
 30
0.0
 11
4135.6971091244714
 21
1445.8698611677714
 31
0.0
  0
LINE
  5
203
100
AcDbEntity
  8
17
370
              15
  6
Continuous
 62
               7
100
AcDbLine
 10
4135.6971091244714
 20
1445.8698611677714
 30
0.0
 11
4135.5366465050802
 21
1445.8772394993164
 31
0.0
  0
LINE
  5
204
100
AcDbEntity
  8
17
370
              15
  6
Continuous
 62
               7
100
AcDbLine
 10
4135.5366465050802
 20
1445.8772394993164
 30
0.0
 11
4135.3757860066025
 21
1445.8857813475383
 31
0.0
  0
LINE
  5
205
100
AcDbEntity
  8
17
370
              15
  6
Continuous
 62
               7
100
AcDbLine
 10
4135.3757860066025
 20
1445.8857813475383
 30
0.0
 11
4135.2144872809149
 21
1445.895568843167
 31
0.0
  0
LINE
  5
206
100
AcDbEntity
  8
17
370
              15
  6
Continuous
 62
               7
100
AcDbLine
 10
4135.2144872809149
 20
1445.895568843167
 30
0.0
 11
4135.0527099798946
 21
1445.9066841169326
 31
0.0
  0
LINE
  5
207
100
AcDbEntity
  8
17
370
              15
  6
Continuous
 62
               7
100
AcDbLine
 10
4135.0527099798946
 20
1445.9066841169326
 30
0.0
 11
4134.8904137554191
 21
1445.9192092995645
 31
0.0
  0
LINE
  5
208
100
AcDbEntity
  8
17
370
              15
  6
Continuous
 62
               7
100
AcDbLine
 10
4134.8904137554191
 20
1445.9192092995645
 30
0.0
 11
4134.6650089330124
 21
1445.9390234143696
 31
0.0
  0
LINE
  5
209
100
AcDbEntity
  8
17
370
              15
  6
Continuous
 62
               7
100
AcDbLine
 10
4134.6650089330124
 20
1445.9390234143696
 30
0.0
 11
4134.4388958217178
 21
1445.9619514813635
 31
0.0
  0
LINE
  5
20A
100
AcDbEntity
  8
17
370
              15
  6
Continuous
 62
               7
100
AcDbLine
 10
4134.4388958217178
 20
1445.9619514813635
 30
0.0
 11
4134.2124367663801
 21
1445.9882511875787
 31
0.0
  0
LINE
  5
20B
100
AcDbEntity
  8
17
370
              15
  6
Continuous
 62
               7
100
AcDbLine
 10
4134.2124367663801
 20
1445.9882511875787
 30
0.0
 11
4133.9859941118439
 21
1446.0181802200473
 31
0.0
  0
LINE
  5
20C
100
AcDbEntity
  8
17
370
              15
  6
Continuous
 62
               7
100
AcDbLine
 10
4133.9859941118439
 20
1446.0181802200473
 30
0.0
 11
4133.7599302029521
 21
1446.0519962658009
 31
0.0
  0
LINE
  5
20D
100
AcDbEntity
  8
17
370
              15
  6
Continuous
 62
               7
100
AcDbLine
 10
4133.7599302029521
 20
1446.0519962658009
 30
0.0
 11
4133.5346073845503
 21
1446.0899570118718
 31
0.0
  0
LINE
  5
20E
100
AcDbEntity
  8
17
370
              15
  6
Continuous
 62
               7
100
AcDbLine
 10
4133.5346073845503
 20
1446.0899570118718
 30
0.0
 11
4133.3103880014833
 21
1446.1323201452924
 31
0.0
  0
LINE
  5
20F
100
AcDbEntity
  8
17
370
              15
  6
Continuous
 62
               7
100
AcDbLine
 10
4133.3103880014833
 20
1446.1323201452924
 30
0.0
 11
4133.0876343985938
 21
1446.1793433530941
 31
0.0
  0
LINE
  5
210
100
AcDbEntity
  8
17
370
              15
  6
Continuous
 62
               7
100
AcDbLine
 10
4133.0876343985938
 20
1446.1793433530941
 30
0.0
 11
4132.8667089207265
 21
1446.2312843223094
 31
0.0
  0
LINE
  5
211
100
AcDbEntity
  8
17
370
              15
  6
Continuous
 62
               7
100
AcDbLine
 10
4132.8667089207265
 20
1446.2312843223094
 30
0.0
 11
4132.6479739127262
 21
1446.2884007399703
 31
0.0
  0
LINE
  5
212
100
AcDbEntity
  8
17
370
              15
  6
Continuous
 62
               7
100
AcDbLine
 10
4132.6479739127262
 20
1446.2884007399703
 30
0.0
 11
4132.4317917194367
 21
1446.3509502931088
 31
0.0
  0
LINE
  5
213
100
AcDbEntity
  8
17
370
              15
  6
Continuous
 62
               7
100
AcDbLine
 10
4132.4317917194367
 20
1446.3509502931088
 30
0.0
 11
4132.2185246857025
 21
1446.4191906687568
 31
0.0
  0
LINE
  5
214
100
AcDbEntity
  8
17
370
              15
  6
Continuous
 62
               7
100
AcDbLine
 10
4132.2185246857025
 20
1446.4191906687568
 30
0.0
 11
4132.0085351563675
 21
1446.4933795539466
 31
0.0
  0
LINE
  5
215
100
AcDbEntity
  8
17
370
              15
  6
Continuous
 62
               7
100
AcDbLine
 10
4132.0085351563675
 20
1446.4933795539466
 30
0.0
 11
4131.8021854762765
 21
1446.5737746357102
 31
0.0
  0
LINE
  5
216
100
AcDbEntity
  8
17
370
              15
  6
Continuous
 62
               7
100
AcDbLine
 10
4131.8021854762765
 20
1446.5737746357102
 30
0.0
 11
4131.599837990274
 21
1446.6606336010798
 31
0.0
  0
LINE
  5
217
100
AcDbEntity
  8
17
370
              15
  6
Continuous
 62
               7
100
AcDbLine
 10
4131.599837990274
 20
1446.6606336010798
 30
0.0
 11
4131.4018550432038
 21
1446.754214137087
 31
0.0
  0
LINE
  5
218
100
AcDbEntity
  8
17
370
              15
  6
Continuous
 62
               7
100
AcDbLine
 10
4131.4018550432038
 20
1446.754214137087
 30
0.0
 11
4131.2085989799107
 21
1446.8547739307642
 31
0.0
  0
LINE
  5
219
100
AcDbEntity
  8
17
370
              15
  6
Continuous
 62
               7
100
AcDbLine
 10
4131.2085989799107
 20
1446.8547739307642
 30
0.0
 11
4131.0204321452384
 21
1446.9625706691434
 31
0.0
  0
LINE
  5
21A
100
AcDbEntity
  8
17
370
              15
  6
Continuous
 62
               7
100
AcDbLine
 10
4131.0204321452384
 20
1446.9625706691434
 30
0.0
 11
4130.8377168840307
 21
1447.0778620392566
 31
0.0
  0
LINE
  5
21B
100
AcDbEntity
  8
17
370
              15
  6
Continuous
 62
               7
100
AcDbLine
 10
4130.8377168840307
 20
1447.0778620392566
 30
0.0
 11
4130.6608155411332
 21
1447.2009057281361
 31
0.0
  0
LINE
  5
21C
100
AcDbEntity
  8
17
370
              15
  6
Continuous
 62
               7
100
AcDbLine
 10
4130.6608155411332
 20
1447.2009057281361
 30
0.0
 11
4130.5195454131253
 21
1447.3082799526637
 31
0.0
  0
LINE
  5
21D
100
AcDbEntity
  8
17
370
              15
  6
Continuous
 62
               7
100
AcDbLine
 10
4130.5195454131253
 20
1447.3082799526637
 30
0.0
 11
4130.3822625850316
 21
1447.4208253129786
 31
0.0
  0
LINE
  5
21E
100
AcDbEntity
  8
17
370
              15
  6
Continuous
 62
               7
100
AcDbLine
 10
4130.3822625850316
 20
1447.4208253129786
 30
0.0
 11
4130.2487571989595
 21
1447.5382696440388
 31
0.0
  0
LINE
  5
21F
100
AcDbEntity
  8
17
370
              15
  6
Continuous
 62
               7
100
AcDbLine
 10
4130.2487571989595
 20
1447.5382696440388
 30
0.0
 11
4130.1188193970211
 21
1447.6603407808032
 31
0.0
  0
LINE
  5
220
100
AcDbEntity
  8
17
370
              15
  6
Continuous
 62
               7
100
AcDbLine
 10
4130.1188193970211
 20
1447.6603407808032
 30
0.0
 11
4129.9922393213255
 21
1447.7867665582301
 31
0.0
  0
LINE
  5
221
100
AcDbEntity
  8
17
370
              15
  6
Continuous
 62
               7
100
AcDbLine
 10
4129.9922393213255
 20
1447.7867665582301
 30
0.0
 11
4129.8688071139832
 21
1447.9172748112785
 31
0.0
  0
LINE
  5
222
100
AcDbEntity
  8
17
370
              15
  6
Continuous
 62
               7
100
AcDbLine
 10
4129.8688071139832
 20
1447.9172748112785
 30
0.0
 11
4129.7483129171023
 21
1448.0515933749066
 31
0.0
  0
LINE
  5
223
100
AcDbEntity
  8
17
370
              15
  6
Continuous
 62
               7
100
AcDbLine
 10
4129.7483129171023
 20
1448.0515933749066
 30
0.0
 11
4129.6305468727933
 21
1448.1894500840731
 31
0.0
  0
LINE
  5
224
100
AcDbEntity
  8
17
370
              15
  6
Continuous
 62
               7
100
AcDbLine
 10
4129.6305468727933
 20
1448.1894500840731
 30
0.0
 11
4129.5152991231671
 21
1448.3305727737368
 31
0.0
  0
LINE
  5
225
100
AcDbEntity
  8
17
370
              15
  6
Continuous
 62
               7
100
AcDbLine
 10
4129.5152991231671
 20
1448.3305727737368
 30
0.0
 11
4129.4023598103331
 21
1448.4746892788557
 31
0.0
  0
LINE
  5
226
100
AcDbEntity
  8
17
370
              15
  6
Continuous
 62
               7
100
AcDbLine
 10
4129.4023598103331
 20
1448.4746892788557
 30
0.0
 11
4129.2915190764006
 21
1448.6215274343892
 31
0.0
  0
LINE
  5
227
100
AcDbEntity
  8
17
370
              15
  6
Continuous
 62
               7
100
AcDbLine
 10
4129.2915190764006
 20
1448.6215274343892
 30
0.0
 11
4129.1825670634789
 21
1448.7708150752953
 31
0.0
  0
LINE
  5
228
100
AcDbEntity
  8
17
370
              15
  6
Continuous
 62
               7
100
AcDbLine
 10
4129.1825670634789
 20
1448.7708150752953
 30
0.0
 11
4129.0752939136792
 21
1448.9222800365326
 31
0.0
  0
LINE
  5
229
100
AcDbEntity
  8
17
370
              15
  6
Continuous
 62
               7
100
AcDbLine
 10
4129.0752939136792
 20
1448.9222800365326
 30
0.0
 11
4128.9694897691106
 21
1449.07565015306
 31
0.0
  0
LINE
  5
22A
100
AcDbEntity
  8
17
370
              15
  6
Continuous
 62
               7
100
AcDbLine
 10
4128.9694897691106
 20
1449.07565015306
 30
0.0
 11
4128.8649447718835
 21
1449.2306532598359
 31
0.0
  0
LINE
  5
22B
100
AcDbEntity
  8
17
370
              15
  6
Continuous
 62
               7
100
AcDbLine
 10
4128.8649447718835
 20
1449.2306532598359
 30
0.0
 11
4128.7614490641063
 21
1449.3870171918188
 31
0.0
  0
LINE
  5
22C
100
AcDbEntity
  8
17
370
              15
  6
Continuous
 62
               7
100
AcDbLine
 10
4128.7614490641063
 20
1449.3870171918188
 30
0.0
 11
4128.65879278789
 21
1449.5444697839675
 31
0.0
  0
LINE
  5
22D
100
AcDbEntity
  8
17
370
              15
  6
Continuous
 62
               7
100
AcDbLine
 10
4128.65879278789
 20
1449.5444697839675
 30
0.0
 11
4128.5567660853449
 21
1449.7027388712404
 31
0.0
  0
LINE
  5
22E
100
AcDbEntity
  8
17
370
              15
  6
Continuous
 62
               7
100
AcDbLine
 10
4128.5567660853449
 20
1449.7027388712404
 30
0.0
 11
4128.4551590985793
 21
1449.8615522885959
 31
0.0
  0
LINE
  5
22F
100
AcDbEntity
  8
17
370
              15
  6
Continuous
 62
               7
100
AcDbLine
 10
4128.4551590985793
 20
1449.8615522885959
 30
0.0
 11
4128.3537619697045
 21
1450.0206378709931
 31
0.0
  0
LINE
  5
230
100
AcDbEntity
  8
17
370
              15
  6
Continuous
 62
               7
100
AcDbLine
 10
4138.0837396482766
 20
1471.1840976924218
 30
0.0
 11
4145.5837396482766
 21
1471.1840976924218
 31
0.0
  0
LINE
  5
231
100
AcDbEntity
  8
17
370
              15
  6
Continuous
 62
               7
100
AcDbLine
 10
4138.0837396482766
 20
1471.1840976924218
 30
0.0
 11
4140.0155913008539
 21
1471.7017357826269
 31
0.0
  0
LINE
  5
232
100
AcDbEntity
  8
17
370
              15
  6
Continuous
 62
               7
100
AcDbLine
 10
4138.0837396482766
 20
1471.1840976924218
 30
0.0
 11
4140.0155913008539
 21
1470.6664596022167
 31
0.0
  0
LINE
  5
233
100
AcDbEntity
  8
17
370
              15
  6
Continuous
 62
               7
100
AcDbLine
 10
4145.5837396482766
 20
1471.1840976924218
 30
0.0
 11
4143.6518879956984
 21
1470.6664596022167
 31
0.0
  0
LINE
  5
234
100
AcDbEntity
  8
17
370
              15
  6
Continuous
 62
               7
100
AcDbLine
 10
4145.5837396482766
 20
1471.1840976924218
 30
0.0
 11
4143.6518879956984
 21
1471.7017357826269
 31
0.0
  0
LINE
  5
235
100
AcDbEntity
  8
17
370
              15
  6
Continuous
 62
               7
100
AcDbLine
 10
4138.0837396482766
 20
1463.8429592995647
 30
0.0
 11
4138.0837396482766
 21
1471.6840976924218
 31
0.0
  0
LINE
  5
236
100
AcDbEntity
  8
17
370
              15
  6
Continuous
 62
               7
100
AcDbLine
 10
4145.5837396482766
 20
1466.3429592995647
 30
0.0
 11
4145.5837396482766
 21
1471.6840976924218
 31
0.0
  0
MTEXT
  5
237
100
AcDbEntity
  8
17
 62
               7
100
AcDbMText
 10
4141.8337448795119
 20
1473.6840952510154
 30
0.0
 40
2.0
 41
0.0
 71
               2
 72
               1
  1
15±1
  7
ＭＳ ゴシック
 11
1.0
 21
0.0000000001745329
 31
0.0
 73
               1
 44
0.7828267384257843
  0
LINE
  5
238
100
AcDbEntity
  8
17
370
              15
  6
Continuous
 62
               7
100
AcDbLine
 10
4138.7538093985759
 20
1465.0462958139478
 30
0.0
 11
4142.3067849288882
 21
1461.7391135011342
 31
0.0
  0
LINE
  5
239
100
AcDbEntity
  8
17
370
              15
  6
Continuous
 62
               7
100
AcDbLine
 10
4138.7538093985759
 20
1465.0462958139478
 30
0.0
 11
4140.5205556534829
 21
1464.10895506973
 31
0.0
  0
LINE
  5
23A
100
AcDbEntity
  8
17
370
              15
  6
Continuous
 62
               7
100
AcDbLine
 10
4138.7538093985759
 20
1465.0462958139478
 30
0.0
 11
4139.8151861652577
 21
1463.3511617899994
 31
0.0
  0
MTEXT
  5
23B
100
AcDbEntity
  8
17
 62
               7
100
AcDbMText
 10
4143.1717192379729
 20
1464.2679857669964
 30
0.0
 40
2.0
 41
0.0
 71
               2
 72
               1
  1
R5
  7
ＭＳ ゴシック
 11
0.7319721134591923
 21
-0.6813345911650776
 31
0.0
 73
               1
 44
0.7828267384257843
  0
LINE
  5
23C
100
AcDbEntity
  8
17
370
              15
  6
Continuous
 62
               7
100
AcDbLine
 10
4154.1445981572069
 20
1439.0349235852789
 30
0.0
 11
4116.9733988357411
 21
1439.0349235852789
 31
0.0
  0
LINE
  5
23D
100
AcDbEntity
  8
17
370
              15
  6
Continuous
 62
               7
100
AcDbLine
 10
4158.1445981572069
 20
1439.0349235852789
 30
0.0
 11
4194.8945981572069
 21
1439.0349235852789
 31
0.0
  0
MTEXT
  5
23E
100
AcDbEntity
  8
17
 62
               7
100
AcDbMText
 10
4135.0845627509552
 20
1441.7141123408592
 30
0.0
 40
3.0
 41
0.0
 71
               5
 72
               1
  1
A-A断面　Ｓ＝１／ ２
  7
ＭＳ ゴシック
 73
               1
 44
0.7828267384257842
  0
MTEXT
  5
23F
100
AcDbEntity
  8
17
 62
               7
100
AcDbMText
 10
4177.1471848212668
 20
1441.3499338740623
 30
0.0
 40
3.0
 41
0.0
 71
               5
 72
               1
  1
B-B断面　Ｓ＝１／ ２
  7
ＭＳ ゴシック
 73
               1
 44
0.7828267384257842
  0
LINE
  5
240
100
AcDbEntity
  8
33
370
              15
  6
Continuous
 62
               7
100
AcDbLine
 10
4044.999004916398
 20
1507.7086704023252
 30
0.0
 11
4056.9454758124743
 21
1494.1111767682323
 31
0.0
  0
LINE
  5
241
100
AcDbEntity
  8
33
370
              15
  6
Continuous
 62
               7
100
AcDbLine
 10
4044.999004916398
 20
1507.7086704023252
 30
0.0
 11
4042.6237797733029
 21
1510.412155728136
 31
0.0
  0
LINE
  5
242
100
AcDbEntity
  8
33
370
              15
  6
Continuous
 62
               7
100
AcDbLine
 10
4044.999004916398
 20
1507.7086704023252
 30
0.0
 11
4043.3350607075918
 21
1508.8183053287678
 31
0.0
  0
LINE
  5
243
100
AcDbEntity
  8
33
370
              15
  6
Continuous
 62
               7
100
AcDbLine
 10
4044.999004916398
 20
1507.7086704023252
 30
0.0
 11
4044.1128044243128
 21
1509.501614541954
 31
0.0
  0
LINE
  5
244
100
AcDbEntity
  8
33
370
              15
  6
Continuous
 62
               7
100
AcDbLine
 10
4042.6237797733029
 20
1510.412155728136
 30
0.0
 11
4035.6237797733029
 21
1510.412155728136
 31
0.0
  0
LINE
  5
245
100
AcDbEntity
  8
33
370
              15
  6
Continuous
 62
               7
100
AcDbLine
 10
4056.9454758124743
 20
1494.1111767682323
 30
0.0
 11
4058.925553861548
 21
1491.8574485415872
 31
0.0
  0
LINE
  5
246
100
AcDbEntity
  8
33
370
              15
  6
Continuous
 62
               7
100
AcDbLine
 10
4056.9454758124743
 20
1494.1111767682323
 30
0.0
 11
4058.6094200212806
 21
1493.00154184179
 31
0.0
  0
LINE
  5
247
100
AcDbEntity
  8
33
370
              15
  6
Continuous
 62
               7
100
AcDbLine
 10
4056.9454758124743
 20
1494.1111767682323
 30
0.0
 11
4057.8316763045596
 21
1492.3182326286037
 31
0.0
  0
MTEXT
  5
248
100
AcDbEntity
  8
33
 62
               7
100
AcDbMText
 10
4037.9631504858089
 20
1513.1855967158592
 30
0.0
 40
2.0
 41
0.0
 71
               2
 72
               1
  1
φ181±0.5
  7
ＭＳ ゴシック
 73
               1
 44
0.7828267384257843
  0
LINE
  5
249
100
AcDbEntity
  8
33
370
              15
  6
Continuous
 62
               7
100
AcDbLine
 10
4045.5783344957404
 20
1495.06969418228
 30
0.0
 11
4056.366146233132
 21
1506.7501529882777
 31
0.0
  0
LINE
  5
24A
100
AcDbEntity
  8
33
370
              15
  6
Continuous
 62
               7
100
AcDbLine
 10
4045.5783344957404
 20
1495.06969418228
 30
0.0
 11
4042.3128155343884
 21
1491.5339669526259
 31
0.0
  0
LINE
  5
24B
100
AcDbEntity
  8
33
370
              15
  6
Continuous
 62
               7
100
AcDbLine
 10
4045.5783344957404
 20
1495.06969418228
 30
0.0
 11
4044.6478815684745
 21
1493.2993107915586
 31
0.0
  0
LINE
  5
24C
100
AcDbEntity
  8
33
370
              15
  6
Continuous
 62
               7
100
AcDbLine
 10
4045.5783344957404
 20
1495.06969418228
 30
0.0
 11
4043.8873469283421
 21
1494.00172365511
 31
0.0
  0
LINE
  5
24D
100
AcDbEntity
  8
33
370
              15
  6
Continuous
 62
               7
100
AcDbLine
 10
4042.3128155343884
 20
1491.5339669526259
 30
0.0
 11
4035.3128155343879
 21
1491.5339669526259
 31
0.0
  0
LINE
  5
24E
100
AcDbEntity
  8
33
370
              15
  6
Continuous
 62
               7
100
AcDbLine
 10
4056.366146233132
 20
1506.7501529882777
 30
0.0
 11
4058.4015824099984
 21
1508.9540131403526
 31
0.0
  0
LINE
  5
24F
100
AcDbEntity
  8
33
370
              15
  6
Continuous
 62
               7
100
AcDbLine
 10
4056.366146233132
 20
1506.7501529882777
 30
0.0
 11
4057.2965991603978
 21
1508.5205363789992
 31
0.0
  0
LINE
  5
250
100
AcDbEntity
  8
33
370
              15
  6
Continuous
 62
               7
100
AcDbLine
 10
4056.366146233132
 20
1506.7501529882777
 30
0.0
 11
4058.0571338005302
 21
1507.8181235154475
 31
0.0
  0
MTEXT
  5
251
100
AcDbEntity
  8
33
 62
               7
100
AcDbMText
 10
4037.1660313451839
 20
1494.4534128779687
 30
0.0
 40
2.0
 41
0.0
 71
               2
 72
               1
  1
φ159±0.5
  7
ＭＳ ゴシック
 73
               1
 44
0.7828267384257843
  0
LINE
  5
252
100
AcDbEntity
  8
33
370
              15
  6
Continuous
 62
               7
100
AcDbLine
 10
4033.7118728580585
 20
1510.412155728136
 30
0.0
 11
4035.6237797733029
 21
1510.412155728136
 31
0.0
  0
LINE
  5
253
100
AcDbEntity
  8
33
370
              15
  6
Continuous
 62
               7
100
AcDbLine
 10
4032.6490539805072
 20
1491.5339669526259
 30
0.0
 11
4035.3128155343879
 21
1491.5339669526259
 31
0.0
  0
LINE
  5
254
100
AcDbEntity
  8
33
370
              15
  6
Continuous
 62
               7
100
AcDbLine
 10
4065.2722403644361
 20
1475.2158878709931
 30
0.0
 11
4066.7722403644361
 21
1475.2158878709931
 31
0.0
  0
LINE
  5
255
100
AcDbEntity
  8
33
370
              15
  6
Continuous
 62
               7
100
AcDbLine
 10
4065.2722403644361
 20
1500.4099235852789
 30
0.0
 11
4065.2722403644361
 21
1474.7158878709931
 31
0.0
  0
LINE
  5
256
100
AcDbEntity
  8
33
370
              15
  6
Continuous
 62
               7
100
AcDbLine
 10
4066.7722403644361
 20
1500.4099235852789
 30
0.0
 11
4066.7722403644361
 21
1474.7158878709931
 31
0.0
  0
LINE
  5
257
100
AcDbEntity
  8
33
370
              15
  6
Continuous
 62
               7
100
AcDbLine
 10
4066.7722403644361
 20
1475.2158878709931
 30
0.0
 11
4070.7722403644366
 21
1475.2158878709931
 31
0.0
  0
LINE
  5
258
100
AcDbEntity
  8
33
370
              15
  6
Continuous
 62
               7
100
AcDbLine
 10
4066.7722403644361
 20
1475.2158878709931
 30
0.0
 11
4068.7040920170148
 21
1475.7335259611982
 31
0.0
  0
LINE
  5
259
100
AcDbEntity
  8
33
370
              15
  6
Continuous
 62
               7
100
AcDbLine
 10
4066.7722403644361
 20
1475.2158878709931
 30
0.0
 11
4068.7040920170148
 21
1474.698249780788
 31
0.0
  0
MTEXT
  5
25A
100
AcDbEntity
  8
33
 62
               7
100
AcDbMText
 10
4072.6169902272727
 20
1477.8126658082231
 30
0.0
 40
2.0
 41
0.0
 71
               2
 72
               1
  1
15±1
  7
ＭＳ ゴシック
 11
1.0
 21
0.0000000001745329
 31
0.0
 73
               1
 44
0.7828267384257843
  0
LINE
  5
25B
100
AcDbEntity
  8
33
370
              15
  6
Continuous
 62
               7
100
AcDbLine
 10
3990.2722403644357
 20
1475.2158878709931
 30
0.0
 11
4065.2722403644361
 21
1475.2158878709931
 31
0.0
  0
LINE
  5
25C
100
AcDbEntity
  8
33
370
              15
  6
Continuous
 62
               7
100
AcDbLine
 10
3990.2722403644357
 20
1475.2158878709931
 30
0.0
 11
3992.2040920170139
 21
1475.7335259611982
 31
0.0
  0
LINE
  5
25D
100
AcDbEntity
  8
33
370
              15
  6
Continuous
 62
               7
100
AcDbLine
 10
3990.2722403644357
 20
1475.2158878709931
 30
0.0
 11
3992.2040920170139
 21
1474.698249780788
 31
0.0
  0
LINE
  5
25E
100
AcDbEntity
  8
33
370
              15
  6
Continuous
 62
               7
100
AcDbLine
 10
4065.2722403644361
 20
1475.2158878709931
 30
0.0
 11
4063.3403887118584
 21
1474.698249780788
 31
0.0
  0
LINE
  5
25F
100
AcDbEntity
  8
33
370
              15
  6
Continuous
 62
               7
100
AcDbLine
 10
4065.2722403644361
 20
1475.2158878709931
 30
0.0
 11
4063.3403887118584
 21
1475.7335259611982
 31
0.0
  0
LINE
  5
260
100
AcDbEntity
  8
33
370
              15
  6
Continuous
 62
               7
100
AcDbLine
 10
3990.2722403644357
 20
1500.4099235852789
 30
0.0
 11
3990.2722403644357
 21
1474.7158878709931
 31
0.0
  0
MTEXT
  5
261
100
AcDbEntity
  8
33
 62
               7
100
AcDbMText
 10
4027.7722386202254
 20
1477.7158884639061
 30
0.0
 40
2.0
 41
0.0
 71
               2
 72
               1
  1
750±2
  7
ＭＳ ゴシック
 11
1.0
 21
0.0000000001745329
 31
0.0
 73
               1
 44
0.7828267384257843
  0
LINE
  5
262
100
AcDbEntity
  8
33
370
              15
  6
Continuous
 62
               7
100
AcDbLine
 10
3988.7722403644357
 20
1475.2158878709931
 30
0.0
 11
3990.2722403644357
 21
1475.2158878709931
 31
0.0
  0
LINE
  5
263
100
AcDbEntity
  8
33
370
              15
  6
Continuous
 62
               7
100
AcDbLine
 10
3988.7722403644357
 20
1500.4099235852789
 30
0.0
 11
3988.7722403644357
 21
1474.7158878709931
 31
0.0
  0
LINE
  5
264
100
AcDbEntity
  8
33
370
              15
  6
Continuous
 62
               7
100
AcDbLine
 10
3984.7722403644357
 20
1475.2158878709931
 30
0.0
 11
3988.7722403644357
 21
1475.2158878709931
 31
0.0
  0
LINE
  5
265
100
AcDbEntity
  8
33
370
              15
  6
Continuous
 62
               7
100
AcDbLine
 10
3988.7722403644357
 20
1475.2158878709931
 30
0.0
 11
3986.8403887118575
 21
1474.698249780788
 31
0.0
  0
LINE
  5
266
100
AcDbEntity
  8
33
370
              15
  6
Continuous
 62
               7
100
AcDbLine
 10
3988.7722403644357
 20
1475.2158878709931
 30
0.0
 11
3986.8403887118575
 21
1475.7335259611982
 31
0.0
  0
MTEXT
  5
267
100
AcDbEntity
  8
33
 62
               7
100
AcDbMText
 10
3986.28427170128
 20
1477.772449743203
 30
0.0
 40
2.0
 41
0.0
 71
               2
 72
               1
  1
15±1
  7
ＭＳ ゴシック
 11
1.0
 21
0.0000000001745329
 31
0.0
 73
               1
 44
0.7828267384257843
  0
LINE
  5
268
100
AcDbEntity
  8
33
370
              15
  6
Continuous
 62
               7
100
AcDbLine
 10
3988.7722403644357
 20
1470.7582360852789
 30
0.0
 11
4066.7722403644361
 21
1470.7582360852789
 31
0.0
  0
LINE
  5
269
100
AcDbEntity
  8
33
370
              15
  6
Continuous
 62
               7
100
AcDbLine
 10
3988.7722403644357
 20
1470.7582360852789
 30
0.0
 11
3990.7040920170139
 21
1471.275874175484
 31
0.0
  0
LINE
  5
26A
100
AcDbEntity
  8
33
370
              15
  6
Continuous
 62
               7
100
AcDbLine
 10
3988.7722403644357
 20
1470.7582360852789
 30
0.0
 11
3990.7040920170139
 21
1470.2405979950738
 31
0.0
  0
LINE
  5
26B
100
AcDbEntity
  8
33
370
              15
  6
Continuous
 62
               7
100
AcDbLine
 10
4066.7722403644361
 20
1470.7582360852789
 30
0.0
 11
4064.8403887118584
 21
1470.2405979950738
 31
0.0
  0
LINE
  5
26C
100
AcDbEntity
  8
33
370
              15
  6
Continuous
 62
               7
100
AcDbLine
 10
4066.7722403644361
 20
1470.7582360852789
 30
0.0
 11
4064.8403887118584
 21
1471.275874175484
 31
0.0
  0
LINE
  5
26D
100
AcDbEntity
  8
33
370
              15
  6
Continuous
 62
               7
100
AcDbLine
 10
3988.7722403644357
 20
1500.4099235852789
 30
0.0
 11
3988.7722403644357
 21
1470.2582360852789
 31
0.0
  0
LINE
  5
26E
100
AcDbEntity
  8
33
370
              15
  6
Continuous
 62
               7
100
AcDbLine
 10
4066.7722403644361
 20
1500.4099235852789
 30
0.0
 11
4066.7722403644361
 21
1470.2582360852789
 31
0.0
  0
MTEXT
  5
26F
100
AcDbEntity
  8
33
 62
               7
100
AcDbMText
 10
4027.7722386202254
 20
1473.2582346553124
 30
0.0
 40
2.0
 41
0.0
 71
               2
 72
               1
  1
780±2
  7
ＭＳ ゴシック
 11
1.0
 21
0.0000000001745329
 31
0.0
 73
               1
 44
0.7828267384257843
  0
LINE
  5
270
100
AcDbEntity
  8
33
370
              15
  6
Continuous
 62
               7
100
AcDbLine
 10
3983.8137314358646
 20
1479.4099235852789
 30
0.0
 11
3983.8137314358646
 21
1480.9099235852789
 31
0.0
  0
LINE
  5
271
100
AcDbEntity
  8
33
370
              15
  6
Continuous
 62
               7
100
AcDbLine
 10
4027.2722403644357
 20
1479.4099235852789
 30
0.0
 11
3983.3137314358646
 21
1479.4099235852789
 31
0.0
  0
LINE
  5
272
100
AcDbEntity
  8
33
370
              15
  6
Continuous
 62
               7
100
AcDbLine
 10
4027.2722403644357
 20
1480.9099235852789
 30
0.0
 11
3983.3137314358646
 21
1480.9099235852789
 31
0.0
  0
LINE
  5
273
100
AcDbEntity
  8
33
370
              15
  6
Continuous
 62
               7
100
AcDbLine
 10
3983.8137314358646
 20
1475.4099235852789
 30
0.0
 11
3983.8137314358646
 21
1479.4099235852789
 31
0.0
  0
LINE
  5
274
100
AcDbEntity
  8
33
370
              15
  6
Continuous
 62
               7
100
AcDbLine
 10
3983.8137314358646
 20
1479.4099235852789
 30
0.0
 11
3984.3313695260695
 21
1477.4780719327007
 31
0.0
  0
LINE
  5
275
100
AcDbEntity
  8
33
370
              15
  6
Continuous
 62
               7
100
AcDbLine
 10
3983.8137314358646
 20
1479.4099235852789
 30
0.0
 11
3983.2960933456593
 21
1477.4780719327007
 31
0.0
  0
MTEXT
  5
276
100
AcDbEntity
  8
33
 62
               7
100
AcDbMText
 10
3980.1520934889813
 20
1475.215503311937
 30
0.0
 40
2.0
 41
0.0
 71
               2
 72
               1
  1
15±1
  7
ＭＳ ゴシック
 11
0.0
 21
1.0
 31
0.0
 73
               1
 44
0.7828267384257843
  0
LINE
  5
277
100
AcDbEntity
  8
33
370
              15
  6
Continuous
 62
               7
100
AcDbLine
 10
3983.8137314358646
 20
1480.9099235852789
 30
0.0
 11
3983.8137314358646
 21
1520.9099235852789
 31
0.0
  0
LINE
  5
278
100
AcDbEntity
  8
33
370
              15
  6
Continuous
 62
               7
100
AcDbLine
 10
3983.8137314358646
 20
1480.9099235852789
 30
0.0
 11
3983.2960933456593
 21
1482.8417752378568
 31
0.0
  0
LINE
  5
279
100
AcDbEntity
  8
33
370
              15
  6
Continuous
 62
               7
100
AcDbLine
 10
3983.8137314358646
 20
1480.9099235852789
 30
0.0
 11
3984.3313695260695
 21
1482.8417752378568
 31
0.0
  0
LINE
  5
27A
100
AcDbEntity
  8
33
370
              15
  6
Continuous
 62
               7
100
AcDbLine
 10
3983.8137314358646
 20
1520.9099235852789
 30
0.0
 11
3984.3313695260695
 21
1518.9780719327007
 31
0.0
  0
LINE
  5
27B
100
AcDbEntity
  8
33
370
              15
  6
Continuous
 62
               7
100
AcDbLine
 10
3983.8137314358646
 20
1520.9099235852789
 30
0.0
 11
3983.2960933456593
 21
1518.9780719327007
 31
0.0
  0
LINE
  5
27C
100
AcDbEntity
  8
33
370
              15
  6
Continuous
 62
               7
100
AcDbLine
 10
4027.2722403644357
 20
1520.9099235852789
 30
0.0
 11
3983.3137314358646
 21
1520.9099235852789
 31
0.0
  0
MTEXT
  5
27D
100
AcDbEntity
  8
33
 62
               7
100
AcDbMText
 10
3981.3137303197927
 20
1500.9099253291404
 30
0.0
 40
2.0
 41
0.0
 71
               2
 72
               1
  1
400±2
  7
ＭＳ ゴシック
 11
0.0
 21
1.0
 31
0.0
 73
               1
 44
0.7828267384257843
  0
LINE
  5
27E
100
AcDbEntity
  8
33
370
              15
  6
Continuous
 62
               7
100
AcDbLine
 10
3983.8137314358646
 20
1520.9099235852789
 30
0.0
 11
3983.8137314358646
 21
1522.4099235852789
 31
0.0
  0
LINE
  5
27F
100
AcDbEntity
  8
33
370
              15
  6
Continuous
 62
               7
100
AcDbLine
 10
4027.2722403644357
 20
1522.4099235852789
 30
0.0
 11
3983.3137314358646
 21
1522.4099235852789
 31
0.0
  0
LINE
  5
280
100
AcDbEntity
  8
33
370
              15
  6
Continuous
 62
               7
100
AcDbLine
 10
3983.8137314358646
 20
1522.4099235852789
 30
0.0
 11
3983.8137314358646
 21
1526.4099235852789
 31
0.0
  0
LINE
  5
281
100
AcDbEntity
  8
33
370
              15
  6
Continuous
 62
               7
100
AcDbLine
 10
3983.8137314358646
 20
1522.4099235852789
 30
0.0
 11
3983.2960933456593
 21
1524.3417752378571
 31
0.0
  0
LINE
  5
282
100
AcDbEntity
  8
33
370
              15
  6
Continuous
 62
               7
100
AcDbLine
 10
3983.8137314358646
 20
1522.4099235852789
 30
0.0
 11
3984.3313695260695
 21
1524.3417752378571
 31
0.0
  0
MTEXT
  5
283
100
AcDbEntity
  8
33
 62
               7
100
AcDbMText
 10
3979.9977355788251
 20
1526.3171403150939
 30
0.0
 40
2.0
 41
0.0
 71
               2
 72
               1
  1
15±1
  7
ＭＳ ゴシック
 11
0.0
 21
1.0
 31
0.0
 73
               1
 44
0.7828267384257843
  0
LINE
  5
284
100
AcDbEntity
  8
33
370
              15
  6
Continuous
 62
               7
100
AcDbLine
 10
3978.1601242930074
 20
1479.4099235852789
 30
0.0
 11
3978.1601242930074
 21
1522.4099235852789
 31
0.0
  0
LINE
  5
285
100
AcDbEntity
  8
33
370
              15
  6
Continuous
 62
               7
100
AcDbLine
 10
3978.1601242930074
 20
1479.4099235852789
 30
0.0
 11
3977.642486202802
 21
1481.3417752378568
 31
0.0
  0
LINE
  5
286
100
AcDbEntity
  8
33
370
              15
  6
Continuous
 62
               7
100
AcDbLine
 10
3978.1601242930074
 20
1479.4099235852789
 30
0.0
 11
3978.6777623832122
 21
1481.3417752378568
 31
0.0
  0
LINE
  5
287
100
AcDbEntity
  8
33
370
              15
  6
Continuous
 62
               7
100
AcDbLine
 10
3978.1601242930074
 20
1522.4099235852789
 30
0.0
 11
3978.6777623832122
 21
1520.4780719327007
 31
0.0
  0
LINE
  5
288
100
AcDbEntity
  8
33
370
              15
  6
Continuous
 62
               7
100
AcDbLine
 10
3978.1601242930074
 20
1522.4099235852789
 30
0.0
 11
3977.642486202802
 21
1520.4780719327007
 31
0.0
  0
LINE
  5
289
100
AcDbEntity
  8
33
370
              15
  6
Continuous
 62
               7
100
AcDbLine
 10
4027.2722403644357
 20
1479.4099235852789
 30
0.0
 11
3977.6601242930074
 21
1479.4099235852789
 31
0.0
  0
LINE
  5
28A
100
AcDbEntity
  8
33
370
              15
  6
Continuous
 62
               7
100
AcDbLine
 10
4027.2722403644357
 20
1522.4099235852789
 30
0.0
 11
3977.6601242930074
 21
1522.4099235852789
 31
0.0
  0
MTEXT
  5
28B
100
AcDbEntity
  8
33
 62
               7
100
AcDbMText
 10
3975.6601246679375
 20
1500.9099253291404
 30
0.0
 40
2.0
 41
0.0
 71
               2
 72
               1
  1
430±2
  7
ＭＳ ゴシック
 11
0.0
 21
1.0
 31
0.0
 73
               1
 44
0.7828267384257843
  0
MTEXT
  5
28C
100
AcDbEntity
  8
1
 62
               7
100
AcDbMText
 10
4129.049864862387
 20
1402.9610890449635
 30
0.0
 40
3.2576822916666668
 41
0.0
 71
               4
 72
               1
  1
７５０Ｇボール
  7
ＭＳ ゴシック
 73
               1
 44
0.7828267384257843
  0
MTEXT
  5
28D
100
AcDbEntity
  8
実形
100
AcDbMText
 10
4129.049864862387
 20
1386.5287581598184
 30
0.0
 40
2.2737630208333335
 41
68.40000000000002
 71
               1
 72
               1
  1
{\C7;\l }{\C7;\H1.333x;\le-KITCHEN}{\C7;\H0.7697x;\l }{\C7;\H0.6667x;\lU-ARCHITECTURE WORKS}
  7
Arial
 73
               1
 44
0.4139679692283811
  0
POLYLINE
  5
28E
100
AcDbEntity
  8
0
370
               5
  6
Continuous
 62
               7
100
AcDb2dPolyline
 66
               1
 10
0.0
 20
0.0
 30
0.0
 70
               1
 75
               5
  0
VERTEX
  5
28F
100
AcDbEntity
  8
0
370
               5
  6
Continuous
 62
               7
100
AcDbVertex
100
AcDb2dVertex
 10
3944.9923847314139
 20
1559.8070741320412
 30
0.0
  0
VERTEX
  5
290
100
AcDbEntity
  8
0
370
               5
  6
Continuous
 62
               7
100
AcDbVertex
100
AcDb2dVertex
 10
4206.8923847314154
 20
1559.8070741320412
 30
0.0
  0
VERTEX
  5
291
100
AcDbEntity
  8
0
370
               5
  6
Continuous
 62
               7
100
AcDbVertex
100
AcDb2dVertex
 10
4206.8923847314154
 20
1380.3070741320407
 30
0.0
  0
VERTEX
  5
292
100
AcDbEntity
  8
0
370
               5
  6
Continuous
 62
               7
100
AcDbVertex
100
AcDb2dVertex
 10
3944.9923847314139
 20
1380.3070741320407
 30
0.0
  0
SEQEND
  5
293
100
AcDbEntity
  8
0
370
               5
  6
Continuous
 62
               7
  0
POLYLINE
  5
294
100
AcDbEntity
  8
0
370
               5
  6
Continuous
 62
               7
100
AcDb2dPolyline
 66
               1
 10
0.0
 20
0.0
 30
0.0
 70
               1
 75
               5
  0
VERTEX
  5
295
100
AcDbEntity
  8
0
370
               5
  6
Continuous
 62
               7
100
AcDbVertex
100
AcDb2dVertex
 10
4105.4923847314149
 20
1389.3070741320405
 30
0.0
  0
VERTEX
  5
296
100
AcDbEntity
  8
0
370
               5
  6
Continuous
 62
               7
100
AcDbVertex
100
AcDb2dVertex
 10
4206.8923847314154
 20
1389.3070741320405
 30
0.0
  0
VERTEX
  5
297
100
AcDbEntity
  8
0
370
               5
  6
Continuous
 62
               7
100
AcDbVertex
100
AcDb2dVertex
 10
4206.8923847314154
 20
1380.3070741320407
 30
0.0
  0
VERTEX
  5
298
100
AcDbEntity
  8
0
370
               5
  6
Continuous
 62
               7
100
AcDbVertex
100
AcDb2dVertex
 10
4105.4923847314149
 20
1380.3070741320407
 30
0.0
  0
SEQEND
  5
299
100
AcDbEntity
  8
0
370
               5
  6
Continuous
 62
               7
  0
POLYLINE
  5
29A
100
AcDbEntity
  8
0
370
               5
  6
Continuous
 62
               7
100
AcDb2dPolyline
 66
               1
 10
0.0
 20
0.0
 30
0.0
 70
               1
 75
               5
  0
VERTEX
  5
29B
100
AcDbEntity
  8
0
370
               5
  6
Continuous
 62
               7
100
AcDbVertex
100
AcDb2dVertex
 10
4105.4923847314149
 20
1397.8070741320405
 30
0.0
  0
VERTEX
  5
29C
100
AcDbEntity
  8
0
370
               5
  6
Continuous
 62
               7
100
AcDbVertex
100
AcDb2dVertex
 10
4206.8923847314154
 20
1397.8070741320405
 30
0.0
  0
VERTEX
  5
29D
100
AcDbEntity
  8
0
370
               5
  6
Continuous
 62
               7
100
AcDbVertex
100
AcDb2dVertex
 10
4206.8923847314154
 20
1389.3070741320405
 30
0.0
  0
VERTEX
  5
29E
100
AcDbEntity
  8
0
370
               5
  6
Continuous
 62
               7
100
AcDbVertex
100
AcDb2dVertex
 10
4105.4923847314149
 20
1389.3070741320405
 30
0.0
  0
SEQEND
  5
29F
100
AcDbEntity
  8
0
370
               5
  6
Continuous
 62
               7
  0
POLYLINE
  5
2A0
100
AcDbEntity
  8
0
370
               5
  6
Continuous
 62
               7
100
AcDb2dPolyline
 66
               1
 10
0.0
 20
0.0
 30
0.0
 70
               1
 75
               5
  0
VERTEX
  5
2A1
100
AcDbEntity
  8
0
370
               5
  6
Continuous
 62
               7
100
AcDbVertex
100
AcDb2dVertex
 10
4105.4923847314149
 20
1408.3070741320403
 30
0.0
  0
VERTEX
  5
2A2
100
AcDbEntity
  8
0
370
               5
  6
Continuous
 62
               7
100
AcDbVertex
100
AcDb2dVertex
 10
4206.8923847314154
 20
1408.3070741320403
 30
0.0
  0
VERTEX
  5
2A3
100
AcDbEntity
  8
0
370
               5
  6
Continuous
 62
               7
100
AcDbVertex
100
AcDb2dVertex
 10
4206.8923847314154
 20
1397.8070741320405
 30
0.0
  0
VERTEX
  5
2A4
100
AcDbEntity
  8
0
370
               5
  6
Continuous
 62
               7
100
AcDbVertex
100
AcDb2dVertex
 10
4105.4923847314149
 20
1397.8070741320405
 30
0.0
  0
SEQEND
  5
2A5
100
AcDbEntity
  8
0
370
               5
  6
Continuous
 62
               7
  0
MTEXT
  5
2A6
100
AcDbEntity
  8
0
 62
               7
100
AcDbMText
 10
4129.049864862387
 20
1394.9107034396325
 30
0.0
 40
3.2576822916666668
 41
0.0
 71
               1
 72
               1
  1
尺度　　１：１０
  7
ＭＳ ゴシック
 73
               1
 44
0.7828267384257843
  0
ENDSEC
  0
SECTION
  2
OBJECTS
  0
DICTIONARY
  5
19
100
AcDbDictionary
280
               0
281
               1
  3
ACAD_GROUP
350
1A
  3
ACAD_MLINESTYLE
350
1B
  3
ACAD_LAYOUT
350
1E
  3
ACAD_PLOTSETTINGS
350
22
  3
ACAD_PLOTSTYLENAME
350
1F
  3
ACAD_WIPEOUT_VARS
350
23
  0
DICTIONARY
  5
1A
102
{ACAD_REACTORS
330
19
102
}
100
AcDbDictionary
280
               0
281
               1
  0
DICTIONARY
  5
1B
102
{ACAD_REACTORS
330
19
102
}
100
AcDbDictionary
280
               0
281
               1
  3
Standard
350
1C
  0
MLINESTYLE
  5
1C
102
{ACAD_REACTORS
330
1B
102
}
100
AcDbMlineStyle
  2
Standard
 70
               0
  3

 62
               0
 51
90.0
 52
90.0
 71
               2
 49
0.5
 62
             256
  6
ByLayer
 49
-0.5
 62
             256
  6
ByLayer
  0
ACDBDICTIONARYWDFLT
  5
1F
102
{ACAD_REACTORS
330
19
102
}
100
AcDbDictionary
281
               1
  3
Normal
350
1D
100
AcDbDictionaryWithDefault
340
1D
  0
ACDBPLACEHOLDER
  5
1D
102
{ACAD_REACTORS
330
1F
102
}
  0
LAYOUT
  5
20
102
{ACAD_REACTORS
330
1E
102
}
100
AcDbPlotSettings
  1

  2

  4

  6

 40
0.0
 41
0.0
 42
0.0
 43
0.0
 44
0.0
 45
0.0
 46
0.0
 47
0.0
 48
0.0
 49
0.0
140
0.0
141
0.0
142
1.0
143
1.0
 70
            1024
 72
               0
 73
               0
 74
               0
  7

 75
               0
147
1.0
148
0.0
149
0.0
100
AcDbLayout
  1
Model
 70
               0
 71
               0
 10
0.0
 20
0.0
 11
0.0
 21
0.0
 12
0.0
 22
0.0
 32
0.0
 14
0.0
 24
0.0
 34
0.0
 15
0.0
 25
0.0
 35
0.0
146
0.0
 13
0.0
 23
0.0
 33
0.0
 16
0.0
 26
0.0
 36
0.0
 17
0.0
 27
0.0
 37
0.0
 76
               0
330
A
331
0
345
0
346
0
  0
LAYOUT
  5
21
102
{ACAD_REACTORS
330
1E
102
}
100
AcDbPlotSettings
  1

  2

  4

  6

 40
0.0
 41
0.0
 42
0.0
 43
0.0
 44
0.0
 45
0.0
 46
0.0
 47
0.0
 48
0.0
 49
0.0
140
0.0
141
0.0
142
1.0
143
1.0
 70
               0
 72
               0
 73
               0
 74
               0
  7

 75
               0
147
1.0
148
0.0
149
0.0
100
AcDbLayout
  1
Layout1
 70
               0
 71
               0
 10
0.0
 20
0.0
 11
0.0
 21
0.0
 12
0.0
 22
0.0
 32
0.0
 14
0.0
 24
0.0
 34
0.0
 15
0.0
 25
0.0
 35
0.0
146
0.0
 13
0.0
 23
0.0
 33
0.0
 16
0.0
 26
0.0
 36
0.0
 17
0.0
 27
0.0
 37
0.0
 76
               0
330
B
331
0
345
0
346
0
  0
DICTIONARY
  5
1E
102
{ACAD_REACTORS
330
19
102
}
100
AcDbDictionary
280
               0
281
               1
  3
Layout1
350
21
  3
Model
350
20
  0
DICTIONARY
  5
22
102
{ACAD_REACTORS
330
19
102
}
100
AcDbDictionary
280
               0
281
               1
  0
WIPEOUTVARIABLES
  5
23
100
AcDbWipeoutVariables
 70
               1
  0
ENDSEC
  0
EOF
