  0
SECTION
  2
HEADER
  9
$ACADVER
  1
AC1015
  9
$ACADMAINTVER
 70
    20
  9
$DWGCODEPAGE
  3
ANSI_932
  9
$INSBASE
 10
0.0
 20
0.0
 30
0.0
  9
$EXTMIN
 10
-20.95641114394675
 20
246.6691661377772
 30
-0.0015258207003583
  9
$EXTMAX
 10
2759.454353804997
 20
2167.951360961831
 30
0.0000000349246037
  9
$LIMMIN
 10
0.0
 20
0.0
  9
$LIMMAX
 10
12.0
 20
9.0
  9
$ORTHOMODE
 70
     0
  9
$REGENMODE
 70
     1
  9
$FILLMODE
 70
     1
  9
$QTEXTMODE
 70
     0
  9
$MIRRTEXT
 70
     0
  9
$LTSCALE
 40
150.0
  9
$ATTMODE
 70
     1
  9
$TEXTSIZE
 40
1.0
  9
$TRACEWID
 40
0.05
  9
$TEXTSTYLE
  7
STANDARD
  9
$CLAYER
  8
0
  9
$CELTYPE
  6
CONTINUOUS
  9
$CECOLOR
 62
   256
  9
$CELTSCALE
 40
1.0
  9
$DISPSILH
 70
     0
  9
$DIMSCALE
 40
1.0
  9
$DIMASZ
 40
0.18
  9
$DIMEXO
 40
0.0625
  9
$DIMDLI
 40
0.38
  9
$DIMRND
 40
0.0
  9
$DIMDLE
 40
0.0
  9
$DIMEXE
 40
0.18
  9
$DIMTP
 40
0.0
  9
$DIMTM
 40
0.0
  9
$DIMTXT
 40
0.18
  9
$DIMCEN
 40
0.09
  9
$DIMTSZ
 40
0.0
  9
$DIMTOL
 70
     0
  9
$DIMLIM
 70
     0
  9
$DIMTIH
 70
     1
  9
$DIMTOH
 70
     1
  9
$DIMSE1
 70
     0
  9
$DIMSE2
 70
     0
  9
$DIMTAD
 70
     0
  9
$DIMZIN
 70
     0
  9
$DIMBLK
  1

  9
$DIMASO
 70
     1
  9
$DIMSHO
 70
     1
  9
$DIMPOST
  1

  9
$DIMAPOST
  1

  9
$DIMALT
 70
     0
  9
$DIMALTD
 70
     2
  9
$DIMALTF
 40
25.4
  9
$DIMLFAC
 40
1.0
  9
$DIMTOFL
 70
     0
  9
$DIMTVP
 40
0.0
  9
$DIMTIX
 70
     0
  9
$DIMSOXD
 70
     0
  9
$DIMSAH
 70
     0
  9
$DIMBLK1
  1

  9
$DIMBLK2
  1

  9
$DIMSTYLE
  2
Standard
  9
$DIMCLRD
 70
     0
  9
$DIMCLRE
 70
     0
  9
$DIMCLRT
 70
     0
  9
$DIMTFAC
 40
1.0
  9
$DIMGAP
 40
0.09
  9
$DIMJUST
 70
     0
  9
$DIMSD1
 70
     0
  9
$DIMSD2
 70
     0
  9
$DIMTOLJ
 70
     1
  9
$DIMTZIN
 70
     0
  9
$DIMALTZ
 70
     0
  9
$DIMALTTZ
 70
     0
  9
$DIMUPT
 70
     0
  9
$DIMDEC
 70
     4
  9
$DIMTDEC
 70
     4
  9
$DIMALTU
 70
     2
  9
$DIMALTTD
 70
     2
  9
$DIMTXSTY
  7
STANDARD
  9
$DIMAUNIT
 70
     0
  9
$DIMADEC
 70
     0
  9
$DIMALTRND
 40
0.0
  9
$DIMAZIN
 70
     0
  9
$DIMDSEP
 70
    46
  9
$DIMATFIT
 70
     3
  9
$DIMFRAC
 70
     0
  9
$DIMLDRBLK
  1

  9
$DIMLUNIT
 70
     2
  9
$DIMLWD
 70
    -2
  9
$DIMLWE
 70
    -2
  9
$DIMTMOVE
 70
     0
  9
$LUNITS
 70
     2
  9
$LUPREC
 70
     4
  9
$SKETCHINC
 40
0.1
  9
$FILLETRAD
 40
0.0
  9
$AUNITS
 70
     0
  9
$AUPREC
 70
     0
  9
$MENU
  1
.
  9
$ELEVATION
 40
0.0
  9
$PELEVATION
 40
0.0
  9
$THICKNESS
 40
0.0
  9
$LIMCHECK
 70
     0
  9
$CHAMFERA
 40
0.0
  9
$CHAMFERB
 40
0.0
  9
$CHAMFERC
 40
0.0
  9
$CHAMFERD
 40
0.0
  9
$SKPOLY
 70
     0
  9
$TDCREATE
 40
2453853.608004201
  9
$TDUCREATE
 40
2453853.233004201
  9
$TDUPDATE
 40
2453853.618984375
  9
$TDUUPDATE
 40
2453853.243984375
  9
$TDINDWG
 40
0.0109830671
  9
$TDUSRTIMER
 40
0.0109830671
  9
$USRTIMER
 70
     1
  9
$ANGBASE
 50
0.0
  9
$ANGDIR
 70
     0
  9
$PDMODE
 70
     0
  9
$PDSIZE
 40
0.0
  9
$PLINEWID
 40
0.0
  9
$SPLFRAME
 70
     0
  9
$SPLINETYPE
 70
     6
  9
$SPLINESEGS
 70
     8
  9
$HANDSEED
  5
3B4
  9
$SURFTAB1
 70
     6
  9
$SURFTAB2
 70
     6
  9
$SURFTYPE
 70
     6
  9
$SURFU
 70
     6
  9
$SURFV
 70
     6
  9
$UCSBASE
  2

  9
$UCSNAME
  2

  9
$UCSORG
 10
0.0
 20
0.0
 30
0.0
  9
$UCSXDIR
 10
1.0
 20
0.0
 30
0.0
  9
$UCSYDIR
 10
0.0
 20
1.0
 30
0.0
  9
$UCSORTHOREF
  2

  9
$UCSORTHOVIEW
 70
     0
  9
$UCSORGTOP
 10
0.0
 20
0.0
 30
0.0
  9
$UCSORGBOTTOM
 10
0.0
 20
0.0
 30
0.0
  9
$UCSORGLEFT
 10
0.0
 20
0.0
 30
0.0
  9
$UCSORGRIGHT
 10
0.0
 20
0.0
 30
0.0
  9
$UCSORGFRONT
 10
0.0
 20
0.0
 30
0.0
  9
$UCSORGBACK
 10
0.0
 20
0.0
 30
0.0
  9
$PUCSBASE
  2

  9
$PUCSNAME
  2

  9
$PUCSORG
 10
0.0
 20
0.0
 30
0.0
  9
$PUCSXDIR
 10
1.0
 20
0.0
 30
0.0
  9
$PUCSYDIR
 10
0.0
 20
1.0
 30
0.0
  9
$PUCSORTHOREF
  2

  9
$PUCSORTHOVIEW
 70
     0
  9
$PUCSORGTOP
 10
0.0
 20
0.0
 30
0.0
  9
$PUCSORGBOTTOM
 10
0.0
 20
0.0
 30
0.0
  9
$PUCSORGLEFT
 10
0.0
 20
0.0
 30
0.0
  9
$PUCSORGRIGHT
 10
0.0
 20
0.0
 30
0.0
  9
$PUCSORGFRONT
 10
0.0
 20
0.0
 30
0.0
  9
$PUCSORGBACK
 10
0.0
 20
0.0
 30
0.0
  9
$USERI1
 70
     0
  9
$USERI2
 70
     0
  9
$USERI3
 70
     0
  9
$USERI4
 70
     0
  9
$USERI5
 70
     0
  9
$USERR1
 40
0.0
  9
$USERR2
 40
0.0
  9
$USERR3
 40
0.0
  9
$USERR4
 40
0.0
  9
$USERR5
 40
0.0
  9
$WORLDVIEW
 70
     1
  9
$SHADEDGE
 70
     3
  9
$SHADEDIF
 70
    70
  9
$TILEMODE
 70
     1
  9
$MAXACTVP
 70
    64
  9
$PINSBASE
 10
0.0
 20
0.0
 30
0.0
  9
$PLIMCHECK
 70
     0
  9
$PEXTMIN
 10
1.000000000000000E+20
 20
1.000000000000000E+20
 30
1.000000000000000E+20
  9
$PEXTMAX
 10
-1.000000000000000E+20
 20
-1.000000000000000E+20
 30
-1.000000000000000E+20
  9
$PLIMMIN
 10
0.0
 20
0.0
  9
$PLIMMAX
 10
12.0
 20
9.0
  9
$UNITMODE
 70
     0
  9
$VISRETAIN
 70
     1
  9
$PLINEGEN
 70
     0
  9
$PSLTSCALE
 70
     1
  9
$TREEDEPTH
 70
  3020
  9
$CMLSTYLE
  2
Standard
  9
$CMLJUST
 70
     0
  9
$CMLSCALE
 40
1.0
  9
$PROXYGRAPHICS
 70
     1
  9
$MEASUREMENT
 70
     0
  9
$CELWEIGHT
370
    -1
  9
$ENDCAPS
280
     0
  9
$JOINSTYLE
280
     0
  9
$LWDISPLAY
290
     0
  9
$INSUNITS
 70
     0
  9
$HYPERLINKBASE
  1

  9
$STYLESHEET
  1

  9
$XEDIT
290
     1
  9
$CEPSNTYPE
380
     0
  9
$PSTYLEMODE
290
     1
  9
$FINGERPRINTGUID
  2
{C93485E0-2E7E-4E07-9338-A7EEEF3639FF}
  9
$VERSIONGUID
  2
{39BEBA80-D00E-47AD-A870-7F4199C82C4D}
  9
$EXTNAMES
290
     1
  9
$PSVPSCALE
 40
0.0
  9
$OLESTARTUP
290
     0
  0
ENDSEC
  0
SECTION
  2
CLASSES
  0
CLASS
  1
ACDBDICTIONARYWDFLT
  2
AcDbDictionaryWithDefault
  3
ObjectDBX Classes
 90
        0
280
     0
281
     0
  0
CLASS
  1
DICTIONARYVAR
  2
AcDbDictionaryVar
  3
ObjectDBX Classes
 90
        0
280
     0
281
     0
  0
CLASS
  1
ACDBPLACEHOLDER
  2
AcDbPlaceHolder
  3
ObjectDBX Classes
 90
        0
280
     0
281
     0
  0
CLASS
  1
LAYOUT
  2
AcDbLayout
  3
ObjectDBX Classes
 90
        0
280
     0
281
     0
  0
ENDSEC
  0
SECTION
  2
TABLES
  0
TABLE
  2
VPORT
  5
8
330
0
100
AcDbSymbolTable
 70
    12
  0
VPORT
  5
3AB
330
8
100
AcDbSymbolTableRecord
100
AcDbViewportTableRecord
  2
*Active
 70
     0
 10
0.0
 20
0.0
 11
1.0
 21
1.0
 12
1369.248971330525
 22
1207.310263549804
 13
0.0
 23
0.0
 14
1.0
 24
1.0
 15
0.0
 25
0.0
 16
0.0
 26
0.0
 36
1.0
 17
0.0
 27
0.0
 37
0.0
 40
1945.705273571817
 41
1.993630573248407
 42
50.0
 43
0.0
 44
0.0
 50
0.0
 51
0.0
 71
     0
 72
   100
 73
     1
 74
     1
 75
     0
 76
     0
 77
     0
 78
     0
281
     0
 65
     1
110
0.0
120
0.0
130
0.0
111
1.0
121
0.0
131
0.0
112
0.0
122
1.0
132
0.0
 79
     0
146
0.0
  0
ENDTAB
  0
TABLE
  2
LTYPE
  5
5
330
0
100
AcDbSymbolTable
 70
     6
  0
LTYPE
  5
13
330
5
100
AcDbSymbolTableRecord
100
AcDbLinetypeTableRecord
  2
ByBlock
 70
     0
  3

 72
    65
 73
     0
 40
0.0
  0
LTYPE
  5
14
330
5
100
AcDbSymbolTableRecord
100
AcDbLinetypeTableRecord
  2
ByLayer
 70
     0
  3

 72
    65
 73
     0
 40
0.0
  0
LTYPE
  5
15
330
5
100
AcDbSymbolTableRecord
100
AcDbLinetypeTableRecord
  2
CONTINUOUS
 70
     0
  3
Solid line
 72
    65
 73
     0
 40
0.0
  0
LTYPE
  5
24
330
5
100
AcDbSymbolTableRecord
100
AcDbLinetypeTableRecord
  2
DASHED
 70
     0
  3
__ __ __ __ __ __ __ __ __ __ __ __ __ __ __
 72
    65
 73
     2
 40
0.75
 49
0.5
 74
     0
 49
-0.25
 74
     0
  0
LTYPE
  5
25
330
5
100
AcDbSymbolTableRecord
100
AcDbLinetypeTableRecord
  2
HIDDEN
 70
     0
  3
_ _ _ _ _ _ _ _ _ _ _ _ _ _ _ _ _ _ _ _ _ _ _
 72
    65
 73
     2
 40
0.375
 49
0.25
 74
     0
 49
-0.125
 74
     0
  0
LTYPE
  5
26
330
5
100
AcDbSymbolTableRecord
100
AcDbLinetypeTableRecord
  2
DOT
 70
     0
  3
...............................................
 72
    65
 73
     2
 40
0.25
 49
0.0
 74
     0
 49
-0.25
 74
     0
  0
LTYPE
  5
27
330
5
100
AcDbSymbolTableRecord
100
AcDbLinetypeTableRecord
  2
DASHDOT
 70
     0
  3
__ . __ . __ . __ . __ . __ . __ . __ . __ . __
 72
    65
 73
     4
 40
1.0
 49
0.5
 74
     0
 49
-0.25
 74
     0
 49
0.0
 74
     0
 49
-0.25
 74
     0
  0
LTYPE
  5
28
330
5
100
AcDbSymbolTableRecord
100
AcDbLinetypeTableRecord
  2
DIVIDE
 70
     0
  3
__ . . __ . . __ . . __ . . __ . . __ . . __
 72
    65
 73
     6
 40
1.25
 49
0.5
 74
     0
 49
-0.25
 74
     0
 49
0.0
 74
     0
 49
-0.25
 74
     0
 49
0.0
 74
     0
 49
-0.25
 74
     0
  0
ENDTAB
  0
TABLE
  2
LAYER
  5
2
330
0
100
AcDbSymbolTable
 70
     5
  0
LAYER
  5
10
330
2
100
AcDbSymbolTableRecord
100
AcDbLayerTableRecord
  2
0
 70
     0
 62
     7
  6
CONTINUOUS
370
    -3
390
F
  0
LAYER
  5
29
330
2
100
AcDbSymbolTableRecord
100
AcDbLayerTableRecord
  2
1
 70
     0
 62
     7
  6
CONTINUOUS
370
    -3
390
F
  0
LAYER
  5
2A
330
2
100
AcDbSymbolTableRecord
100
AcDbLayerTableRecord
  2
17
 70
     0
 62
     7
  6
CONTINUOUS
370
    -3
390
F
  0
LAYER
  5
2B
330
2
100
AcDbSymbolTableRecord
100
AcDbLayerTableRecord
  2
33
 70
     0
 62
     7
  6
CONTINUOUS
370
    -3
390
F
  0
LAYER
  5
2E2
330
2
100
AcDbSymbolTableRecord
100
AcDbLayerTableRecord
  2
一般
 70
     0
 62
     7
  6
CONTINUOUS
370
     5
390
F
  0
ENDTAB
  0
TABLE
  2
STYLE
  5
3
330
0
100
AcDbSymbolTable
 70
     4
  0
STYLE
  5
11
330
3
100
AcDbSymbolTableRecord
100
AcDbTextStyleTableRecord
  2
STANDARD
 70
     0
 40
1.0
 41
1.0
 50
0.0
 71
     0
 42
1.0
  3
TXT
  4

  0
STYLE
  5
2C
330
3
100
AcDbSymbolTableRecord
100
AcDbTextStyleTableRecord
  2
BIGFONT
 70
     0
 40
1.0
 41
1.0
 50
0.0
 71
     0
 42
1.0
  3
TXT
  4
BIGFONT
  0
STYLE
  5
2E3
330
3
100
AcDbSymbolTableRecord
100
AcDbTextStyleTableRecord
  2
Arial
 70
     0
 40
0.0
 41
1.0
 50
0.0
 71
     0
 42
0.0
  3
ARIAL.TTF
  4

1001
ACAD
1000
Arial
1071
        0
  0
STYLE
  5
2E4
330
3
100
AcDbSymbolTableRecord
100
AcDbTextStyleTableRecord
  2
ＭＳ ゴシック
 70
     0
 40
0.0
 41
1.0
 50
0.0
 71
     0
 42
0.0
  3
MS Gothic.ttf
  4

1001
ACAD
1000
ＭＳ ゴシック
1071
        0
  0
ENDTAB
  0
TABLE
  2
VIEW
  5
6
330
0
100
AcDbSymbolTable
 70
     0
  0
ENDTAB
  0
TABLE
  2
UCS
  5
7
330
0
100
AcDbSymbolTable
 70
     0
  0
ENDTAB
  0
TABLE
  2
APPID
  5
9
330
0
100
AcDbSymbolTable
 70
     1
  0
APPID
  5
12
330
9
100
AcDbSymbolTableRecord
100
AcDbRegAppTableRecord
  2
ACAD
 70
     0
  0
ENDTAB
  0
TABLE
  2
DIMSTYLE
  5
A
330
0
100
AcDbSymbolTable
 70
     1
100
AcDbDimStyleTable
 71
     0
  0
DIMSTYLE
105
2E0
330
A
100
AcDbSymbolTableRecord
100
AcDbDimStyleTableRecord
  2
Standard
 70
     0
340
11
  0
ENDTAB
  0
TABLE
  2
BLOCK_RECORD
  5
1
330
0
100
AcDbSymbolTable
 70
     1
  0
BLOCK_RECORD
  5
20
330
1
100
AcDbSymbolTableRecord
100
AcDbBlockTableRecord
  2
*Model_Space
340
23
  0
BLOCK_RECORD
  5
1C
330
1
100
AcDbSymbolTableRecord
100
AcDbBlockTableRecord
  2
*Paper_Space
340
1F
  0
BLOCK_RECORD
  5
2E5
330
1
100
AcDbSymbolTableRecord
100
AcDbBlockTableRecord
  2
A$C54020068
340
0
  0
ENDTAB
  0
ENDSEC
  0
SECTION
  2
BLOCKS
  0
BLOCK
  5
21
330
20
100
AcDbEntity
  8
0
100
AcDbBlockBegin
  2
*Model_Space
 70
     0
 10
0.0
 20
0.0
 30
0.0
  3
*Model_Space
  1

  0
ENDBLK
  5
22
330
20
100
AcDbEntity
  8
0
100
AcDbBlockEnd
  0
BLOCK
  5
1D
330
1C
100
AcDbEntity
 67
     1
  8
0
100
AcDbBlockBegin
  2
*Paper_Space
 70
     0
 10
0.0
 20
0.0
 30
0.0
  3
*Paper_Space
  1

  0
ENDBLK
  5
1E
330
1C
100
AcDbEntity
 67
     1
  8
0
100
AcDbBlockEnd
  0
BLOCK
  5
32D
330
2E5
100
AcDbEntity
  8
0
100
AcDbBlockBegin
  2
A$C54020068
 70
     0
 10
0.0
 20
0.0
 30
0.0
  3
A$C54020068
  1

  0
TEXT
  5
2E6
330
2E5
100
AcDbEntity
  8
0
100
AcDbText
 10
638.4472953819079
 20
305.5425725073778
 30
0.0
 40
30.0
  1
・表面仕様はBA材をプレスしたままとする。
  7
ＭＳ ゴシック
100
AcDbText
  0
LINE
  5
2E7
330
2E5
100
AcDbEntity
  8
一般
100
AcDbLine
 10
2779.999999749846
 20
1922.47467472991
 30
0.0
 11
2779.999999749846
 21
2.443872528967858
 31
0.0
  0
LINE
  5
2E8
330
2E5
100
AcDbEntity
  8
0
100
AcDbLine
 10
-0.0000002501546987
 20
1922.47467472991
 30
0.0
 11
-0.0000002501546987
 21
2.443872528967858
 31
0.0
  0
LINE
  5
2E9
330
2E5
100
AcDbEntity
  8
一般
100
AcDbLine
 10
2779.999999749846
 20
1922.47467472991
 30
0.0
 11
-0.0000002501546987
 21
1922.47467472991
 31
0.0
  0
LINE
  5
2EA
330
2E5
100
AcDbEntity
  8
一般
100
AcDbLine
 10
2779.999999749846
 20
1772.487336724191
 30
0.0
 11
2779.999999749846
 21
2.443872528967858
 31
0.0
  0
MTEXT
  5
2EB
330
2E5
100
AcDbEntity
  8
一般
  6
Continuous
100
AcDbMText
 10
2286.257524932095
 20
184.227133818405
 30
0.0
 40
38.0
 41
546.1562869299232
 71
     1
 72
     5
  1
310G A-H7-144
  7
ＭＳ ゴシック
 73
     1
 44
1.0
1001
ACAD
1000
MTEXTBEGIN
1070
    73
1070
     1
1070
    44
1040
1.0
1070
    74
1070
     0
1000
MTEXTEND
  0
LINE
  5
2EC
330
2E5
100
AcDbEntity
  8
一般
100
AcDbLine
 10
-0.000000250154697
 20
2.443872528967887
 30
0.0
 11
2779.999999749846
 21
2.443872528967887
 31
0.0
  0
MTEXT
  5
2ED
330
2E5
100
AcDbEntity
  8
一般
100
AcDbMText
 10
57.22034262186207
 20
157.1247897509039
 30
0.0
 40
30.0
 41
0.0
 71
     1
 72
     1
  3
{\C7;\l\U+203b\U+5b9f\U+5bf8\U+306b\U+306f\U+88fd\U+9020\U+4e0a\U+306e\U+8aa4\U+5dee\U+304c\U+591a\U+5c11\U+751f\U+305a\U+308b\U+5834\U+5408\U+304c\U+3042\U+308a\U+307e\U+3059\U+3002\U+30b7\U+30f3\U+30af\U+306e\U+7a74\U+3042\U+3051\U+52a0\U+5de5\U+30
  1
6f\U+73fe\U+7269\U+5408\U+308f\U+305b\U+306b\U+3066\U+304a\U+9858\U+3044\U+3057\U+307e\U+3059\U+3002}
  7
ＭＳ ゴシック
 73
     1
 44
0.792296314685874
1001
ACAD
1000
MTEXTBEGIN
1070
    73
1070
     1
1070
    44
1040
0.792296314685874
1070
    74
1070
     0
1000
MTEXTEND
  0
LINE
  5
2EE
330
2E5
100
AcDbEntity
  8
一般
 62
     0
100
AcDbLine
 10
2179.999999749846
 20
67.44387252896785
 30
0.0
 11
2179.999999749846
 21
197.4438725289678
 31
0.0
  0
LINE
  5
2EF
330
2E5
100
AcDbEntity
  8
一般
 62
     0
100
AcDbLine
 10
2179.999999749846
 20
67.44387252896785
 30
0.0
 11
2779.999999749846
 21
67.44387252896785
 31
0.0
  0
LINE
  5
2F0
330
2E5
100
AcDbEntity
  8
一般
 62
     0
100
AcDbLine
 10
2059.999999749845
 20
132.4438725289678
 30
0.0
 11
2779.999999749846
 21
132.4438725289678
 31
0.0
  0
LINE
  5
2F1
330
2E5
100
AcDbEntity
  8
一般
 62
     0
100
AcDbLine
 10
2059.999999749845
 20
197.4438725289678
 30
0.0
 11
2779.999999749846
 21
197.4438725289678
 31
0.0
  0
LINE
  5
2F2
330
2E5
100
AcDbEntity
  8
一般
 62
     0
100
AcDbLine
 10
2779.999999749846
 20
2.443872528967858
 30
0.0
 11
2779.999999749846
 21
67.44387252896785
 31
0.0
  0
LINE
  5
2F3
330
2E5
100
AcDbEntity
  8
一般
 62
     0
100
AcDbLine
 10
2779.999999749846
 20
132.4438725289678
 30
0.0
 11
2779.999999749846
 21
197.4438725289678
 31
0.0
  0
LINE
  5
2F4
330
2E5
100
AcDbEntity
  8
一般
 62
     0
100
AcDbLine
 10
2059.999999749845
 20
67.44387252896785
 30
0.0
 11
2779.999999749846
 21
67.44387252896785
 31
0.0
  0
LINE
  5
2F5
330
2E5
100
AcDbEntity
  8
一般
 62
     0
100
AcDbLine
 10
2059.999999749845
 20
2.443872528967858
 30
0.0
 11
2059.999999749845
 21
197.4438725289678
 31
0.0
  0
MTEXT
  5
2F6
330
2E5
100
AcDbEntity
  8
一般
 62
     0
100
AcDbMText
 10
2470.881318941567
 20
113.3291517167851
 30
0.0
 40
35.0
 41
0.0
 71
     2
 72
     1
  1
1\U+ff1a10
  7
ＭＳ ゴシック
 73
     1
 44
0.7859706209094222
1001
ACAD
1000
MTEXTBEGIN
1070
    73
1070
     1
1070
    44
1040
0.7859706209094222
1070
    74
1070
     0
1000
MTEXTEND
  0
MTEXT
  5
2F7
330
2E5
100
AcDbEntity
  8
一般
 62
     0
100
AcDbMText
 10
2180.499999749847
 20
48.36351951970872
 30
0.0
 40
35.36964699074076
 41
0.0
 71
     1
 72
     1
  1
e-KITCHEN {\H0.3571x;\lU-ARCHITECTURE WORKS}
  7
Arial
 73
     1
 44
0.9673603504928808
1001
ACAD
1000
MTEXTBEGIN
1070
    73
1070
     1
1070
    44
1040
0.9673603504928808
1070
    74
1070
     0
1000
MTEXTEND
  0
MTEXT
  5
2F8
330
2E5
100
AcDbEntity
  8
一般
 62
     0
100
AcDbMText
 10
2075.570777932846
 20
115.4927917998011
 30
0.0
 40
35.29155815972223
 41
0.0
 71
     1
 72
     1
  1
\U+5c3a\U+5ea6
  7
ＭＳ ゴシック
 73
     1
 44
0.7828267384257841
1001
ACAD
1000
MTEXTBEGIN
1070
    73
1070
     1
1070
    44
1040
0.7828267384257841
1070
    74
1070
     0
1000
MTEXTEND
  0
LINE
  5
2F9
330
2E5
100
AcDbEntity
  8
一般
 62
     0
100
AcDbLine
 10
2179.999999749846
 20
67.44387252896785
 30
0.0
 11
2179.999999749846
 21
197.4438725289678
 31
0.0
  0
LINE
  5
2FA
330
2E5
100
AcDbEntity
  8
一般
 62
     0
100
AcDbLine
 10
2179.999999749846
 20
67.44387252896785
 30
0.0
 11
2779.999999749846
 21
67.44387252896785
 31
0.0
  0
LINE
  5
2FB
330
2E5
100
AcDbEntity
  8
一般
 62
     0
100
AcDbLine
 10
2059.999999749845
 20
132.4438725289678
 30
0.0
 11
2779.999999749846
 21
132.4438725289678
 31
0.0
  0
LINE
  5
2FC
330
2E5
100
AcDbEntity
  8
一般
 62
     0
100
AcDbLine
 10
2059.999999749845
 20
197.4438725289678
 30
0.0
 11
2779.999999749846
 21
197.4438725289678
 31
0.0
  0
LINE
  5
2FD
330
2E5
100
AcDbEntity
  8
一般
 62
     0
100
AcDbLine
 10
2779.999999749846
 20
2.443872528967858
 30
0.0
 11
2779.999999749846
 21
67.44387252896785
 31
0.0
  0
LINE
  5
2FE
330
2E5
100
AcDbEntity
  8
一般
 62
     0
100
AcDbLine
 10
2779.999999749846
 20
132.4438725289678
 30
0.0
 11
2779.999999749846
 21
197.4438725289678
 31
0.0
  0
LINE
  5
2FF
330
2E5
100
AcDbEntity
  8
一般
 62
     0
100
AcDbLine
 10
2059.999999749845
 20
67.44387252896785
 30
0.0
 11
2779.999999749846
 21
67.44387252896785
 31
0.0
  0
LINE
  5
300
330
2E5
100
AcDbEntity
  8
一般
 62
     0
100
AcDbLine
 10
2059.999999749845
 20
2.443872528967858
 30
0.0
 11
2059.999999749845
 21
197.4438725289678
 31
0.0
  0
MTEXT
  5
301
330
2E5
100
AcDbEntity
  8
一般
 62
     0
100
AcDbMText
 10
2470.881318941567
 20
113.3291517167851
 30
0.0
 40
35.0
 41
0.0
 71
     2
 72
     1
  1
1\U+ff1a10
  7
ＭＳ ゴシック
 73
     1
 44
0.7859706209094222
1001
ACAD
1000
MTEXTBEGIN
1070
    73
1070
     1
1070
    44
1040
0.7859706209094222
1070
    74
1070
     0
1000
MTEXTEND
  0
MTEXT
  5
302
330
2E5
100
AcDbEntity
  8
一般
 62
     0
100
AcDbMText
 10
2180.499999749847
 20
48.36351951970872
 30
0.0
 40
35.36964699074076
 41
0.0
 71
     1
 72
     1
  1
e-KITCHEN {\H0.3571x;\lU-ARCHITECTURE WORKS}
  7
Arial
 73
     1
 44
0.9673603504928808
1001
ACAD
1000
MTEXTBEGIN
1070
    73
1070
     1
1070
    44
1040
0.9673603504928808
1070
    74
1070
     0
1000
MTEXTEND
  0
MTEXT
  5
303
330
2E5
100
AcDbEntity
  8
一般
 62
     0
100
AcDbMText
 10
2072.999999749847
 20
183.2948751331346
 30
0.0
 40
35.29155815972223
 41
0.0
 71
     1
 72
     1
  1
\U+54c1\U+756a
  7
ＭＳ ゴシック
 73
     1
 44
0.7828267384257841
1001
ACAD
1000
MTEXTBEGIN
1070
    73
1070
     1
1070
    44
1040
0.7828267384257841
1070
    74
1070
     0
1000
MTEXTEND
  0
MTEXT
  5
304
330
2E5
100
AcDbEntity
  8
一般
 62
     0
100
AcDbMText
 10
2075.570777932846
 20
115.4927917998011
 30
0.0
 40
35.29155815972223
 41
0.0
 71
     1
 72
     1
  1
\U+5c3a\U+5ea6
  7
ＭＳ ゴシック
 73
     1
 44
0.7828267384257841
1001
ACAD
1000
MTEXTBEGIN
1070
    73
1070
     1
1070
    44
1040
0.7828267384257841
1070
    74
1070
     0
1000
MTEXTEND
  0
LINE
  5
305
330
2E5
100
AcDbEntity
  8
一般
 62
     0
100
AcDbLine
 10
2179.999999749846
 20
67.44387252896785
 30
0.0
 11
2179.999999749846
 21
197.4438725289678
 31
0.0
  0
LINE
  5
306
330
2E5
100
AcDbEntity
  8
一般
 62
     0
100
AcDbLine
 10
2179.999999749846
 20
67.44387252896785
 30
0.0
 11
2779.999999749846
 21
67.44387252896785
 31
0.0
  0
LINE
  5
307
330
2E5
100
AcDbEntity
  8
一般
 62
     0
100
AcDbLine
 10
2059.999999749845
 20
132.4438725289678
 30
0.0
 11
2779.999999749846
 21
132.4438725289678
 31
0.0
  0
LINE
  5
308
330
2E5
100
AcDbEntity
  8
一般
 62
     0
100
AcDbLine
 10
2059.999999749845
 20
197.4438725289678
 30
0.0
 11
2779.999999749846
 21
197.4438725289678
 31
0.0
  0
LINE
  5
309
330
2E5
100
AcDbEntity
  8
一般
 62
     0
100
AcDbLine
 10
2779.999999749846
 20
2.443872528967858
 30
0.0
 11
2779.999999749846
 21
67.44387252896785
 31
0.0
  0
LINE
  5
30A
330
2E5
100
AcDbEntity
  8
一般
 62
     0
100
AcDbLine
 10
2779.999999749846
 20
132.4438725289678
 30
0.0
 11
2779.999999749846
 21
197.4438725289678
 31
0.0
  0
LINE
  5
30B
330
2E5
100
AcDbEntity
  8
一般
 62
     0
100
AcDbLine
 10
2059.999999749845
 20
67.44387252896785
 30
0.0
 11
2779.999999749846
 21
67.44387252896785
 31
0.0
  0
LINE
  5
30C
330
2E5
100
AcDbEntity
  8
一般
 62
     0
100
AcDbLine
 10
2059.999999749845
 20
2.443872528967858
 30
0.0
 11
2059.999999749845
 21
197.4438725289678
 31
0.0
  0
MTEXT
  5
30D
330
2E5
100
AcDbEntity
  8
一般
 62
     0
100
AcDbMText
 10
2470.881318941567
 20
113.3291517167851
 30
0.0
 40
35.0
 41
0.0
 71
     2
 72
     1
  1
1\U+ff1a10
  7
ＭＳ ゴシック
 73
     1
 44
0.7859706209094222
1001
ACAD
1000
MTEXTBEGIN
1070
    73
1070
     1
1070
    44
1040
0.7859706209094222
1070
    74
1070
     0
1000
MTEXTEND
  0
MTEXT
  5
30E
330
2E5
100
AcDbEntity
  8
一般
 62
     0
100
AcDbMText
 10
2180.499999749847
 20
48.36351951970872
 30
0.0
 40
35.36964699074076
 41
0.0
 71
     1
 72
     1
  1
e-KITCHEN {\H0.3571x;\lU-ARCHITECTURE WORKS}
  7
Arial
 73
     1
 44
0.9673603504928808
1001
ACAD
1000
MTEXTBEGIN
1070
    73
1070
     1
1070
    44
1040
0.9673603504928808
1070
    74
1070
     0
1000
MTEXTEND
  0
MTEXT
  5
30F
330
2E5
100
AcDbEntity
  8
一般
 62
     0
100
AcDbMText
 10
2072.999999749847
 20
183.2948751331346
 30
0.0
 40
35.29155815972223
 41
0.0
 71
     1
 72
     1
  1
\U+54c1\U+756a
  7
ＭＳ ゴシック
 73
     1
 44
0.7828267384257841
1001
ACAD
1000
MTEXTBEGIN
1070
    73
1070
     1
1070
    44
1040
0.7828267384257841
1070
    74
1070
     0
1000
MTEXTEND
  0
MTEXT
  5
310
330
2E5
100
AcDbEntity
  8
一般
 62
     0
100
AcDbMText
 10
2075.570777932846
 20
115.4927917998011
 30
0.0
 40
35.29155815972223
 41
0.0
 71
     1
 72
     1
  1
\U+5c3a\U+5ea6
  7
ＭＳ ゴシック
 73
     1
 44
0.7828267384257841
1001
ACAD
1000
MTEXTBEGIN
1070
    73
1070
     1
1070
    44
1040
0.7828267384257841
1070
    74
1070
     0
1000
MTEXTEND
  0
LINE
  5
311
330
2E5
100
AcDbEntity
  8
一般
 62
     0
100
AcDbLine
 10
2777.915646040392
 20
1857.839343397862
 30
0.0
 11
2057.915646040392
 21
1857.839343397862
 31
0.0
  0
LINE
  5
312
330
2E5
100
AcDbEntity
  8
一般
 62
     0
100
AcDbLine
 10
2777.915646040392
 20
1792.839343397863
 30
0.0
 11
2057.915646040392
 21
1792.839343397863
 31
0.0
  0
LINE
  5
313
330
2E5
100
AcDbEntity
  8
一般
 62
     0
100
AcDbLine
 10
2057.915646040392
 20
1792.839343397863
 30
0.0
 11
2057.915646040392
 21
1922.839343397862
 31
0.0
  0
LINE
  5
314
330
2E5
100
AcDbEntity
  8
一般
 62
     0
100
AcDbLine
 10
2227.915646040392
 20
1792.839343397863
 30
0.0
 11
2227.915646040392
 21
1922.839343397862
 31
0.0
  0
LINE
  5
315
330
2E5
100
AcDbEntity
  8
一般
 62
     0
100
AcDbLine
 10
2502.915646040392
 20
1792.839343397863
 30
0.0
 11
2502.915646040392
 21
1922.839343397862
 31
0.0
  0
MTEXT
  5
316
330
2E5
100
AcDbEntity
  8
一般
 62
     0
100
AcDbMText
 10
2078.415646040394
 20
1905.115904439772
 30
0.0
 40
33.79825020482697
 41
0.0
 71
     1
 72
     1
  1
\U+90e8\U+54c1\U+540d
  7
ＭＳ ゴシック
 73
     1
 44
0.7828267384257844
1001
ACAD
1000
MTEXTBEGIN
1070
    73
1070
     1
1070
    44
1040
0.7828267384257844
1070
    74
1070
     0
1000
MTEXTEND
  0
MTEXT
  5
317
330
2E5
100
AcDbEntity
  8
一般
 62
     0
100
AcDbMText
 10
2070.915646040394
 20
1843.690346002029
 30
0.0
 40
35.29155815972223
 41
0.0
 71
     1
 72
     1
  1
\U+30dc\U+30fc\U+30eb
  7
ＭＳ ゴシック
 73
     1
 44
0.7828267384257841
1001
ACAD
1000
MTEXTBEGIN
1070
    73
1070
     1
1070
    44
1040
0.7828267384257841
1070
    74
1070
     0
1000
MTEXTEND
  0
MTEXT
  5
318
330
2E5
100
AcDbEntity
  8
一般
 62
     0
100
AcDbMText
 10
2320.915646040394
 20
1905.910617160539
 30
0.0
 40
35.29155815972223
 41
0.0
 71
     1
 72
     1
  1
\U+6750\U+8cea
  7
ＭＳ ゴシック
 73
     1
 44
0.7828267384257841
1001
ACAD
1000
MTEXTBEGIN
1070
    73
1070
     1
1070
    44
1040
0.7828267384257841
1070
    74
1070
     0
1000
MTEXTEND
  0
MTEXT
  5
319
330
2E5
100
AcDbEntity
  8
一般
 62
     0
100
AcDbMText
 10
2545.915646040394
 20
1905.910617160539
 30
0.0
 40
35.29155815972223
 41
0.0
 71
     1
 72
     1
  1
\U+7d20\U+6750\U+65b9\U+6cd5
  7
ＭＳ ゴシック
 73
     1
 44
0.7828267384257841
1001
ACAD
1000
MTEXTBEGIN
1070
    73
1070
     1
1070
    44
1040
0.7828267384257841
1070
    74
1070
     0
1000
MTEXTEND
  0
MTEXT
  5
31A
330
2E5
100
AcDbEntity
  8
一般
 62
     0
100
AcDbMText
 10
2300.915646040394
 20
1843.690346002029
 30
0.0
 40
35.29155815972223
 41
0.0
 71
     1
 72
     1
  1
SUS304
  7
ＭＳ ゴシック
 73
     1
 44
0.7828267384257841
1001
ACAD
1000
MTEXTBEGIN
1070
    73
1070
     1
1070
    44
1040
0.7828267384257841
1070
    74
1070
     0
1000
MTEXTEND
  0
MTEXT
  5
31B
330
2E5
100
AcDbEntity
  8
一般
 62
     0
100
AcDbMText
 10
2563.415646040394
 20
1843.690346002029
 30
0.0
 40
35.29155815972223
 41
0.0
 71
     1
 72
     1
  1
0.7{\H0.9577x;\l\U+ff4d\U+ff4d}
  7
ＭＳ ゴシック
 73
     1
 44
0.7828267384257841
1001
ACAD
1000
MTEXTBEGIN
1070
    73
1070
     1
1070
    44
1040
0.7828267384257841
1070
    74
1070
     0
1000
MTEXTEND
  0
LINE
  5
31C
330
2E5
100
AcDbEntity
  8
一般
 62
     0
100
AcDbLine
 10
2057.915646040392
 20
1792.839343397863
 30
0.0
 11
2057.915646040392
 21
1922.839343397862
 31
0.0
  0
LINE
  5
31D
330
2E5
100
AcDbEntity
  8
一般
 62
     0
100
AcDbLine
 10
2227.915646040392
 20
1792.839343397863
 30
0.0
 11
2227.915646040392
 21
1922.839343397862
 31
0.0
  0
LINE
  5
31E
330
2E5
100
AcDbEntity
  8
一般
 62
     0
100
AcDbLine
 10
2502.915646040392
 20
1792.839343397863
 30
0.0
 11
2502.915646040392
 21
1922.839343397862
 31
0.0
  0
MTEXT
  5
31F
330
2E5
100
AcDbEntity
  8
一般
 62
     0
100
AcDbMText
 10
2078.415646040394
 20
1905.115904439772
 30
0.0
 40
33.79825020482697
 41
0.0
 71
     1
 72
     1
  1
\U+90e8\U+54c1\U+540d
  7
ＭＳ ゴシック
 73
     1
 44
0.7828267384257844
1001
ACAD
1000
MTEXTBEGIN
1070
    73
1070
     1
1070
    44
1040
0.7828267384257844
1070
    74
1070
     0
1000
MTEXTEND
  0
MTEXT
  5
320
330
2E5
100
AcDbEntity
  8
一般
 62
     0
100
AcDbMText
 10
2070.915646040394
 20
1843.690346002029
 30
0.0
 40
35.29155815972223
 41
0.0
 71
     1
 72
     1
  1
\U+30dc\U+30fc\U+30eb
  7
ＭＳ ゴシック
 73
     1
 44
0.7828267384257841
1001
ACAD
1000
MTEXTBEGIN
1070
    73
1070
     1
1070
    44
1040
0.7828267384257841
1070
    74
1070
     0
1000
MTEXTEND
  0
MTEXT
  5
321
330
2E5
100
AcDbEntity
  8
一般
 62
     0
100
AcDbMText
 10
2320.915646040394
 20
1905.910617160539
 30
0.0
 40
35.29155815972223
 41
0.0
 71
     1
 72
     1
  1
\U+6750\U+8cea
  7
ＭＳ ゴシック
 73
     1
 44
0.7828267384257841
1001
ACAD
1000
MTEXTBEGIN
1070
    73
1070
     1
1070
    44
1040
0.7828267384257841
1070
    74
1070
     0
1000
MTEXTEND
  0
MTEXT
  5
322
330
2E5
100
AcDbEntity
  8
一般
 62
     0
100
AcDbMText
 10
2545.915646040394
 20
1905.910617160539
 30
0.0
 40
35.29155815972223
 41
0.0
 71
     1
 72
     1
  1
\U+7d20\U+6750\U+65b9\U+6cd5
  7
ＭＳ ゴシック
 73
     1
 44
0.7828267384257841
1001
ACAD
1000
MTEXTBEGIN
1070
    73
1070
     1
1070
    44
1040
0.7828267384257841
1070
    74
1070
     0
1000
MTEXTEND
  0
MTEXT
  5
323
330
2E5
100
AcDbEntity
  8
一般
 62
     0
100
AcDbMText
 10
2300.915646040394
 20
1843.690346002029
 30
0.0
 40
35.29155815972223
 41
0.0
 71
     1
 72
     1
  1
SUS304
  7
ＭＳ ゴシック
 73
     1
 44
0.7828267384257841
1001
ACAD
1000
MTEXTBEGIN
1070
    73
1070
     1
1070
    44
1040
0.7828267384257841
1070
    74
1070
     0
1000
MTEXTEND
  0
MTEXT
  5
324
330
2E5
100
AcDbEntity
  8
一般
 62
     0
100
AcDbMText
 10
2563.415646040394
 20
1843.690346002029
 30
0.0
 40
35.29155815972223
 41
0.0
 71
     1
 72
     1
  1
0.7{\H0.9577x;\l\U+ff4d\U+ff4d}
  7
ＭＳ ゴシック
 73
     1
 44
0.7828267384257841
1001
ACAD
1000
MTEXTBEGIN
1070
    73
1070
     1
1070
    44
1040
0.7828267384257841
1070
    74
1070
     0
1000
MTEXTEND
  0
LINE
  5
325
330
2E5
100
AcDbEntity
  8
一般
 62
     0
100
AcDbLine
 10
2057.915646040392
 20
1792.839343397863
 30
0.0
 11
2057.915646040392
 21
1922.839343397862
 31
0.0
  0
LINE
  5
326
330
2E5
100
AcDbEntity
  8
一般
 62
     0
100
AcDbLine
 10
2227.915646040392
 20
1792.839343397863
 30
0.0
 11
2227.915646040392
 21
1922.839343397862
 31
0.0
  0
LINE
  5
327
330
2E5
100
AcDbEntity
  8
一般
 62
     0
100
AcDbLine
 10
2502.915646040392
 20
1792.839343397863
 30
0.0
 11
2502.915646040392
 21
1922.839343397862
 31
0.0
  0
MTEXT
  5
328
330
2E5
100
AcDbEntity
  8
一般
 62
     0
100
AcDbMText
 10
2078.415646040394
 20
1905.115904439772
 30
0.0
 40
33.79825020482697
 41
0.0
 71
     1
 72
     1
  1
\U+90e8\U+54c1\U+540d
  7
ＭＳ ゴシック
 73
     1
 44
0.7828267384257844
1001
ACAD
1000
MTEXTBEGIN
1070
    73
1070
     1
1070
    44
1040
0.7828267384257844
1070
    74
1070
     0
1000
MTEXTEND
  0
MTEXT
  5
329
330
2E5
100
AcDbEntity
  8
一般
 62
     0
100
AcDbMText
 10
2070.915646040394
 20
1843.690346002029
 30
0.0
 40
35.29155815972223
 41
0.0
 71
     1
 72
     1
  1
\U+30dc\U+30fc\U+30eb
  7
ＭＳ ゴシック
 73
     1
 44
0.7828267384257841
1001
ACAD
1000
MTEXTBEGIN
1070
    73
1070
     1
1070
    44
1040
0.7828267384257841
1070
    74
1070
     0
1000
MTEXTEND
  0
MTEXT
  5
32A
330
2E5
100
AcDbEntity
  8
一般
 62
     0
100
AcDbMText
 10
2320.915646040394
 20
1905.910617160539
 30
0.0
 40
35.29155815972223
 41
0.0
 71
     1
 72
     1
  1
\U+6750\U+8cea
  7
ＭＳ ゴシック
 73
     1
 44
0.7828267384257841
1001
ACAD
1000
MTEXTBEGIN
1070
    73
1070
     1
1070
    44
1040
0.7828267384257841
1070
    74
1070
     0
1000
MTEXTEND
  0
MTEXT
  5
32B
330
2E5
100
AcDbEntity
  8
一般
 62
     0
100
AcDbMText
 10
2545.915646040394
 20
1905.910617160539
 30
0.0
 40
35.29155815972223
 41
0.0
 71
     1
 72
     1
  1
\U+7d20\U+6750\U+65b9\U+6cd5
  7
ＭＳ ゴシック
 73
     1
 44
0.7828267384257841
1001
ACAD
1000
MTEXTBEGIN
1070
    73
1070
     1
1070
    44
1040
0.7828267384257841
1070
    74
1070
     0
1000
MTEXTEND
  0
MTEXT
  5
32C
330
2E5
100
AcDbEntity
  8
一般
 62
     0
100
AcDbMText
 10
2300.915646040394
 20
1843.690346002029
 30
0.0
 40
35.29155815972223
 41
0.0
 71
     1
 72
     1
  1
SUS304
  7
ＭＳ ゴシック
 73
     1
 44
0.7828267384257841
1001
ACAD
1000
MTEXTBEGIN
1070
    73
1070
     1
1070
    44
1040
0.7828267384257841
1070
    74
1070
     0
1000
MTEXTEND
  0
ENDBLK
  5
32E
330
2E5
100
AcDbEntity
  8
0
100
AcDbBlockEnd
  0
ENDSEC
  0
SECTION
  2
ENTITIES
  0
LINE
  5
72
330
20
100
AcDbEntity
  8
17
  6
Continuous
100
AcDbLine
 10
2233.857543296589
 20
1052.447095499963
 30
0.0
 11
2183.857543296589
 21
1052.447095499963
 31
0.0
  0
LINE
  5
73
330
20
100
AcDbEntity
  8
17
  6
Continuous
100
AcDbLine
 10
2158.857543296589
 20
1027.447095499963
 30
0.0
 11
2158.857543296589
 21
852.4470954999632
 31
0.0
  0
ARC
  5
74
330
20
100
AcDbEntity
  8
17
  6
Continuous
100
AcDbCircle
 10
2183.857543296589
 20
1027.447095499963
 30
0.0
 40
25.0
100
AcDbArc
 50
90.0
 51
180.0
  0
LINE
  5
75
330
20
100
AcDbEntity
  8
17
  6
Continuous
100
AcDbLine
 10
2233.857543296589
 20
1047.447095499963
 30
0.0
 11
2183.857543296589
 21
1047.447095499963
 31
0.0
  0
ARC
  5
76
330
20
100
AcDbEntity
  8
17
  6
Continuous
100
AcDbCircle
 10
2183.857543296589
 20
1027.447095499963
 30
0.0
 40
20.0
100
AcDbArc
 50
90.0
 51
180.0
  0
LINE
  5
77
330
20
100
AcDbEntity
  8
17
  6
Continuous
100
AcDbLine
 10
2163.857543296589
 20
1027.447095499963
 30
0.0
 11
2163.857543296589
 21
852.4470954999632
 31
0.0
  0
LINE
  5
78
330
20
100
AcDbEntity
  8
17
  6
Continuous
100
AcDbLine
 10
2233.857543296589
 20
1052.447095499963
 30
0.0
 11
2233.857543296589
 21
1047.447095499963
 31
0.0
  0
LINE
  5
79
330
20
100
AcDbEntity
  8
17
  6
Continuous
100
AcDbLine
 10
1997.472945082303
 20
1052.447095499963
 30
0.0
 11
2183.31892722516
 21
1052.447095499963
 31
0.0
  0
LINE
  5
7A
330
20
100
AcDbEntity
  8
17
  6
Continuous
100
AcDbLine
 10
1997.472945082303
 20
1052.447095499963
 30
0.0
 11
1997.899835180982
 21
1050.890811627109
 31
0.0
  0
LINE
  5
7B
330
20
100
AcDbEntity
  8
17
  6
Continuous
100
AcDbLine
 10
1997.899835180982
 20
1050.890811627109
 30
0.0
 11
1998.324160605783
 21
1049.334370167488
 31
0.0
  0
LINE
  5
7C
330
20
100
AcDbEntity
  8
17
  6
Continuous
100
AcDbLine
 10
1998.324160605783
 20
1049.334370167488
 30
0.0
 11
1998.743356682824
 21
1047.777613534334
 31
0.0
  0
LINE
  5
7D
330
20
100
AcDbEntity
  8
17
  6
Continuous
100
AcDbLine
 10
1998.743356682824
 20
1047.777613534334
 30
0.0
 11
1999.154858738229
 21
1046.220384140879
 31
0.0
  0
LINE
  5
7E
330
20
100
AcDbEntity
  8
17
  6
Continuous
100
AcDbLine
 10
1999.154858738229
 20
1046.220384140879
 30
0.0
 11
1999.556102098116
 21
1044.662524400355
 31
0.0
  0
LINE
  5
7F
330
20
100
AcDbEntity
  8
17
  6
Continuous
100
AcDbLine
 10
1999.556102098116
 20
1044.662524400355
 30
0.0
 11
1999.944522088608
 21
1043.103876725997
 31
0.0
  0
LINE
  5
80
330
20
100
AcDbEntity
  8
17
  6
Continuous
100
AcDbLine
 10
1999.944522088608
 20
1043.103876725997
 30
0.0
 11
2000.317554035824
 21
1041.544283531037
 31
0.0
  0
LINE
  5
81
330
20
100
AcDbEntity
  8
17
  6
Continuous
100
AcDbLine
 10
2000.317554035824
 20
1041.544283531037
 30
0.0
 11
2000.672633265887
 21
1039.983587228708
 31
0.0
  0
LINE
  5
82
330
20
100
AcDbEntity
  8
17
  6
Continuous
100
AcDbLine
 10
2000.672633265887
 20
1039.983587228708
 30
0.0
 11
2001.007195104916
 21
1038.421630232244
 31
0.0
  0
LINE
  5
83
330
20
100
AcDbEntity
  8
17
  6
Continuous
100
AcDbLine
 10
2001.007195104916
 20
1038.421630232244
 30
0.0
 11
2001.318674879033
 21
1036.858254954876
 31
0.0
  0
LINE
  5
84
330
20
100
AcDbEntity
  8
17
  6
Continuous
100
AcDbLine
 10
2001.318674879033
 20
1036.858254954876
 30
0.0
 11
2001.604507914358
 21
1035.293303809839
 31
0.0
  0
LINE
  5
85
330
20
100
AcDbEntity
  8
17
  6
Continuous
100
AcDbLine
 10
2001.604507914358
 20
1035.293303809839
 30
0.0
 11
2001.862129537011
 21
1033.726619210366
 31
0.0
  0
LINE
  5
86
330
20
100
AcDbEntity
  8
17
  6
Continuous
100
AcDbLine
 10
2001.862129537011
 20
1033.726619210366
 30
0.0
 11
2002.088975073115
 21
1032.158043569689
 31
0.0
  0
LINE
  5
87
330
20
100
AcDbEntity
  8
17
  6
Continuous
100
AcDbLine
 10
2002.088975073115
 20
1032.158043569689
 30
0.0
 11
2002.282479848789
 21
1030.58741930104
 31
0.0
  0
LINE
  5
88
330
20
100
AcDbEntity
  8
17
  6
Continuous
100
AcDbLine
 10
2002.282479848789
 20
1030.58741930104
 30
0.0
 11
2002.440079190156
 21
1029.014588817655
 31
0.0
  0
LINE
  5
89
330
20
100
AcDbEntity
  8
17
  6
Continuous
100
AcDbLine
 10
2002.440079190156
 20
1029.014588817655
 30
0.0
 11
2002.559208423334
 21
1027.439394532764
 31
0.0
  0
LINE
  5
8A
330
20
100
AcDbEntity
  8
17
  6
Continuous
100
AcDbLine
 10
2002.559208423334
 20
1027.439394532764
 30
0.0
 11
2002.637302874446
 21
1025.861678859603
 31
0.0
  0
LINE
  5
8B
330
20
100
AcDbEntity
  8
17
  6
Continuous
100
AcDbLine
 10
2002.637302874446
 20
1025.861678859603
 30
0.0
 11
2002.671797869612
 21
1024.281284211403
 31
0.0
  0
LINE
  5
8C
330
20
100
AcDbEntity
  8
17
  6
Continuous
100
AcDbLine
 10
2002.671797869612
 20
1024.281284211403
 30
0.0
 11
2002.660128734953
 21
1022.698053001398
 31
0.0
  0
LINE
  5
8D
330
20
100
AcDbEntity
  8
17
  6
Continuous
100
AcDbLine
 10
2002.660128734953
 20
1022.698053001398
 30
0.0
 11
2002.599730796589
 21
1021.11182764282
 31
0.0
  0
LINE
  5
8E
330
20
100
AcDbEntity
  8
17
  6
Continuous
100
AcDbLine
 10
2002.599730796589
 20
1021.11182764282
 30
0.0
 11
2002.464146701902
 21
1019.233513683587
 31
0.0
  0
LINE
  5
8F
330
20
100
AcDbEntity
  8
17
  6
Continuous
100
AcDbLine
 10
2002.464146701902
 20
1019.233513683587
 30
0.0
 11
2002.265352563075
 21
1017.351725908529
 31
0.0
  0
LINE
  5
90
330
20
100
AcDbEntity
  8
17
  6
Continuous
100
AcDbLine
 10
2002.265352563075
 20
1017.351725908529
 30
0.0
 11
2002.011764875339
 21
1015.467391605157
 31
0.0
  0
LINE
  5
91
330
20
100
AcDbEntity
  8
17
  6
Continuous
100
AcDbLine
 10
2002.011764875339
 20
1015.467391605157
 30
0.0
 11
2001.711800133931
 21
1013.58143806098
 31
0.0
  0
LINE
  5
92
330
20
100
AcDbEntity
  8
17
  6
Continuous
100
AcDbLine
 10
2001.711800133931
 20
1013.58143806098
 30
0.0
 11
2001.373874834083
 21
1011.694792563512
 31
0.0
  0
LINE
  5
93
330
20
100
AcDbEntity
  8
17
  6
Continuous
100
AcDbLine
 10
2001.373874834083
 20
1011.694792563512
 30
0.0
 11
2001.006405471026
 21
1009.808382400263
 31
0.0
  0
LINE
  5
94
330
20
100
AcDbEntity
  8
17
  6
Continuous
100
AcDbLine
 10
2001.006405471026
 20
1009.808382400263
 30
0.0
 11
2000.617808539998
 21
1007.923134858747
 31
0.0
  0
LINE
  5
95
330
20
100
AcDbEntity
  8
17
  6
Continuous
100
AcDbLine
 10
2000.617808539998
 20
1007.923134858747
 30
0.0
 11
2000.216500536229
 21
1006.039977226472
 31
0.0
  0
LINE
  5
96
330
20
100
AcDbEntity
  8
17
  6
Continuous
100
AcDbLine
 10
2000.216500536229
 20
1006.039977226472
 30
0.0
 11
1999.810897954953
 21
1004.15983679095
 31
0.0
  0
LINE
  5
97
330
20
100
AcDbEntity
  8
17
  6
Continuous
100
AcDbLine
 10
1999.810897954953
 20
1004.15983679095
 30
0.0
 11
1999.409417291406
 21
1002.283640839695
 31
0.0
  0
LINE
  5
98
330
20
100
AcDbEntity
  8
17
  6
Continuous
100
AcDbLine
 10
1999.409417291406
 20
1002.283640839695
 30
0.0
 11
1999.020475040818
 21
1000.412316660217
 31
0.0
  0
LINE
  5
99
330
20
100
AcDbEntity
  8
17
  6
Continuous
100
AcDbLine
 10
1999.020475040818
 20
1000.412316660217
 30
0.0
 11
1998.652487698426
 21
998.5467915400262
 31
0.0
  0
LINE
  5
9A
330
20
100
AcDbEntity
  8
17
  6
Continuous
100
AcDbLine
 10
1998.652487698426
 20
998.5467915400262
 30
0.0
 11
1998.313871759462
 21
996.6879927666353
 31
0.0
  0
LINE
  5
9B
330
20
100
AcDbEntity
  8
17
  6
Continuous
100
AcDbLine
 10
1998.313871759462
 20
996.6879927666353
 30
0.0
 11
1998.013043719158
 21
994.8368476275552
 31
0.0
  0
LINE
  5
9C
330
20
100
AcDbEntity
  8
17
  6
Continuous
100
AcDbLine
 10
1998.013043719158
 20
994.8368476275552
 30
0.0
 11
1997.758420072749
 21
992.9942834102982
 31
0.0
  0
LINE
  5
9D
330
20
100
AcDbEntity
  8
17
  6
Continuous
100
AcDbLine
 10
1997.758420072749
 20
992.9942834102982
 30
0.0
 11
1997.558417315469
 21
991.1612274023747
 31
0.0
  0
LINE
  5
9E
330
20
100
AcDbEntity
  8
17
  6
Continuous
100
AcDbLine
 10
1997.558417315469
 20
991.1612274023747
 30
0.0
 11
1997.421451942551
 21
989.3386068912967
 31
0.0
  0
LINE
  5
9F
330
20
100
AcDbEntity
  8
17
  6
Continuous
100
AcDbLine
 10
1997.421451942551
 20
989.3386068912967
 30
0.0
 11
1997.355940449228
 21
987.5273491645753
 31
0.0
  0
LINE
  5
A0
330
20
100
AcDbEntity
  8
17
  6
Continuous
100
AcDbLine
 10
1997.355940449228
 20
987.5273491645753
 30
0.0
 11
1997.370299330734
 21
985.7283815097224
 31
0.0
  0
LINE
  5
A1
330
20
100
AcDbEntity
  8
17
  6
Continuous
100
AcDbLine
 10
1997.370299330734
 20
985.7283815097224
 30
0.0
 11
1997.472945082303
 21
983.9426312142487
 31
0.0
  0
LINE
  5
A2
330
20
100
AcDbEntity
  8
17
  6
Continuous
100
AcDbLine
 10
1997.472945082303
 20
983.9426312142487
 30
0.0
 11
1997.687284956762
 21
982.0483771819723
 31
0.0
  0
LINE
  5
A3
330
20
100
AcDbEntity
  8
17
  6
Continuous
100
AcDbLine
 10
1997.687284956762
 20
982.0483771819723
 30
0.0
 11
1998.006678312074
 21
980.1694891546606
 31
0.0
  0
LINE
  5
A4
330
20
100
AcDbEntity
  8
17
  6
Continuous
100
AcDbLine
 10
1998.006678312074
 20
980.1694891546606
 30
0.0
 11
1998.425596017666
 21
978.3051583952119
 31
0.0
  0
LINE
  5
A5
330
20
100
AcDbEntity
  8
17
  6
Continuous
100
AcDbLine
 10
1998.425596017666
 20
978.3051583952119
 30
0.0
 11
1998.938508942969
 21
976.4545761665218
 31
0.0
  0
LINE
  5
A6
330
20
100
AcDbEntity
  8
17
  6
Continuous
100
AcDbLine
 10
1998.938508942969
 20
976.4545761665218
 30
0.0
 11
1999.539887957411
 21
974.6169337314867
 31
0.0
  0
LINE
  5
A7
330
20
100
AcDbEntity
  8
17
  6
Continuous
100
AcDbLine
 10
1999.539887957411
 20
974.6169337314867
 30
0.0
 11
2000.22420393042
 21
972.7914223530037
 31
0.0
  0
LINE
  5
A8
330
20
100
AcDbEntity
  8
17
  6
Continuous
100
AcDbLine
 10
2000.22420393042
 20
972.7914223530037
 30
0.0
 11
2000.985927731427
 21
970.9772332939692
 31
0.0
  0
LINE
  5
A9
330
20
100
AcDbEntity
  8
17
  6
Continuous
100
AcDbLine
 10
2000.985927731427
 20
970.9772332939692
 30
0.0
 11
2001.819530229858
 21
969.1735578172792
 31
0.0
  0
LINE
  5
AA
330
20
100
AcDbEntity
  8
17
  6
Continuous
100
AcDbLine
 10
2001.819530229858
 20
969.1735578172792
 30
0.0
 11
2002.719482295143
 21
967.3795871858313
 31
0.0
  0
LINE
  5
AB
330
20
100
AcDbEntity
  8
17
  6
Continuous
100
AcDbLine
 10
2002.719482295143
 20
967.3795871858313
 30
0.0
 11
2003.680254796712
 21
965.5945126625207
 31
0.0
  0
LINE
  5
AC
330
20
100
AcDbEntity
  8
17
  6
Continuous
100
AcDbLine
 10
2003.680254796712
 20
965.5945126625207
 30
0.0
 11
2004.696318603992
 21
963.8175255102453
 31
0.0
  0
LINE
  5
AD
330
20
100
AcDbEntity
  8
17
  6
Continuous
100
AcDbLine
 10
2004.696318603992
 20
963.8175255102453
 30
0.0
 11
2005.762144586413
 21
962.0478169919008
 31
0.0
  0
LINE
  5
AE
330
20
100
AcDbEntity
  8
17
  6
Continuous
100
AcDbLine
 10
2005.762144586413
 20
962.0478169919008
 30
0.0
 11
2006.872203613404
 21
960.2845783703838
 31
0.0
  0
LINE
  5
AF
330
20
100
AcDbEntity
  8
17
  6
Continuous
100
AcDbLine
 10
2006.872203613404
 20
960.2845783703838
 30
0.0
 11
2008.020966554393
 21
958.5270009085908
 31
0.0
  0
LINE
  5
B0
330
20
100
AcDbEntity
  8
17
  6
Continuous
100
AcDbLine
 10
2008.020966554393
 20
958.5270009085908
 30
0.0
 11
2009.202904278808
 21
956.7742758694187
 31
0.0
  0
LINE
  5
B1
330
20
100
AcDbEntity
  8
17
  6
Continuous
100
AcDbLine
 10
2009.202904278808
 20
956.7742758694187
 30
0.0
 11
2010.41248765608
 21
955.0255945157642
 31
0.0
  0
LINE
  5
B2
330
20
100
AcDbEntity
  8
17
  6
Continuous
100
AcDbLine
 10
2010.41248765608
 20
955.0255945157642
 30
0.0
 11
2011.644187555637
 21
953.2801481105233
 31
0.0
  0
LINE
  5
B3
330
20
100
AcDbEntity
  8
17
  6
Continuous
100
AcDbLine
 10
2011.644187555637
 20
953.2801481105233
 30
0.0
 11
2012.892474846907
 21
951.5371279165927
 31
0.0
  0
LINE
  5
B4
330
20
100
AcDbEntity
  8
17
  6
Continuous
100
AcDbLine
 10
2012.892474846907
 20
951.5371279165927
 30
0.0
 11
2014.15182039932
 21
949.7957251968687
 31
0.0
  0
LINE
  5
B5
330
20
100
AcDbEntity
  8
17
  6
Continuous
100
AcDbLine
 10
2014.15182039932
 20
949.7957251968687
 30
0.0
 11
2015.416695082303
 21
948.0551312142488
 31
0.0
  0
LINE
  5
B6
330
20
100
AcDbEntity
  8
17
  6
Continuous
100
AcDbLine
 10
2163.857543296589
 20
852.4470954999632
 30
0.0
 11
2163.607341502873
 21
852.4472181733907
 31
0.0
  0
LINE
  5
B7
330
20
100
AcDbEntity
  8
17
  6
Continuous
100
AcDbLine
 10
2163.607341502873
 20
852.4472181733907
 30
0.0
 11
2163.35714274365
 21
852.4473390021057
 31
0.0
  0
LINE
  5
B8
330
20
100
AcDbEntity
  8
17
  6
Continuous
100
AcDbLine
 10
2163.35714274365
 20
852.4473390021057
 30
0.0
 11
2163.106950053411
 21
852.4474561413937
 31
0.0
  0
LINE
  5
B9
330
20
100
AcDbEntity
  8
17
  6
Continuous
100
AcDbLine
 10
2163.106950053411
 20
852.4474561413937
 30
0.0
 11
2162.856766466647
 21
852.4475677465423
 31
0.0
  0
LINE
  5
BA
330
20
100
AcDbEntity
  8
17
  6
Continuous
100
AcDbLine
 10
2162.856766466647
 20
852.4475677465423
 30
0.0
 11
2162.606595017851
 21
852.4476719728383
 31
0.0
  0
LINE
  5
BB
330
20
100
AcDbEntity
  8
17
  6
Continuous
100
AcDbLine
 10
2162.606595017851
 20
852.4476719728383
 30
0.0
 11
2162.356438741515
 21
852.4477669755682
 31
0.0
  0
LINE
  5
BC
330
20
100
AcDbEntity
  8
17
  6
Continuous
100
AcDbLine
 10
2162.356438741515
 20
852.4477669755682
 30
0.0
 11
2162.106300672131
 21
852.4478509100188
 31
0.0
  0
LINE
  5
BD
330
20
100
AcDbEntity
  8
17
  6
Continuous
100
AcDbLine
 10
2162.106300672131
 20
852.4478509100188
 30
0.0
 11
2161.85618384419
 21
852.4479219314766
 31
0.0
  0
LINE
  5
BE
330
20
100
AcDbEntity
  8
17
  6
Continuous
100
AcDbLine
 10
2161.85618384419
 20
852.4479219314766
 30
0.0
 11
2161.606091292186
 21
852.4479781952292
 31
0.0
  0
LINE
  5
BF
330
20
100
AcDbEntity
  8
17
  6
Continuous
100
AcDbLine
 10
2161.606091292186
 20
852.4479781952292
 30
0.0
 11
2161.356026050608
 21
852.4480178565633
 31
0.0
  0
LINE
  5
C0
330
20
100
AcDbEntity
  8
17
  6
Continuous
100
AcDbLine
 10
2161.356026050608
 20
852.4480178565633
 30
0.0
 11
2161.10599115395
 21
852.4480390707651
 31
0.0
  0
LINE
  5
C1
330
20
100
AcDbEntity
  8
17
  6
Continuous
100
AcDbLine
 10
2161.10599115395
 20
852.4480390707651
 30
0.0
 11
2160.855989636705
 21
852.4480399931217
 31
0.0
  0
LINE
  5
C2
330
20
100
AcDbEntity
  8
17
  6
Continuous
100
AcDbLine
 10
2160.855989636705
 20
852.4480399931217
 30
0.0
 11
2160.606024533362
 21
852.4480187789198
 31
0.0
  0
LINE
  5
C3
330
20
100
AcDbEntity
  8
17
  6
Continuous
100
AcDbLine
 10
2160.606024533362
 20
852.4480187789198
 30
0.0
 11
2160.356098878415
 21
852.4479735834463
 31
0.0
  0
LINE
  5
C4
330
20
100
AcDbEntity
  8
17
  6
Continuous
100
AcDbLine
 10
2160.356098878415
 20
852.4479735834463
 30
0.0
 11
2160.106215706356
 21
852.4479025619882
 31
0.0
  0
LINE
  5
C5
330
20
100
AcDbEntity
  8
17
  6
Continuous
100
AcDbLine
 10
2160.106215706356
 20
852.4479025619882
 30
0.0
 11
2159.856378051676
 21
852.4478038698322
 31
0.0
  0
LINE
  5
C6
330
20
100
AcDbEntity
  8
17
  6
Continuous
100
AcDbLine
 10
2159.856378051676
 20
852.4478038698322
 30
0.0
 11
2159.606588948867
 21
852.4476756622648
 31
0.0
  0
LINE
  5
C7
330
20
100
AcDbEntity
  8
17
  6
Continuous
100
AcDbLine
 10
2159.606588948867
 20
852.4476756622648
 30
0.0
 11
2159.356851432422
 21
852.4475160945728
 31
0.0
  0
LINE
  5
C8
330
20
100
AcDbEntity
  8
17
  6
Continuous
100
AcDbLine
 10
2159.356851432422
 20
852.4475160945728
 30
0.0
 11
2159.107168536832
 21
852.4473233220433
 31
0.0
  0
LINE
  5
C9
330
20
100
AcDbEntity
  8
17
  6
Continuous
100
AcDbLine
 10
2159.107168536832
 20
852.4473233220433
 30
0.0
 11
2158.857543296589
 21
852.4470954999632
 31
0.0
  0
LINE
  5
CA
330
20
100
AcDbEntity
  8
17
  6
Continuous
100
AcDbLine
 10
2158.857543296589
 20
852.4470954999632
 30
0.0
 11
2157.264181218571
 21
852.4449081896417
 31
0.0
  0
LINE
  5
CB
330
20
100
AcDbEntity
  8
17
  6
Continuous
100
AcDbLine
 10
2157.264181218571
 20
852.4449081896417
 30
0.0
 11
2155.67289256808
 21
852.4420364366173
 31
0.0
  0
LINE
  5
CC
330
20
100
AcDbEntity
  8
17
  6
Continuous
100
AcDbLine
 10
2155.67289256808
 20
852.4420364366173
 30
0.0
 11
2154.083273863888
 21
852.4393015481882
 31
0.0
  0
LINE
  5
CD
330
20
100
AcDbEntity
  8
17
  6
Continuous
100
AcDbLine
 10
2154.083273863888
 20
852.4393015481882
 30
0.0
 11
2152.494921624771
 21
852.4375248316527
 31
0.0
  0
LINE
  5
CE
330
20
100
AcDbEntity
  8
17
  6
Continuous
100
AcDbLine
 10
2152.494921624771
 20
852.4375248316527
 30
0.0
 11
2150.9074323695
 21
852.4375275943093
 31
0.0
  0
LINE
  5
CF
330
20
100
AcDbEntity
  8
17
  6
Continuous
100
AcDbLine
 10
2150.9074323695
 20
852.4375275943093
 30
0.0
 11
2149.320402616851
 21
852.4401311434557
 31
0.0
  0
LINE
  5
D0
330
20
100
AcDbEntity
  8
17
  6
Continuous
100
AcDbLine
 10
2149.320402616851
 20
852.4401311434557
 30
0.0
 11
2147.733428885594
 21
852.4461567863902
 31
0.0
  0
LINE
  5
D1
330
20
100
AcDbEntity
  8
17
  6
Continuous
100
AcDbLine
 10
2147.733428885594
 20
852.4461567863902
 30
0.0
 11
2146.146107694505
 21
852.4564258304117
 31
0.0
  0
LINE
  5
D2
330
20
100
AcDbEntity
  8
17
  6
Continuous
100
AcDbLine
 10
2146.146107694505
 20
852.4564258304117
 30
0.0
 11
2144.558035562357
 21
852.4717595828171
 31
0.0
  0
LINE
  5
D3
330
20
100
AcDbEntity
  8
17
  6
Continuous
100
AcDbLine
 10
2144.558035562357
 20
852.4717595828171
 30
0.0
 11
2142.968809007923
 21
852.4929793509063
 31
0.0
  0
LINE
  5
D4
330
20
100
AcDbEntity
  8
17
  6
Continuous
100
AcDbLine
 10
2142.968809007923
 20
852.4929793509063
 30
0.0
 11
2141.378024549977
 21
852.5209064419762
 31
0.0
  0
LINE
  5
D5
330
20
100
AcDbEntity
  8
17
  6
Continuous
100
AcDbLine
 10
2141.378024549977
 20
852.5209064419762
 30
0.0
 11
2139.785278707292
 21
852.5563621633256
 31
0.0
  0
LINE
  5
D6
330
20
100
AcDbEntity
  8
17
  6
Continuous
100
AcDbLine
 10
2139.785278707292
 20
852.5563621633256
 30
0.0
 11
2138.190167998641
 21
852.6001678222522
 31
0.0
  0
LINE
  5
D7
330
20
100
AcDbEntity
  8
17
  6
Continuous
100
AcDbLine
 10
2138.190167998641
 20
852.6001678222522
 30
0.0
 11
2136.592288942798
 21
852.6531447260552
 31
0.0
  0
LINE
  5
D8
330
20
100
AcDbEntity
  8
17
  6
Continuous
100
AcDbLine
 10
2136.592288942798
 20
852.6531447260552
 30
0.0
 11
2134.991238058537
 21
852.7161141820318
 31
0.0
  0
LINE
  5
D9
330
20
100
AcDbEntity
  8
17
  6
Continuous
100
AcDbLine
 10
2134.991238058537
 20
852.7161141820318
 30
0.0
 11
2133.386611864629
 21
852.7898974974807
 31
0.0
  0
LINE
  5
DA
330
20
100
AcDbEntity
  8
17
  6
Continuous
100
AcDbLine
 10
2133.386611864629
 20
852.7898974974807
 30
0.0
 11
2131.77800687985
 21
852.8753159797002
 31
0.0
  0
LINE
  5
DB
330
20
100
AcDbEntity
  8
17
  6
Continuous
100
AcDbLine
 10
2131.77800687985
 20
852.8753159797002
 30
0.0
 11
2130.165019622973
 21
852.9731909359881
 31
0.0
  0
LINE
  5
DC
330
20
100
AcDbEntity
  8
17
  6
Continuous
100
AcDbLine
 10
2130.165019622973
 20
852.9731909359881
 30
0.0
 11
2128.54724661277
 21
853.0843436736432
 31
0.0
  0
LINE
  5
DD
330
20
100
AcDbEntity
  8
17
  6
Continuous
100
AcDbLine
 10
2128.54724661277
 20
853.0843436736432
 30
0.0
 11
2126.924284368017
 21
853.2095954999633
 31
0.0
  0
LINE
  5
DE
330
20
100
AcDbEntity
  8
17
  6
Continuous
100
AcDbLine
 10
2126.924284368017
 20
853.2095954999633
 30
0.0
 11
2124.670236143949
 21
853.4077366480127
 31
0.0
  0
LINE
  5
DF
330
20
100
AcDbEntity
  8
17
  6
Continuous
100
AcDbLine
 10
2124.670236143949
 20
853.4077366480127
 30
0.0
 11
2122.409105031006
 21
853.6370173179527
 31
0.0
  0
LINE
  5
E0
330
20
100
AcDbEntity
  8
17
  6
Continuous
100
AcDbLine
 10
2122.409105031006
 20
853.6370173179527
 30
0.0
 11
2120.14451447763
 21
853.9000143801047
 31
0.0
  0
LINE
  5
E1
330
20
100
AcDbEntity
  8
17
  6
Continuous
100
AcDbLine
 10
2120.14451447763
 20
853.9000143801047
 30
0.0
 11
2117.880087932265
 21
854.1993047047892
 31
0.0
  0
LINE
  5
E2
330
20
100
AcDbEntity
  8
17
  6
Continuous
100
AcDbLine
 10
2117.880087932265
 20
854.1993047047892
 30
0.0
 11
2115.619448843352
 21
854.5374651623259
 31
0.0
  0
LINE
  5
E3
330
20
100
AcDbEntity
  8
17
  6
Continuous
100
AcDbLine
 10
2115.619448843352
 20
854.5374651623259
 30
0.0
 11
2113.366220659335
 21
854.9170726230356
 31
0.0
  0
LINE
  5
E4
330
20
100
AcDbEntity
  8
17
  6
Continuous
100
AcDbLine
 10
2113.366220659335
 20
854.9170726230356
 30
0.0
 11
2111.124026828658
 21
855.3407039572398
 31
0.0
  0
LINE
  5
E5
330
20
100
AcDbEntity
  8
17
  6
Continuous
100
AcDbLine
 10
2111.124026828658
 20
855.3407039572398
 30
0.0
 11
2108.896490799761
 21
855.8109360352577
 31
0.0
  0
LINE
  5
E6
330
20
100
AcDbEntity
  8
17
  6
Continuous
100
AcDbLine
 10
2108.896490799761
 20
855.8109360352577
 30
0.0
 11
2106.687236021089
 21
856.3303457274113
 31
0.0
  0
LINE
  5
E7
330
20
100
AcDbEntity
  8
17
  6
Continuous
100
AcDbLine
 10
2106.687236021089
 20
856.3303457274113
 30
0.0
 11
2104.499885941084
 21
856.9015099040198
 31
0.0
  0
LINE
  5
E8
330
20
100
AcDbEntity
  8
17
  6
Continuous
100
AcDbLine
 10
2104.499885941084
 20
856.9015099040198
 30
0.0
 11
2102.338064008191
 21
857.5270054354044
 31
0.0
  0
LINE
  5
E9
330
20
100
AcDbEntity
  8
17
  6
Continuous
100
AcDbLine
 10
2102.338064008191
 20
857.5270054354044
 30
0.0
 11
2100.205393670849
 21
858.2094091918857
 31
0.0
  0
LINE
  5
EA
330
20
100
AcDbEntity
  8
17
  6
Continuous
100
AcDbLine
 10
2100.205393670849
 20
858.2094091918857
 30
0.0
 11
2098.105498377503
 21
858.9512980437836
 31
0.0
  0
LINE
  5
EB
330
20
100
AcDbEntity
  8
17
  6
Continuous
100
AcDbLine
 10
2098.105498377503
 20
858.9512980437836
 30
0.0
 11
2096.042001576596
 21
859.7552488614198
 31
0.0
  0
LINE
  5
EC
330
20
100
AcDbEntity
  8
17
  6
Continuous
100
AcDbLine
 10
2096.042001576596
 20
859.7552488614198
 30
0.0
 11
2094.01852671657
 21
860.6238385151138
 31
0.0
  0
LINE
  5
ED
330
20
100
AcDbEntity
  8
17
  6
Continuous
100
AcDbLine
 10
2094.01852671657
 20
860.6238385151138
 30
0.0
 11
2092.038697245868
 21
861.5596438751868
 31
0.0
  0
LINE
  5
EE
330
20
100
AcDbEntity
  8
17
  6
Continuous
100
AcDbLine
 10
2092.038697245868
 20
861.5596438751868
 30
0.0
 11
2090.106136612933
 21
862.5652418119592
 31
0.0
  0
LINE
  5
EF
330
20
100
AcDbEntity
  8
17
  6
Continuous
100
AcDbLine
 10
2090.106136612933
 20
862.5652418119592
 30
0.0
 11
2088.224468266209
 21
863.6432091957512
 31
0.0
  0
LINE
  5
F0
330
20
100
AcDbEntity
  8
17
  6
Continuous
100
AcDbLine
 10
2088.224468266209
 20
863.6432091957512
 30
0.0
 11
2086.397315654137
 21
864.7961228968839
 31
0.0
  0
LINE
  5
F1
330
20
100
AcDbEntity
  8
17
  6
Continuous
100
AcDbLine
 10
2086.397315654137
 20
864.7961228968839
 30
0.0
 11
2084.62830222516
 21
866.0265597856772
 31
0.0
  0
LINE
  5
F2
330
20
100
AcDbEntity
  8
17
  6
Continuous
100
AcDbLine
 10
2084.62830222516
 20
866.0265597856772
 30
0.0
 11
2083.215600945083
 21
867.1003020309553
 31
0.0
  0
LINE
  5
F3
330
20
100
AcDbEntity
  8
17
  6
Continuous
100
AcDbLine
 10
2083.215600945083
 20
867.1003020309553
 30
0.0
 11
2081.842772664138
 21
868.2257556341028
 31
0.0
  0
LINE
  5
F4
330
20
100
AcDbEntity
  8
17
  6
Continuous
100
AcDbLine
 10
2081.842772664138
 20
868.2257556341028
 30
0.0
 11
2080.507718803425
 21
869.4001989447052
 31
0.0
  0
LINE
  5
F5
330
20
100
AcDbEntity
  8
17
  6
Continuous
100
AcDbLine
 10
2080.507718803425
 20
869.4001989447052
 30
0.0
 11
2079.208340784042
 21
870.6209103123482
 31
0.0
  0
LINE
  5
F6
330
20
100
AcDbEntity
  8
17
  6
Continuous
100
AcDbLine
 10
2079.208340784042
 20
870.6209103123482
 30
0.0
 11
2077.942540027085
 21
871.8851680866187
 31
0.0
  0
LINE
  5
F7
330
20
100
AcDbEntity
  8
17
  6
Continuous
100
AcDbLine
 10
2077.942540027085
 20
871.8851680866187
 30
0.0
 11
2076.708217953654
 21
873.1902506171014
 31
0.0
  0
LINE
  5
F8
330
20
100
AcDbEntity
  8
17
  6
Continuous
100
AcDbLine
 10
2076.708217953654
 20
873.1902506171014
 30
0.0
 11
2075.503275984848
 21
874.5334362533828
 31
0.0
  0
LINE
  5
F9
330
20
100
AcDbEntity
  8
17
  6
Continuous
100
AcDbLine
 10
2075.503275984848
 20
874.5334362533828
 30
0.0
 11
2074.325615541764
 21
875.9120033450482
 31
0.0
  0
LINE
  5
FA
330
20
100
AcDbEntity
  8
17
  6
Continuous
100
AcDbLine
 10
2074.325615541764
 20
875.9120033450482
 30
0.0
 11
2073.1731380455
 21
877.3232302416838
 31
0.0
  0
LINE
  5
FB
330
20
100
AcDbEntity
  8
17
  6
Continuous
100
AcDbLine
 10
2073.1731380455
 20
877.3232302416838
 30
0.0
 11
2072.043744917156
 21
878.7643952928757
 31
0.0
  0
LINE
  5
FC
330
20
100
AcDbEntity
  8
17
  6
Continuous
100
AcDbLine
 10
2072.043744917156
 20
878.7643952928757
 30
0.0
 11
2070.935337577829
 21
880.2327768482088
 31
0.0
  0
LINE
  5
FD
330
20
100
AcDbEntity
  8
17
  6
Continuous
100
AcDbLine
 10
2070.935337577829
 20
880.2327768482088
 30
0.0
 11
2069.845817448617
 21
881.7256532572697
 31
0.0
  0
LINE
  5
FE
330
20
100
AcDbEntity
  8
17
  6
Continuous
100
AcDbLine
 10
2069.845817448617
 20
881.7256532572697
 30
0.0
 11
2068.773085950619
 21
883.2403028696441
 31
0.0
  0
LINE
  5
FF
330
20
100
AcDbEntity
  8
17
  6
Continuous
100
AcDbLine
 10
2068.773085950619
 20
883.2403028696441
 30
0.0
 11
2067.715044504933
 21
884.7740040349178
 31
0.0
  0
LINE
  5
100
330
20
100
AcDbEntity
  8
17
  6
Continuous
100
AcDbLine
 10
2067.715044504933
 20
884.7740040349178
 30
0.0
 11
2066.669594532657
 21
886.3240351026762
 31
0.0
  0
LINE
  5
101
330
20
100
AcDbEntity
  8
17
  6
Continuous
100
AcDbLine
 10
2066.669594532657
 20
886.3240351026762
 30
0.0
 11
2065.634637454891
 21
887.8876744225056
 31
0.0
  0
LINE
  5
102
330
20
100
AcDbEntity
  8
17
  6
Continuous
100
AcDbLine
 10
2065.634637454891
 20
887.8876744225056
 30
0.0
 11
2064.608074692731
 21
889.4622003439918
 31
0.0
  0
LINE
  5
103
330
20
100
AcDbEntity
  8
17
  6
Continuous
100
AcDbLine
 10
2064.608074692731
 20
889.4622003439918
 30
0.0
 11
2063.587807667276
 21
891.0448912167208
 31
0.0
  0
LINE
  5
104
330
20
100
AcDbEntity
  8
17
  6
Continuous
100
AcDbLine
 10
2063.587807667276
 20
891.0448912167208
 30
0.0
 11
2062.571737799624
 21
892.6330253902778
 31
0.0
  0
LINE
  5
105
330
20
100
AcDbEntity
  8
17
  6
Continuous
100
AcDbLine
 10
2062.571737799624
 20
892.6330253902778
 30
0.0
 11
2061.557766510874
 21
894.2238812142488
 31
0.0
  0
LINE
  5
106
330
20
100
AcDbEntity
  8
17
  6
Continuous
100
AcDbLine
 10
2158.857543296589
 20
1105.858479428535
 30
0.0
 11
2233.857543296589
 21
1105.858479428535
 31
0.0
  0
LINE
  5
107
330
20
100
AcDbEntity
  8
17
  6
Continuous
100
AcDbLine
 10
2158.857543296589
 20
1105.858479428535
 30
0.0
 11
2178.17605982237
 21
1111.034860330585
 31
0.0
  0
LINE
  5
108
330
20
100
AcDbEntity
  8
17
  6
Continuous
100
AcDbLine
 10
2158.857543296589
 20
1105.858479428535
 30
0.0
 11
2178.17605982237
 21
1100.682098526484
 31
0.0
  0
LINE
  5
109
330
20
100
AcDbEntity
  8
17
  6
Continuous
100
AcDbLine
 10
2233.857543296589
 20
1105.858479428535
 30
0.0
 11
2214.539026770808
 21
1100.682098526484
 31
0.0
  0
LINE
  5
10A
330
20
100
AcDbEntity
  8
17
  6
Continuous
100
AcDbLine
 10
2233.857543296589
 20
1105.858479428535
 30
0.0
 11
2214.539026770808
 21
1111.034860330585
 31
0.0
  0
LINE
  5
10B
330
20
100
AcDbEntity
  8
17
  6
Continuous
100
AcDbLine
 10
2158.857543296589
 20
1032.447095499963
 30
0.0
 11
2158.857543296589
 21
1110.858479428534
 31
0.0
  0
LINE
  5
10C
330
20
100
AcDbEntity
  8
17
  6
Continuous
100
AcDbLine
 10
2233.857543296589
 20
1057.447095499963
 30
0.0
 11
2233.857543296589
 21
1110.858479428534
 31
0.0
  0
TEXT
  5
10D
330
20
100
AcDbEntity
  8
17
100
AcDbText
 10
2166.357518882526
 20
1110.858489886468
 30
0.0
 40
20.0
  1
15%%p1_
 50
0.00000001
 41
0.75
 51
15.0
 72
     1
 11
2196.357518882527
 21
1110.858489891704
 31
0.0
100
AcDbText
  0
LINE
  5
10E
330
20
100
AcDbEntity
  8
17
  6
Continuous
100
AcDbLine
 10
2165.558240799585
 20
1044.480460643796
 30
0.0
 11
2201.087996102711
 21
1011.408637515659
 31
0.0
  0
LINE
  5
10F
330
20
100
AcDbEntity
  8
17
  6
Continuous
100
AcDbLine
 10
2165.558240799585
 20
1044.480460643796
 30
0.0
 11
2183.225703348658
 21
1035.107053201617
 31
0.0
  0
LINE
  5
110
330
20
100
AcDbEntity
  8
17
  6
Continuous
100
AcDbLine
 10
2165.558240799585
 20
1044.480460643796
 30
0.0
 11
2176.172008466403
 21
1027.52912040431
 31
0.0
  0
TEXT
  5
111
330
20
100
AcDbEntity
  8
17
100
AcDbText
 10
2186.960919222099
 20
1030.574574136736
 30
0.0
 40
20.0
  1
R5
 50
317.051979064941
 41
0.75
 51
15.0
 72
     1
 11
2196.110570640339
 21
1022.057891747173
 31
0.0
100
AcDbText
  0
LINE
  5
112
330
20
100
AcDbEntity
  8
17
  6
Continuous
100
AcDbLine
 10
1849.214686153732
 20
1057.55870264282
 30
0.0
 11
1799.214686153732
 21
1057.55870264282
 31
0.0
  0
LINE
  5
113
330
20
100
AcDbEntity
  8
17
  6
Continuous
100
AcDbLine
 10
1774.214686153731
 20
1032.55870264282
 30
0.0
 11
1774.214686153731
 21
857.5587026428204
 31
0.0
  0
ARC
  5
114
330
20
100
AcDbEntity
  8
17
  6
Continuous
100
AcDbCircle
 10
1799.214686153732
 20
1032.55870264282
 30
0.0
 40
25.0
100
AcDbArc
 50
90.0
 51
180.0
  0
LINE
  5
115
330
20
100
AcDbEntity
  8
17
  6
Continuous
100
AcDbLine
 10
1849.214686153732
 20
1052.55870264282
 30
0.0
 11
1799.214686153732
 21
1052.55870264282
 31
0.0
  0
ARC
  5
116
330
20
100
AcDbEntity
  8
17
  6
Continuous
100
AcDbCircle
 10
1799.214686153732
 20
1032.55870264282
 30
0.0
 40
20.0
100
AcDbArc
 50
90.0
 51
180.0
  0
LINE
  5
117
330
20
100
AcDbEntity
  8
17
  6
Continuous
100
AcDbLine
 10
1779.214686153732
 20
1032.55870264282
 30
0.0
 11
1779.214686153732
 21
857.5587026428204
 31
0.0
  0
LINE
  5
118
330
20
100
AcDbEntity
  8
17
  6
Continuous
100
AcDbLine
 10
1849.214686153732
 20
1057.55870264282
 30
0.0
 11
1849.214686153732
 21
1052.55870264282
 31
0.0
  0
LINE
  5
119
330
20
100
AcDbEntity
  8
17
  6
Continuous
100
AcDbLine
 10
1612.830087939446
 20
1057.55870264282
 30
0.0
 11
1798.676070082303
 21
1057.55870264282
 31
0.0
  0
LINE
  5
11A
330
20
100
AcDbEntity
  8
17
  6
Continuous
100
AcDbLine
 10
1612.830087939446
 20
1057.55870264282
 30
0.0
 11
1613.256978038125
 21
1056.002418769967
 31
0.0
  0
LINE
  5
11B
330
20
100
AcDbEntity
  8
17
  6
Continuous
100
AcDbLine
 10
1613.256978038125
 20
1056.002418769967
 30
0.0
 11
1613.681303462925
 21
1054.445977310346
 31
0.0
  0
LINE
  5
11C
330
20
100
AcDbEntity
  8
17
  6
Continuous
100
AcDbLine
 10
1613.681303462925
 20
1054.445977310346
 30
0.0
 11
1614.100499539967
 21
1052.889220677191
 31
0.0
  0
LINE
  5
11D
330
20
100
AcDbEntity
  8
17
  6
Continuous
100
AcDbLine
 10
1614.100499539967
 20
1052.889220677191
 30
0.0
 11
1614.512001595371
 21
1051.331991283736
 31
0.0
  0
LINE
  5
11E
330
20
100
AcDbEntity
  8
17
  6
Continuous
100
AcDbLine
 10
1614.512001595371
 20
1051.331991283736
 30
0.0
 11
1614.913244955259
 21
1049.774131543212
 31
0.0
  0
LINE
  5
11F
330
20
100
AcDbEntity
  8
17
  6
Continuous
100
AcDbLine
 10
1614.913244955259
 20
1049.774131543212
 30
0.0
 11
1615.30166494575
 21
1048.215483868854
 31
0.0
  0
LINE
  5
120
330
20
100
AcDbEntity
  8
17
  6
Continuous
100
AcDbLine
 10
1615.30166494575
 20
1048.215483868854
 30
0.0
 11
1615.674696892967
 21
1046.655890673894
 31
0.0
  0
LINE
  5
121
330
20
100
AcDbEntity
  8
17
  6
Continuous
100
AcDbLine
 10
1615.674696892967
 20
1046.655890673894
 30
0.0
 11
1616.02977612303
 21
1045.095194371566
 31
0.0
  0
LINE
  5
122
330
20
100
AcDbEntity
  8
17
  6
Continuous
100
AcDbLine
 10
1616.02977612303
 20
1045.095194371566
 30
0.0
 11
1616.364337962059
 21
1043.5332373751
 31
0.0
  0
LINE
  5
123
330
20
100
AcDbEntity
  8
17
  6
Continuous
100
AcDbLine
 10
1616.364337962059
 20
1043.5332373751
 30
0.0
 11
1616.675817736175
 21
1041.969862097734
 31
0.0
  0
LINE
  5
124
330
20
100
AcDbEntity
  8
17
  6
Continuous
100
AcDbLine
 10
1616.675817736175
 20
1041.969862097734
 30
0.0
 11
1616.9616507715
 21
1040.404910952696
 31
0.0
  0
LINE
  5
125
330
20
100
AcDbEntity
  8
17
  6
Continuous
100
AcDbLine
 10
1616.9616507715
 20
1040.404910952696
 30
0.0
 11
1617.219272394154
 21
1038.838226353222
 31
0.0
  0
LINE
  5
126
330
20
100
AcDbEntity
  8
17
  6
Continuous
100
AcDbLine
 10
1617.219272394154
 20
1038.838226353222
 30
0.0
 11
1617.446117930258
 21
1037.269650712545
 31
0.0
  0
LINE
  5
127
330
20
100
AcDbEntity
  8
17
  6
Continuous
100
AcDbLine
 10
1617.446117930258
 20
1037.269650712545
 30
0.0
 11
1617.639622705932
 21
1035.699026443897
 31
0.0
  0
LINE
  5
128
330
20
100
AcDbEntity
  8
17
  6
Continuous
100
AcDbLine
 10
1617.639622705932
 20
1035.699026443897
 30
0.0
 11
1617.797222047298
 21
1034.126195960512
 31
0.0
  0
LINE
  5
129
330
20
100
AcDbEntity
  8
17
  6
Continuous
100
AcDbLine
 10
1617.797222047298
 20
1034.126195960512
 30
0.0
 11
1617.916351280477
 21
1032.551001675622
 31
0.0
  0
LINE
  5
12A
330
20
100
AcDbEntity
  8
17
  6
Continuous
100
AcDbLine
 10
1617.916351280477
 20
1032.551001675622
 30
0.0
 11
1617.994445731589
 21
1030.973286002461
 31
0.0
  0
LINE
  5
12B
330
20
100
AcDbEntity
  8
17
  6
Continuous
100
AcDbLine
 10
1617.994445731589
 20
1030.973286002461
 30
0.0
 11
1618.028940726754
 21
1029.392891354261
 31
0.0
  0
LINE
  5
12C
330
20
100
AcDbEntity
  8
17
  6
Continuous
100
AcDbLine
 10
1618.028940726754
 20
1029.392891354261
 30
0.0
 11
1618.017271592094
 21
1027.809660144255
 31
0.0
  0
LINE
  5
12D
330
20
100
AcDbEntity
  8
17
  6
Continuous
100
AcDbLine
 10
1618.017271592094
 20
1027.809660144255
 30
0.0
 11
1617.956873653731
 21
1026.223434785677
 31
0.0
  0
LINE
  5
12E
330
20
100
AcDbEntity
  8
17
  6
Continuous
100
AcDbLine
 10
1617.956873653731
 20
1026.223434785677
 30
0.0
 11
1617.821289559045
 21
1024.345120826445
 31
0.0
  0
LINE
  5
12F
330
20
100
AcDbEntity
  8
17
  6
Continuous
100
AcDbLine
 10
1617.821289559045
 20
1024.345120826445
 30
0.0
 11
1617.622495420217
 21
1022.463333051387
 31
0.0
  0
LINE
  5
130
330
20
100
AcDbEntity
  8
17
  6
Continuous
100
AcDbLine
 10
1617.622495420217
 20
1022.463333051387
 30
0.0
 11
1617.368907732483
 21
1020.578998748014
 31
0.0
  0
LINE
  5
131
330
20
100
AcDbEntity
  8
17
  6
Continuous
100
AcDbLine
 10
1617.368907732483
 20
1020.578998748014
 30
0.0
 11
1617.068942991074
 21
1018.693045203838
 31
0.0
  0
LINE
  5
132
330
20
100
AcDbEntity
  8
17
  6
Continuous
100
AcDbLine
 10
1617.068942991074
 20
1018.693045203838
 30
0.0
 11
1616.731017691225
 21
1016.806399706369
 31
0.0
  0
LINE
  5
133
330
20
100
AcDbEntity
  8
17
  6
Continuous
100
AcDbLine
 10
1616.731017691225
 20
1016.806399706369
 30
0.0
 11
1616.363548328169
 21
1014.919989543121
 31
0.0
  0
LINE
  5
134
330
20
100
AcDbEntity
  8
17
  6
Continuous
100
AcDbLine
 10
1616.363548328169
 20
1014.919989543121
 30
0.0
 11
1615.97495139714
 21
1013.034742001604
 31
0.0
  0
LINE
  5
135
330
20
100
AcDbEntity
  8
17
  6
Continuous
100
AcDbLine
 10
1615.97495139714
 20
1013.034742001604
 30
0.0
 11
1615.573643393371
 21
1011.151584369329
 31
0.0
  0
LINE
  5
136
330
20
100
AcDbEntity
  8
17
  6
Continuous
100
AcDbLine
 10
1615.573643393371
 20
1011.151584369329
 30
0.0
 11
1615.168040812096
 21
1009.271443933808
 31
0.0
  0
LINE
  5
137
330
20
100
AcDbEntity
  8
17
  6
Continuous
100
AcDbLine
 10
1615.168040812096
 20
1009.271443933808
 30
0.0
 11
1614.766560148549
 21
1007.395247982552
 31
0.0
  0
LINE
  5
138
330
20
100
AcDbEntity
  8
17
  6
Continuous
100
AcDbLine
 10
1614.766560148549
 20
1007.395247982552
 30
0.0
 11
1614.377617897962
 21
1005.523923803074
 31
0.0
  0
LINE
  5
139
330
20
100
AcDbEntity
  8
17
  6
Continuous
100
AcDbLine
 10
1614.377617897962
 20
1005.523923803074
 30
0.0
 11
1614.009630555569
 21
1003.658398682883
 31
0.0
  0
LINE
  5
13A
330
20
100
AcDbEntity
  8
17
  6
Continuous
100
AcDbLine
 10
1614.009630555569
 20
1003.658398682883
 30
0.0
 11
1613.671014616604
 21
1001.799599909492
 31
0.0
  0
LINE
  5
13B
330
20
100
AcDbEntity
  8
17
  6
Continuous
100
AcDbLine
 10
1613.671014616604
 20
1001.799599909492
 30
0.0
 11
1613.370186576301
 21
999.9484547704128
 31
0.0
  0
LINE
  5
13C
330
20
100
AcDbEntity
  8
17
  6
Continuous
100
AcDbLine
 10
1613.370186576301
 20
999.9484547704128
 30
0.0
 11
1613.115562929892
 21
998.1058905531552
 31
0.0
  0
LINE
  5
13D
330
20
100
AcDbEntity
  8
17
  6
Continuous
100
AcDbLine
 10
1613.115562929892
 20
998.1058905531552
 30
0.0
 11
1612.915560172612
 21
996.2728345452317
 31
0.0
  0
LINE
  5
13E
330
20
100
AcDbEntity
  8
17
  6
Continuous
100
AcDbLine
 10
1612.915560172612
 20
996.2728345452317
 30
0.0
 11
1612.778594799694
 21
994.4502140341537
 31
0.0
  0
LINE
  5
13F
330
20
100
AcDbEntity
  8
17
  6
Continuous
100
AcDbLine
 10
1612.778594799694
 20
994.4502140341537
 30
0.0
 11
1612.713083306371
 21
992.6389563074327
 31
0.0
  0
LINE
  5
140
330
20
100
AcDbEntity
  8
17
  6
Continuous
100
AcDbLine
 10
1612.713083306371
 20
992.6389563074327
 30
0.0
 11
1612.727442187877
 21
990.8399886525797
 31
0.0
  0
LINE
  5
141
330
20
100
AcDbEntity
  8
17
  6
Continuous
100
AcDbLine
 10
1612.727442187877
 20
990.8399886525797
 30
0.0
 11
1612.830087939446
 21
989.0542383571062
 31
0.0
  0
LINE
  5
142
330
20
100
AcDbEntity
  8
17
  6
Continuous
100
AcDbLine
 10
1612.830087939446
 20
989.0542383571062
 30
0.0
 11
1613.044427813904
 21
987.1599843248292
 31
0.0
  0
LINE
  5
143
330
20
100
AcDbEntity
  8
17
  6
Continuous
100
AcDbLine
 10
1613.044427813904
 20
987.1599843248292
 30
0.0
 11
1613.363821169216
 21
985.2810962975182
 31
0.0
  0
LINE
  5
144
330
20
100
AcDbEntity
  8
17
  6
Continuous
100
AcDbLine
 10
1613.363821169216
 20
985.2810962975182
 30
0.0
 11
1613.782738874809
 21
983.4167655380692
 31
0.0
  0
LINE
  5
145
330
20
100
AcDbEntity
  8
17
  6
Continuous
100
AcDbLine
 10
1613.782738874809
 20
983.4167655380692
 30
0.0
 11
1614.295651800112
 21
981.5661833093788
 31
0.0
  0
LINE
  5
146
330
20
100
AcDbEntity
  8
17
  6
Continuous
100
AcDbLine
 10
1614.295651800112
 20
981.5661833093788
 30
0.0
 11
1614.897030814553
 21
979.7285408743437
 31
0.0
  0
LINE
  5
147
330
20
100
AcDbEntity
  8
17
  6
Continuous
100
AcDbLine
 10
1614.897030814553
 20
979.7285408743437
 30
0.0
 11
1615.581346787563
 21
977.9030294958607
 31
0.0
  0
LINE
  5
148
330
20
100
AcDbEntity
  8
17
  6
Continuous
100
AcDbLine
 10
1615.581346787563
 20
977.9030294958607
 30
0.0
 11
1616.343070588569
 21
976.0888404368262
 31
0.0
  0
LINE
  5
149
330
20
100
AcDbEntity
  8
17
  6
Continuous
100
AcDbLine
 10
1616.343070588569
 20
976.0888404368262
 30
0.0
 11
1617.176673087001
 21
974.2851649601368
 31
0.0
  0
LINE
  5
14A
330
20
100
AcDbEntity
  8
17
  6
Continuous
100
AcDbLine
 10
1617.176673087001
 20
974.2851649601368
 30
0.0
 11
1618.076625152286
 21
972.4911943286882
 31
0.0
  0
LINE
  5
14B
330
20
100
AcDbEntity
  8
17
  6
Continuous
100
AcDbLine
 10
1618.076625152286
 20
972.4911943286882
 30
0.0
 11
1619.037397653855
 21
970.7061198053777
 31
0.0
  0
LINE
  5
14C
330
20
100
AcDbEntity
  8
17
  6
Continuous
100
AcDbLine
 10
1619.037397653855
 20
970.7061198053777
 30
0.0
 11
1620.053461461135
 21
968.9291326531023
 31
0.0
  0
LINE
  5
14D
330
20
100
AcDbEntity
  8
17
  6
Continuous
100
AcDbLine
 10
1620.053461461135
 20
968.9291326531023
 30
0.0
 11
1621.119287443556
 21
967.1594241347577
 31
0.0
  0
LINE
  5
14E
330
20
100
AcDbEntity
  8
17
  6
Continuous
100
AcDbLine
 10
1621.119287443556
 20
967.1594241347577
 30
0.0
 11
1622.229346470546
 21
965.3961855132408
 31
0.0
  0
LINE
  5
14F
330
20
100
AcDbEntity
  8
17
  6
Continuous
100
AcDbLine
 10
1622.229346470546
 20
965.3961855132408
 30
0.0
 11
1623.378109411536
 21
963.6386080514482
 31
0.0
  0
LINE
  5
150
330
20
100
AcDbEntity
  8
17
  6
Continuous
100
AcDbLine
 10
1623.378109411536
 20
963.6386080514482
 30
0.0
 11
1624.560047135951
 21
961.8858830122762
 31
0.0
  0
LINE
  5
151
330
20
100
AcDbEntity
  8
17
  6
Continuous
100
AcDbLine
 10
1624.560047135951
 20
961.8858830122762
 30
0.0
 11
1625.769630513223
 21
960.1372016586212
 31
0.0
  0
LINE
  5
152
330
20
100
AcDbEntity
  8
17
  6
Continuous
100
AcDbLine
 10
1625.769630513223
 20
960.1372016586212
 30
0.0
 11
1627.001330412779
 21
958.3917552533803
 31
0.0
  0
LINE
  5
153
330
20
100
AcDbEntity
  8
17
  6
Continuous
100
AcDbLine
 10
1627.001330412779
 20
958.3917552533803
 30
0.0
 11
1628.249617704049
 21
956.6487350594497
 31
0.0
  0
LINE
  5
154
330
20
100
AcDbEntity
  8
17
  6
Continuous
100
AcDbLine
 10
1628.249617704049
 20
956.6487350594497
 30
0.0
 11
1629.508963256462
 21
954.9073323397262
 31
0.0
  0
LINE
  5
155
330
20
100
AcDbEntity
  8
17
  6
Continuous
100
AcDbLine
 10
1629.508963256462
 20
954.9073323397262
 30
0.0
 11
1630.773837939446
 21
953.1667383571063
 31
0.0
  0
LINE
  5
156
330
20
100
AcDbEntity
  8
17
  6
Continuous
100
AcDbLine
 10
1779.214686153732
 20
857.5587026428204
 30
0.0
 11
1778.964484360016
 21
857.5588253162482
 31
0.0
  0
LINE
  5
157
330
20
100
AcDbEntity
  8
17
  6
Continuous
100
AcDbLine
 10
1778.964484360016
 20
857.5588253162482
 30
0.0
 11
1778.714285600793
 21
857.5589461449627
 31
0.0
  0
LINE
  5
158
330
20
100
AcDbEntity
  8
17
  6
Continuous
100
AcDbLine
 10
1778.714285600793
 20
857.5589461449627
 30
0.0
 11
1778.464092910553
 21
857.5590632842512
 31
0.0
  0
LINE
  5
159
330
20
100
AcDbEntity
  8
17
  6
Continuous
100
AcDbLine
 10
1778.464092910553
 20
857.5590632842512
 30
0.0
 11
1778.213909323789
 21
857.5591748893996
 31
0.0
  0
LINE
  5
15A
330
20
100
AcDbEntity
  8
17
  6
Continuous
100
AcDbLine
 10
1778.213909323789
 20
857.5591748893996
 30
0.0
 11
1777.963737874994
 21
857.5592791156957
 31
0.0
  0
LINE
  5
15B
330
20
100
AcDbEntity
  8
17
  6
Continuous
100
AcDbLine
 10
1777.963737874994
 20
857.5592791156957
 30
0.0
 11
1777.713581598658
 21
857.5593741184253
 31
0.0
  0
LINE
  5
15C
330
20
100
AcDbEntity
  8
17
  6
Continuous
100
AcDbLine
 10
1777.713581598658
 20
857.5593741184253
 30
0.0
 11
1777.463443529273
 21
857.5594580528756
 31
0.0
  0
LINE
  5
15D
330
20
100
AcDbEntity
  8
17
  6
Continuous
100
AcDbLine
 10
1777.463443529273
 20
857.5594580528756
 30
0.0
 11
1777.213326701333
 21
857.5595290743342
 31
0.0
  0
LINE
  5
15E
330
20
100
AcDbEntity
  8
17
  6
Continuous
100
AcDbLine
 10
1777.213326701333
 20
857.5595290743342
 30
0.0
 11
1776.963234149328
 21
857.5595853380868
 31
0.0
  0
LINE
  5
15F
330
20
100
AcDbEntity
  8
17
  6
Continuous
100
AcDbLine
 10
1776.963234149328
 20
857.5595853380868
 30
0.0
 11
1776.713168907751
 21
857.5596249994207
 31
0.0
  0
LINE
  5
160
330
20
100
AcDbEntity
  8
17
  6
Continuous
100
AcDbLine
 10
1776.713168907751
 20
857.5596249994207
 30
0.0
 11
1776.463134011094
 21
857.5596462136223
 31
0.0
  0
LINE
  5
161
330
20
100
AcDbEntity
  8
17
  6
Continuous
100
AcDbLine
 10
1776.463134011094
 20
857.5596462136223
 30
0.0
 11
1776.213132493847
 21
857.5596471359787
 31
0.0
  0
LINE
  5
162
330
20
100
AcDbEntity
  8
17
  6
Continuous
100
AcDbLine
 10
1776.213132493847
 20
857.5596471359787
 30
0.0
 11
1775.963167390505
 21
857.5596259217773
 31
0.0
  0
LINE
  5
163
330
20
100
AcDbEntity
  8
17
  6
Continuous
100
AcDbLine
 10
1775.963167390505
 20
857.5596259217773
 30
0.0
 11
1775.713241735558
 21
857.5595807263038
 31
0.0
  0
LINE
  5
164
330
20
100
AcDbEntity
  8
17
  6
Continuous
100
AcDbLine
 10
1775.713241735558
 20
857.5595807263038
 30
0.0
 11
1775.463358563498
 21
857.5595097048458
 31
0.0
  0
LINE
  5
165
330
20
100
AcDbEntity
  8
17
  6
Continuous
100
AcDbLine
 10
1775.463358563498
 20
857.5595097048458
 30
0.0
 11
1775.213520908818
 21
857.5594110126893
 31
0.0
  0
LINE
  5
166
330
20
100
AcDbEntity
  8
17
  6
Continuous
100
AcDbLine
 10
1775.213520908818
 20
857.5594110126893
 30
0.0
 11
1774.96373180601
 21
857.5592828051217
 31
0.0
  0
LINE
  5
167
330
20
100
AcDbEntity
  8
17
  6
Continuous
100
AcDbLine
 10
1774.96373180601
 20
857.5592828051217
 30
0.0
 11
1774.713994289564
 21
857.5591232374303
 31
0.0
  0
LINE
  5
168
330
20
100
AcDbEntity
  8
17
  6
Continuous
100
AcDbLine
 10
1774.713994289564
 20
857.5591232374303
 30
0.0
 11
1774.464311393975
 21
857.5589304649007
 31
0.0
  0
LINE
  5
169
330
20
100
AcDbEntity
  8
17
  6
Continuous
100
AcDbLine
 10
1774.464311393975
 20
857.5589304649007
 30
0.0
 11
1774.214686153731
 21
857.5587026428204
 31
0.0
  0
LINE
  5
16A
330
20
100
AcDbEntity
  8
17
  6
Continuous
100
AcDbLine
 10
1774.214686153731
 20
857.5587026428204
 30
0.0
 11
1772.621324075713
 21
857.5565153324987
 31
0.0
  0
LINE
  5
16B
330
20
100
AcDbEntity
  8
17
  6
Continuous
100
AcDbLine
 10
1772.621324075713
 20
857.5565153324987
 30
0.0
 11
1771.030035425222
 21
857.5536435794743
 31
0.0
  0
LINE
  5
16C
330
20
100
AcDbEntity
  8
17
  6
Continuous
100
AcDbLine
 10
1771.030035425222
 20
857.5536435794743
 30
0.0
 11
1769.440416721031
 21
857.5509086910452
 31
0.0
  0
LINE
  5
16D
330
20
100
AcDbEntity
  8
17
  6
Continuous
100
AcDbLine
 10
1769.440416721031
 20
857.5509086910452
 30
0.0
 11
1767.852064481914
 21
857.5491319745097
 31
0.0
  0
LINE
  5
16E
330
20
100
AcDbEntity
  8
17
  6
Continuous
100
AcDbLine
 10
1767.852064481914
 20
857.5491319745097
 30
0.0
 11
1766.264575226643
 21
857.5491347371663
 31
0.0
  0
LINE
  5
16F
330
20
100
AcDbEntity
  8
17
  6
Continuous
100
AcDbLine
 10
1766.264575226643
 20
857.5491347371663
 30
0.0
 11
1764.677545473993
 21
857.5517382863127
 31
0.0
  0
LINE
  5
170
330
20
100
AcDbEntity
  8
17
  6
Continuous
100
AcDbLine
 10
1764.677545473993
 20
857.5517382863127
 30
0.0
 11
1763.090571742737
 21
857.5577639292477
 31
0.0
  0
LINE
  5
171
330
20
100
AcDbEntity
  8
17
  6
Continuous
100
AcDbLine
 10
1763.090571742737
 20
857.5577639292477
 30
0.0
 11
1761.503250551648
 21
857.5680329732689
 31
0.0
  0
LINE
  5
172
330
20
100
AcDbEntity
  8
17
  6
Continuous
100
AcDbLine
 10
1761.503250551648
 20
857.5680329732689
 30
0.0
 11
1759.9151784195
 21
857.5833667256747
 31
0.0
  0
LINE
  5
173
330
20
100
AcDbEntity
  8
17
  6
Continuous
100
AcDbLine
 10
1759.9151784195
 20
857.5833667256747
 30
0.0
 11
1758.325951865066
 21
857.6045864937636
 31
0.0
  0
LINE
  5
174
330
20
100
AcDbEntity
  8
17
  6
Continuous
100
AcDbLine
 10
1758.325951865066
 20
857.6045864937636
 30
0.0
 11
1756.73516740712
 21
857.6325135848337
 31
0.0
  0
LINE
  5
175
330
20
100
AcDbEntity
  8
17
  6
Continuous
100
AcDbLine
 10
1756.73516740712
 20
857.6325135848337
 30
0.0
 11
1755.142421564434
 21
857.6679693061828
 31
0.0
  0
LINE
  5
176
330
20
100
AcDbEntity
  8
17
  6
Continuous
100
AcDbLine
 10
1755.142421564434
 20
857.6679693061828
 30
0.0
 11
1753.547310855783
 21
857.7117749651097
 31
0.0
  0
LINE
  5
177
330
20
100
AcDbEntity
  8
17
  6
Continuous
100
AcDbLine
 10
1753.547310855783
 20
857.7117749651097
 30
0.0
 11
1751.94943179994
 21
857.7647518689122
 31
0.0
  0
LINE
  5
178
330
20
100
AcDbEntity
  8
17
  6
Continuous
100
AcDbLine
 10
1751.94943179994
 20
857.7647518689122
 30
0.0
 11
1750.348380915679
 21
857.8277213248892
 31
0.0
  0
LINE
  5
179
330
20
100
AcDbEntity
  8
17
  6
Continuous
100
AcDbLine
 10
1750.348380915679
 20
857.8277213248892
 30
0.0
 11
1748.743754721772
 21
857.9015046403382
 31
0.0
  0
LINE
  5
17A
330
20
100
AcDbEntity
  8
17
  6
Continuous
100
AcDbLine
 10
1748.743754721772
 20
857.9015046403382
 30
0.0
 11
1747.135149736993
 21
857.9869231225572
 31
0.0
  0
LINE
  5
17B
330
20
100
AcDbEntity
  8
17
  6
Continuous
100
AcDbLine
 10
1747.135149736993
 20
857.9869231225572
 30
0.0
 11
1745.522162480116
 21
858.0847980788453
 31
0.0
  0
LINE
  5
17C
330
20
100
AcDbEntity
  8
17
  6
Continuous
100
AcDbLine
 10
1745.522162480116
 20
858.0847980788453
 30
0.0
 11
1743.904389469913
 21
858.1959508165002
 31
0.0
  0
LINE
  5
17D
330
20
100
AcDbEntity
  8
17
  6
Continuous
100
AcDbLine
 10
1743.904389469913
 20
858.1959508165002
 30
0.0
 11
1742.281427225159
 21
858.3212026428203
 31
0.0
  0
LINE
  5
17E
330
20
100
AcDbEntity
  8
17
  6
Continuous
100
AcDbLine
 10
1742.281427225159
 20
858.3212026428203
 30
0.0
 11
1740.027379001092
 21
858.5193437908698
 31
0.0
  0
LINE
  5
17F
330
20
100
AcDbEntity
  8
17
  6
Continuous
100
AcDbLine
 10
1740.027379001092
 20
858.5193437908698
 30
0.0
 11
1737.766247888148
 21
858.7486244608102
 31
0.0
  0
LINE
  5
180
330
20
100
AcDbEntity
  8
17
  6
Continuous
100
AcDbLine
 10
1737.766247888148
 20
858.7486244608102
 30
0.0
 11
1735.501657334772
 21
859.0116215229622
 31
0.0
  0
LINE
  5
181
330
20
100
AcDbEntity
  8
17
  6
Continuous
100
AcDbLine
 10
1735.501657334772
 20
859.0116215229622
 30
0.0
 11
1733.237230789406
 21
859.3109118476462
 31
0.0
  0
LINE
  5
182
330
20
100
AcDbEntity
  8
17
  6
Continuous
100
AcDbLine
 10
1733.237230789406
 20
859.3109118476462
 30
0.0
 11
1730.976591700494
 21
859.6490723051832
 31
0.0
  0
LINE
  5
183
330
20
100
AcDbEntity
  8
17
  6
Continuous
100
AcDbLine
 10
1730.976591700494
 20
859.6490723051832
 30
0.0
 11
1728.723363516477
 21
860.0286797658933
 31
0.0
  0
LINE
  5
184
330
20
100
AcDbEntity
  8
17
  6
Continuous
100
AcDbLine
 10
1728.723363516477
 20
860.0286797658933
 30
0.0
 11
1726.4811696858
 21
860.4523111000972
 31
0.0
  0
LINE
  5
185
330
20
100
AcDbEntity
  8
17
  6
Continuous
100
AcDbLine
 10
1726.4811696858
 20
860.4523111000972
 30
0.0
 11
1724.253633656903
 21
860.9225431781153
 31
0.0
  0
LINE
  5
186
330
20
100
AcDbEntity
  8
17
  6
Continuous
100
AcDbLine
 10
1724.253633656903
 20
860.9225431781153
 30
0.0
 11
1722.044378878232
 21
861.4419528702683
 31
0.0
  0
LINE
  5
187
330
20
100
AcDbEntity
  8
17
  6
Continuous
100
AcDbLine
 10
1722.044378878232
 20
861.4419528702683
 30
0.0
 11
1719.857028798228
 21
862.0131170468766
 31
0.0
  0
LINE
  5
188
330
20
100
AcDbEntity
  8
17
  6
Continuous
100
AcDbLine
 10
1719.857028798228
 20
862.0131170468766
 30
0.0
 11
1717.695206865333
 21
862.6386125782616
 31
0.0
  0
LINE
  5
189
330
20
100
AcDbEntity
  8
17
  6
Continuous
100
AcDbLine
 10
1717.695206865333
 20
862.6386125782616
 30
0.0
 11
1715.562536527991
 21
863.3210163347428
 31
0.0
  0
LINE
  5
18A
330
20
100
AcDbEntity
  8
17
  6
Continuous
100
AcDbLine
 10
1715.562536527991
 20
863.3210163347428
 30
0.0
 11
1713.462641234645
 21
864.0629051866408
 31
0.0
  0
LINE
  5
18B
330
20
100
AcDbEntity
  8
17
  6
Continuous
100
AcDbLine
 10
1713.462641234645
 20
864.0629051866408
 30
0.0
 11
1711.399144433738
 21
864.8668560042768
 31
0.0
  0
LINE
  5
18C
330
20
100
AcDbEntity
  8
17
  6
Continuous
100
AcDbLine
 10
1711.399144433738
 20
864.8668560042768
 30
0.0
 11
1709.375669573713
 21
865.7354456579712
 31
0.0
  0
LINE
  5
18D
330
20
100
AcDbEntity
  8
17
  6
Continuous
100
AcDbLine
 10
1709.375669573713
 20
865.7354456579712
 30
0.0
 11
1707.395840103011
 21
866.6712510180444
 31
0.0
  0
LINE
  5
18E
330
20
100
AcDbEntity
  8
17
  6
Continuous
100
AcDbLine
 10
1707.395840103011
 20
866.6712510180444
 30
0.0
 11
1705.463279470076
 21
867.6768489548162
 31
0.0
  0
LINE
  5
18F
330
20
100
AcDbEntity
  8
17
  6
Continuous
100
AcDbLine
 10
1705.463279470076
 20
867.6768489548162
 30
0.0
 11
1703.581611123351
 21
868.7548163386081
 31
0.0
  0
LINE
  5
190
330
20
100
AcDbEntity
  8
17
  6
Continuous
100
AcDbLine
 10
1703.581611123351
 20
868.7548163386081
 30
0.0
 11
1701.754458511279
 21
869.9077300397412
 31
0.0
  0
LINE
  5
191
330
20
100
AcDbEntity
  8
17
  6
Continuous
100
AcDbLine
 10
1701.754458511279
 20
869.9077300397412
 30
0.0
 11
1699.985445082302
 21
871.1381669285348
 31
0.0
  0
LINE
  5
192
330
20
100
AcDbEntity
  8
17
  6
Continuous
100
AcDbLine
 10
1699.985445082302
 20
871.1381669285348
 30
0.0
 11
1698.572743802225
 21
872.2119091738129
 31
0.0
  0
LINE
  5
193
330
20
100
AcDbEntity
  8
17
  6
Continuous
100
AcDbLine
 10
1698.572743802225
 20
872.2119091738129
 30
0.0
 11
1697.199915521281
 21
873.3373627769598
 31
0.0
  0
LINE
  5
194
330
20
100
AcDbEntity
  8
17
  6
Continuous
100
AcDbLine
 10
1697.199915521281
 20
873.3373627769598
 30
0.0
 11
1695.864861660567
 21
874.5118060875622
 31
0.0
  0
LINE
  5
195
330
20
100
AcDbEntity
  8
17
  6
Continuous
100
AcDbLine
 10
1695.864861660567
 20
874.5118060875622
 30
0.0
 11
1694.565483641184
 21
875.7325174552057
 31
0.0
  0
LINE
  5
196
330
20
100
AcDbEntity
  8
17
  6
Continuous
100
AcDbLine
 10
1694.565483641184
 20
875.7325174552057
 30
0.0
 11
1693.299682884228
 21
876.9967752294759
 31
0.0
  0
LINE
  5
197
330
20
100
AcDbEntity
  8
17
  6
Continuous
100
AcDbLine
 10
1693.299682884228
 20
876.9967752294759
 30
0.0
 11
1692.065360810797
 21
878.3018577599587
 31
0.0
  0
LINE
  5
198
330
20
100
AcDbEntity
  8
17
  6
Continuous
100
AcDbLine
 10
1692.065360810797
 20
878.3018577599587
 30
0.0
 11
1690.860418841991
 21
879.6450433962402
 31
0.0
  0
LINE
  5
199
330
20
100
AcDbEntity
  8
17
  6
Continuous
100
AcDbLine
 10
1690.860418841991
 20
879.6450433962402
 30
0.0
 11
1689.682758398906
 21
881.0236104879058
 31
0.0
  0
LINE
  5
19A
330
20
100
AcDbEntity
  8
17
  6
Continuous
100
AcDbLine
 10
1689.682758398906
 20
881.0236104879058
 30
0.0
 11
1688.530280902643
 21
882.4348373845413
 31
0.0
  0
LINE
  5
19B
330
20
100
AcDbEntity
  8
17
  6
Continuous
100
AcDbLine
 10
1688.530280902643
 20
882.4348373845413
 30
0.0
 11
1687.400887774298
 21
883.8760024357327
 31
0.0
  0
LINE
  5
19C
330
20
100
AcDbEntity
  8
17
  6
Continuous
100
AcDbLine
 10
1687.400887774298
 20
883.8760024357327
 30
0.0
 11
1686.292480434971
 21
885.3443839910662
 31
0.0
  0
LINE
  5
19D
330
20
100
AcDbEntity
  8
17
  6
Continuous
100
AcDbLine
 10
1686.292480434971
 20
885.3443839910662
 30
0.0
 11
1685.20296030576
 21
886.8372604001272
 31
0.0
  0
LINE
  5
19E
330
20
100
AcDbEntity
  8
17
  6
Continuous
100
AcDbLine
 10
1685.20296030576
 20
886.8372604001272
 30
0.0
 11
1684.130228807761
 21
888.3519100125012
 31
0.0
  0
LINE
  5
19F
330
20
100
AcDbEntity
  8
17
  6
Continuous
100
AcDbLine
 10
1684.130228807761
 20
888.3519100125012
 30
0.0
 11
1683.072187362076
 21
889.8856111777748
 31
0.0
  0
LINE
  5
1A0
330
20
100
AcDbEntity
  8
17
  6
Continuous
100
AcDbLine
 10
1683.072187362076
 20
889.8856111777748
 30
0.0
 11
1682.0267373898
 21
891.4356422455332
 31
0.0
  0
LINE
  5
1A1
330
20
100
AcDbEntity
  8
17
  6
Continuous
100
AcDbLine
 10
1682.0267373898
 20
891.4356422455332
 30
0.0
 11
1680.991780312033
 21
892.9992815653628
 31
0.0
  0
LINE
  5
1A2
330
20
100
AcDbEntity
  8
17
  6
Continuous
100
AcDbLine
 10
1680.991780312033
 20
892.9992815653628
 30
0.0
 11
1679.965217549873
 21
894.5738074868494
 31
0.0
  0
LINE
  5
1A3
330
20
100
AcDbEntity
  8
17
  6
Continuous
100
AcDbLine
 10
1679.965217549873
 20
894.5738074868494
 30
0.0
 11
1678.944950524418
 21
896.1564983595778
 31
0.0
  0
LINE
  5
1A4
330
20
100
AcDbEntity
  8
17
  6
Continuous
100
AcDbLine
 10
1678.944950524418
 20
896.1564983595778
 30
0.0
 11
1677.928880656766
 21
897.7446325331348
 31
0.0
  0
LINE
  5
1A5
330
20
100
AcDbEntity
  8
17
  6
Continuous
100
AcDbLine
 10
1677.928880656766
 20
897.7446325331348
 30
0.0
 11
1676.914909368017
 21
899.3354883571061
 31
0.0
  0
LINE
  5
1A6
330
20
100
AcDbEntity
  8
17
  6
Continuous
100
AcDbLine
 10
1774.214686153731
 20
1110.970086571391
 30
0.0
 11
1849.214686153732
 21
1110.970086571391
 31
0.0
  0
LINE
  5
1A7
330
20
100
AcDbEntity
  8
17
  6
Continuous
100
AcDbLine
 10
1774.214686153731
 20
1110.970086571391
 30
0.0
 11
1793.533202679513
 21
1116.146467473442
 31
0.0
  0
LINE
  5
1A8
330
20
100
AcDbEntity
  8
17
  6
Continuous
100
AcDbLine
 10
1774.214686153731
 20
1110.970086571391
 30
0.0
 11
1793.533202679513
 21
1105.793705669341
 31
0.0
  0
LINE
  5
1A9
330
20
100
AcDbEntity
  8
17
  6
Continuous
100
AcDbLine
 10
1849.214686153732
 20
1110.970086571391
 30
0.0
 11
1829.89616962795
 21
1105.793705669341
 31
0.0
  0
LINE
  5
1AA
330
20
100
AcDbEntity
  8
17
  6
Continuous
100
AcDbLine
 10
1849.214686153732
 20
1110.970086571391
 30
0.0
 11
1829.89616962795
 21
1116.146467473442
 31
0.0
  0
LINE
  5
1AB
330
20
100
AcDbEntity
  8
17
  6
Continuous
100
AcDbLine
 10
1774.214686153731
 20
1037.55870264282
 30
0.0
 11
1774.214686153731
 21
1115.970086571391
 31
0.0
  0
LINE
  5
1AC
330
20
100
AcDbEntity
  8
17
  6
Continuous
100
AcDbLine
 10
1849.214686153732
 20
1062.55870264282
 30
0.0
 11
1849.214686153732
 21
1115.970086571391
 31
0.0
  0
TEXT
  5
1AD
330
20
100
AcDbEntity
  8
17
100
AcDbText
 10
1781.714696616901
 20
1115.970062152093
 30
0.0
 40
20.0
  1
15%%p1_
 50
0.00000001
 41
0.75
 51
15.0
 72
     1
 11
1811.714696616901
 21
1115.970062157329
 31
0.0
100
AcDbText
  0
LINE
  5
1AE
330
20
100
AcDbEntity
  8
17
  6
Continuous
100
AcDbLine
 10
1780.915383656727
 20
1049.592067786653
 30
0.0
 11
1816.445138959854
 21
1016.520244658517
 31
0.0
  0
LINE
  5
1AF
330
20
100
AcDbEntity
  8
17
  6
Continuous
100
AcDbLine
 10
1780.915383656727
 20
1049.592067786653
 30
0.0
 11
1798.5828462058
 21
1040.218660344474
 31
0.0
  0
LINE
  5
1B0
330
20
100
AcDbEntity
  8
17
  6
Continuous
100
AcDbLine
 10
1780.915383656727
 20
1049.592067786653
 30
0.0
 11
1791.529151323545
 21
1032.640727547168
 31
0.0
  0
TEXT
  5
1B1
330
20
100
AcDbEntity
  8
17
100
AcDbText
 10
1802.318219026786
 20
1035.686207437517
 30
0.0
 40
20.0
  1
R5
 50
317.051979064941
 41
0.75
 51
15.0
 72
     1
 11
1811.467870445026
 21
1027.169525047954
 31
0.0
100
AcDbText
  0
LINE
  5
1B2
330
20
100
AcDbEntity
  8
17
  6
Continuous
100
AcDbLine
 10
1893.545043296589
 20
789.4783454999632
 30
0.0
 11
1610.687900439446
 21
789.4783454999632
 31
0.0
  0
LINE
  5
1B3
330
20
100
AcDbEntity
  8
17
  6
Continuous
100
AcDbLine
 10
2026.134329010875
 20
789.4783454999632
 30
0.0
 11
2300.152186153732
 21
789.4783454999632
 31
0.0
  0
TEXT
  5
1B4
330
20
100
AcDbEntity
  8
17
100
AcDbText
 10
1624.889664064758
 20
801.2702330557667
 30
0.0
 40
30.0
  1
A-A断面　Ｓ＝１／１
 41
0.6666666666670001
  7
BIGFONT
 72
     1
 11
1744.222997398151
 21
816.2702330557667
 31
0.0
100
AcDbText
 73
     2
  0
TEXT
  5
1B5
330
20
100
AcDbEntity
  8
17
100
AcDbText
 10
2045.515884767883
 20
797.6284483877982
 30
0.0
 40
30.0
  1
B-B断面　Ｓ＝１／１
 41
0.6666666666670001
  7
BIGFONT
 72
     1
 11
2164.849218101276
 21
812.6284483877983
 31
0.0
100
AcDbText
 73
     2
  0
LINE
  5
1B6
330
20
100
AcDbEntity
  8
33
  6
DASHDOT
100
AcDbLine
 10
1025.28988790416
 20
1191.845455425807
 30
0.0
 11
1025.28988790416
 21
1691.845455425808
 31
0.0
  0
LINE
  5
1B7
330
20
100
AcDbEntity
  8
33
  6
DASHDOT
100
AcDbLine
 10
654.2898879041602
 20
1441.845455425808
 30
0.0
 11
1396.28988790416
 21
1441.845455425808
 31
0.0
  0
LINE
  5
1B8
330
20
100
AcDbEntity
  8
33
  6
DASHDOT
100
AcDbLine
 10
905.2898879041606
 20
1536.845455425808
 30
0.0
 11
1145.28988790416
 21
1536.845455425808
 31
0.0
  0
ARC
  5
1B9
330
20
100
AcDbEntity
  8
33
  6
Continuous
100
AcDbCircle
 10
1025.28988790416
 20
-843.1545445741921
 30
0.0
 40
2500.0
100
AcDbArc
 50
84.410447406498
 51
95.589552593502
  0
ARC
  5
1BA
330
20
100
AcDbEntity
  8
33
  6
Continuous
100
AcDbCircle
 10
1025.28988790416
 20
3726.845455425807
 30
0.0
 40
2500.0
100
AcDbArc
 50
264.410447406498
 51
275.589552593502
  0
ARC
  5
1BB
330
20
100
AcDbEntity
  8
33
  6
Continuous
100
AcDbCircle
 10
3189.289887904161
 20
1441.845455425808
 30
0.0
 40
2500.0
100
AcDbArc
 50
177.526240044258
 51
182.4737599557419
  0
ARC
  5
1BC
330
20
100
AcDbEntity
  8
33
  6
Continuous
100
AcDbCircle
 10
-1138.71011209584
 20
1441.845455425808
 30
0.0
 40
2500.0
100
AcDbArc
 50
357.526240044258
 51
2.473759955742
  0
ARC
  5
1BD
330
20
100
AcDbEntity
  8
33
  6
Continuous
100
AcDbCircle
 10
791.5264637282921
 20
1545.433879896958
 30
0.0
 40
100.0
100
AcDbArc
 50
95.589552593502
 51
177.526240044258
  0
ARC
  5
1BE
330
20
100
AcDbEntity
  8
33
  6
Continuous
100
AcDbCircle
 10
1259.053312080029
 20
1545.433879896958
 30
0.0
 40
100.0
100
AcDbArc
 50
2.473759955742
 51
84.410447406498
  0
ARC
  5
1BF
330
20
100
AcDbEntity
  8
33
  6
Continuous
100
AcDbCircle
 10
1259.053312080029
 20
1338.257030954657
 30
0.0
 40
100.0
100
AcDbArc
 50
275.589552593501
 51
357.526240044258
  0
ARC
  5
1C0
330
20
100
AcDbEntity
  8
33
  6
Continuous
100
AcDbCircle
 10
791.5264637282921
 20
1338.257030954657
 30
0.0
 40
100.0
100
AcDbArc
 50
182.4737599557419
 51
264.410447406499
  0
CIRCLE
  5
1C1
330
20
100
AcDbEntity
  8
33
  6
Continuous
100
AcDbCircle
 10
1025.28988790416
 20
1536.845455425808
 30
0.0
 40
79.5
  0
CIRCLE
  5
1C2
330
20
100
AcDbEntity
  8
33
  6
Continuous
100
AcDbCircle
 10
1025.28988790416
 20
1536.845455425808
 30
0.0
 40
90.5
  0
ARC
  5
1C3
330
20
100
AcDbEntity
  8
33
  6
Continuous
100
AcDbCircle
 10
1025.28988790416
 20
-843.1545445741921
 30
0.0
 40
2515.0
100
AcDbArc
 50
84.410447406498
 51
95.589552593502
  0
ARC
  5
1C4
330
20
100
AcDbEntity
  8
33
  6
Continuous
100
AcDbCircle
 10
1259.053312080029
 20
1545.433879896958
 30
0.0
 40
115.0
100
AcDbArc
 50
2.473759955742
 51
84.410447406498
  0
ARC
  5
1C5
330
20
100
AcDbEntity
  8
33
  6
Continuous
100
AcDbCircle
 10
-1138.71011209584
 20
1441.845455425808
 30
0.0
 40
2515.0
100
AcDbArc
 50
357.526240044258
 51
2.473759955742
  0
ARC
  5
1C6
330
20
100
AcDbEntity
  8
33
  6
Continuous
100
AcDbCircle
 10
1259.053312080029
 20
1338.257030954657
 30
0.0
 40
115.0
100
AcDbArc
 50
275.589552593502
 51
357.526240044258
  0
ARC
  5
1C7
330
20
100
AcDbEntity
  8
33
  6
Continuous
100
AcDbCircle
 10
1025.28988790416
 20
3726.845455425807
 30
0.0
 40
2515.0
100
AcDbArc
 50
264.410447406498
 51
275.589552593502
  0
ARC
  5
1C8
330
20
100
AcDbEntity
  8
33
  6
Continuous
100
AcDbCircle
 10
791.5264637282921
 20
1338.257030954657
 30
0.0
 40
115.0
100
AcDbArc
 50
182.4737599557419
 51
264.410447406498
  0
ARC
  5
1C9
330
20
100
AcDbEntity
  8
33
  6
Continuous
100
AcDbCircle
 10
3189.289887904161
 20
1441.845455425808
 30
0.0
 40
2515.0
100
AcDbArc
 50
177.526240044258
 51
182.4737599557419
  0
ARC
  5
1CA
330
20
100
AcDbEntity
  8
33
  6
Continuous
100
AcDbCircle
 10
791.5264637282921
 20
1545.433879896958
 30
0.0
 40
115.0
100
AcDbArc
 50
95.589552593502
 51
177.526240044258
  0
LINE
  5
1CB
330
20
100
AcDbEntity
  8
33
  6
Continuous
100
AcDbLine
 10
714.5051227581557
 20
1609.212505118594
 30
0.0
 11
774.4074740010992
 21
1559.609504681354
 31
0.0
  0
LINE
  5
1CC
330
20
100
AcDbEntity
  8
33
  6
Continuous
100
AcDbLine
 10
714.5051227581557
 20
1609.212505118594
 30
0.0
 11
732.6859278174127
 21
1600.878338849717
 31
0.0
  0
LINE
  5
1CD
330
20
100
AcDbEntity
  8
33
  6
Continuous
100
AcDbLine
 10
714.5051227581557
 20
1609.212505118594
 30
0.0
 11
726.0830786662865
 21
1592.904502880755
 31
0.0
  0
TEXT
  5
1CE
330
20
100
AcDbEntity
  8
33
100
AcDbText
 10
739.1130133961306
 20
1595.047547272257
 30
0.0
 40
20.0
  1
R100
 50
320.373058319092
 41
0.75
 51
15.0
 72
     1
 11
756.4428155133858
 21
1580.697357079204
 31
0.0
100
AcDbText
  0
LINE
  5
1CF
330
20
100
AcDbEntity
  8
33
  6
Continuous
100
AcDbLine
 10
704.6062669573537
 20
1262.958429418498
 30
0.0
 11
766.5152546133442
 21
1316.589925505654
 31
0.0
  0
LINE
  5
1D0
330
20
100
AcDbEntity
  8
33
  6
Continuous
100
AcDbLine
 10
704.6062669573537
 20
1262.958429418498
 30
0.0
 11
715.8183975208376
 21
1279.520075720341
 31
0.0
  0
LINE
  5
1D1
330
20
100
AcDbEntity
  8
33
  6
Continuous
100
AcDbLine
 10
704.6062669573537
 20
1262.958429418498
 30
0.0
 11
722.5970800068012
 21
1271.695170562645
 31
0.0
  0
TEXT
  5
1D2
330
20
100
AcDbEntity
  8
33
100
AcDbText
 10
724.8393690280968
 20
1288.712703206644
 30
0.0
 40
20.0
  1
R115
 50
40.902244567871
 41
0.75
 51
15.0
 72
     1
 11
741.8454949567451
 21
1303.445037743267
 31
0.0
100
AcDbText
  0
LINE
  5
1D3
330
20
100
AcDbEntity
  8
33
  6
Continuous
100
AcDbLine
 10
689.4902409025838
 20
1473.495492563099
 30
0.0
 11
832.8164743199765
 21
1471.680834890093
 31
0.0
  0
LINE
  5
1D4
330
20
100
AcDbEntity
  8
33
  6
Continuous
100
AcDbLine
 10
689.4902409025838
 20
1473.495492563099
 30
0.0
 11
708.8727422783952
 21
1478.426885917584
 31
0.0
  0
LINE
  5
1D5
330
20
100
AcDbEntity
  8
33
  6
Continuous
100
AcDbLine
 10
689.4902409025838
 20
1473.495492563099
 30
0.0
 11
708.7416761601656
 21
1468.074953796231
 31
0.0
  0
LINE
  5
1D6
330
20
100
AcDbEntity
  8
33
  6
Continuous
100
AcDbLine
 10
832.8164743199765
 20
1471.680834890093
 30
0.0
 11
721.7203327383442
 21
1460.84218693091
 31
0.0
  0
LINE
  5
1D7
330
20
100
AcDbEntity
  8
33
  6
Continuous
100
AcDbLine
 10
721.7203327383442
 20
1460.84218693091
 30
0.0
 11
889.7193761056911
 21
1455.422862951318
 31
0.0
  0
TEXT
  5
1D8
330
20
100
AcDbEntity
  8
33
100
AcDbText
 10
728.7192542412379
 20
1477.999181341091
 30
0.0
 40
20.0
  1
R2500
 50
359.274627685547
 41
0.75
 51
15.0
 72
     1
 11
761.2166497419011
 21
1477.587737938579
 31
0.0
100
AcDbText
  0
LINE
  5
1D9
330
20
100
AcDbEntity
  8
33
  6
Continuous
100
AcDbLine
 10
995.2776737169935
 20
1227.025608516918
 30
0.0
 11
996.7510247026297
 21
1349.746045349277
 31
0.0
  0
LINE
  5
1DA
330
20
100
AcDbEntity
  8
33
  6
Continuous
100
AcDbLine
 10
995.2776737169935
 20
1227.025608516918
 30
0.0
 11
990.3335824136517
 21
1246.404874787451
 31
0.0
  0
LINE
  5
1DB
330
20
100
AcDbEntity
  8
33
  6
Continuous
100
AcDbLine
 10
995.2776737169935
 20
1227.025608516918
 30
0.0
 11
1000.685598184936
 21
1246.280591065574
 31
0.0
  0
LINE
  5
1DC
330
20
100
AcDbEntity
  8
33
  6
Continuous
100
AcDbLine
 10
996.7510247026297
 20
1349.746045349277
 30
0.0
 11
1006.234841666915
 21
1254.90787570642
 31
0.0
  0
LINE
  5
1DD
330
20
100
AcDbEntity
  8
33
  6
Continuous
100
AcDbLine
 10
1006.234841666915
 20
1254.90787570642
 30
0.0
 11
1011.654165646507
 21
1382.261989226828
 31
0.0
  0
TEXT
  5
1DE
330
20
100
AcDbEntity
  8
33
100
AcDbText
 10
990.6245270334164
 20
1255.948234208735
 30
0.0
 40
20.0
  1
R2500
 50
89.31215667724599
 41
0.75
 51
15.0
 72
     1
 11
991.0146844098701
 21
1288.445892235454
 31
0.0
100
AcDbText
  0
LINE
  5
1DF
330
20
100
AcDbEntity
  8
33
  6
Continuous
100
AcDbLine
 10
1443.516410544466
 20
1536.845455425808
 30
0.0
 11
1443.516410544466
 21
1656.845455425808
 31
0.0
  0
LINE
  5
1E0
330
20
100
AcDbEntity
  8
33
  6
Continuous
100
AcDbLine
 10
1443.516410544466
 20
1536.845455425808
 30
0.0
 11
1438.340029642416
 21
1556.163971951589
 31
0.0
  0
LINE
  5
1E1
330
20
100
AcDbEntity
  8
33
  6
Continuous
100
AcDbLine
 10
1443.516410544466
 20
1536.845455425808
 30
0.0
 11
1448.692791446516
 21
1556.163971951589
 31
0.0
  0
LINE
  5
1E2
330
20
100
AcDbEntity
  8
33
  6
Continuous
100
AcDbLine
 10
1443.516410544466
 20
1656.845455425808
 30
0.0
 11
1448.692791446516
 21
1637.526938900026
 31
0.0
  0
LINE
  5
1E3
330
20
100
AcDbEntity
  8
33
  6
Continuous
100
AcDbLine
 10
1443.516410544466
 20
1656.845455425808
 30
0.0
 11
1438.340029642416
 21
1637.526938900026
 31
0.0
  0
LINE
  5
1E4
330
20
100
AcDbEntity
  8
33
  6
Continuous
100
AcDbLine
 10
1150.28988790416
 20
1536.845455425808
 30
0.0
 11
1448.516410544467
 21
1536.845455425808
 31
0.0
  0
LINE
  5
1E5
330
20
100
AcDbEntity
  8
33
  6
Continuous
100
AcDbLine
 10
1030.28988790416
 20
1656.845455425808
 30
0.0
 11
1448.516410544467
 21
1656.845455425808
 31
0.0
  0
TEXT
  5
1E6
330
20
100
AcDbEntity
  8
33
100
AcDbText
 10
1438.516454429401
 20
1560.595428368267
 30
0.0
 40
20.0
  1
120%%p1_
 50
90.0
 41
0.75
 51
15.0
 72
     1
 11
1438.516454429401
 21
1596.845428368267
 31
0.0
100
AcDbText
  0
LINE
  5
1E7
330
20
100
AcDbEntity
  8
33
  6
Continuous
100
AcDbLine
 10
1025.28988790416
 20
1728.256887186011
 30
0.0
 11
1361.289887904161
 21
1728.256887186011
 31
0.0
  0
LINE
  5
1E8
330
20
100
AcDbEntity
  8
33
  6
Continuous
100
AcDbLine
 10
1025.28988790416
 20
1728.256887186011
 30
0.0
 11
1044.608404429941
 21
1733.433268088062
 31
0.0
  0
LINE
  5
1E9
330
20
100
AcDbEntity
  8
33
  6
Continuous
100
AcDbLine
 10
1025.28988790416
 20
1728.256887186011
 30
0.0
 11
1044.608404429941
 21
1723.080506283961
 31
0.0
  0
LINE
  5
1EA
330
20
100
AcDbEntity
  8
33
  6
Continuous
100
AcDbLine
 10
1361.289887904161
 20
1728.256887186011
 30
0.0
 11
1341.971371378379
 21
1723.080506283961
 31
0.0
  0
LINE
  5
1EB
330
20
100
AcDbEntity
  8
33
  6
Continuous
100
AcDbLine
 10
1361.289887904161
 20
1728.256887186011
 30
0.0
 11
1341.971371378379
 21
1733.433268088062
 31
0.0
  0
LINE
  5
1EC
330
20
100
AcDbEntity
  8
33
  6
Continuous
100
AcDbLine
 10
1025.28988790416
 20
1696.845455425808
 30
0.0
 11
1025.28988790416
 21
1733.256887186012
 31
0.0
  0
LINE
  5
1ED
330
20
100
AcDbEntity
  8
33
  6
Continuous
100
AcDbLine
 10
1361.289887904161
 20
1446.845455425808
 30
0.0
 11
1361.289887904161
 21
1733.256887186012
 31
0.0
  0
TEXT
  5
1EE
330
20
100
AcDbEntity
  8
33
100
AcDbText
 10
1153.289891929401
 20
1733.256927384723
 30
0.0
 40
20.0
  1
336%%p1_
 50
0.00000001
 41
0.75
 51
15.0
 72
     1
 11
1193.289891929401
 21
1733.256927391704
 31
0.0
100
AcDbText
  0
LINE
  5
1EF
330
20
100
AcDbEntity
  8
33
  6
Continuous
100
AcDbLine
 10
1106.558012080857
 20
1576.666831504503
 30
0.0
 11
944.0217637274637
 21
1497.024079347111
 31
0.0
  0
LINE
  5
1F0
330
20
100
AcDbEntity
  8
33
  6
Continuous
100
AcDbLine
 10
1106.558012080857
 20
1576.666831504503
 30
0.0
 11
1132.964154485793
 21
1589.605839733712
 31
0.0
  0
LINE
  5
1F1
330
20
100
AcDbEntity
  8
33
  6
Continuous
100
AcDbLine
 10
1106.558012080857
 20
1576.666831504503
 30
0.0
 11
1121.628166658753
 21
1589.815612474552
 31
0.0
  0
LINE
  5
1F2
330
20
100
AcDbEntity
  8
33
  6
Continuous
100
AcDbLine
 10
1106.558012080857
 20
1576.666831504503
 30
0.0
 11
1126.183539269298
 21
1580.518932564415
 31
0.0
  0
LINE
  5
1F3
330
20
100
AcDbEntity
  8
33
  6
Continuous
100
AcDbLine
 10
1132.964154485793
 20
1589.605839733712
 30
0.0
 11
1202.964154485793
 21
1589.605839733712
 31
0.0
  0
LINE
  5
1F4
330
20
100
AcDbEntity
  8
33
  6
Continuous
100
AcDbLine
 10
944.0217637274637
 20
1497.024079347111
 30
0.0
 11
917.0820540556302
 21
1483.823623188427
 31
0.0
  0
LINE
  5
1F5
330
20
100
AcDbEntity
  8
33
  6
Continuous
100
AcDbLine
 10
944.0217637274637
 20
1497.024079347111
 30
0.0
 11
928.9516091495666
 21
1483.875298377063
 31
0.0
  0
LINE
  5
1F6
330
20
100
AcDbEntity
  8
33
  6
Continuous
100
AcDbLine
 10
944.0217637274637
 20
1497.024079347111
 30
0.0
 11
924.3962365390226
 21
1493.1719782872
 31
0.0
  0
TEXT
  5
1F7
330
20
100
AcDbEntity
  8
33
100
AcDbText
 10
1122.080419273151
 20
1595.269744774516
 30
0.0
 40
20.0
  1
%%c181%%p0.5_
 41
0.75
 51
15.0
 72
     1
 11
1175.830419273151
 21
1595.269744774516
 31
0.0
100
AcDbText
  0
LINE
  5
1F8
330
20
100
AcDbEntity
  8
33
  6
Continuous
100
AcDbLine
 10
1096.709181484276
 20
1501.92362121686
 30
0.0
 11
953.8705943240442
 21
1571.767289634754
 31
0.0
  0
LINE
  5
1F9
330
20
100
AcDbEntity
  8
33
  6
Continuous
100
AcDbLine
 10
1096.709181484276
 20
1501.92362121686
 30
0.0
 11
1129.702037138854
 21
1485.79113127622
 31
0.0
  0
LINE
  5
1FA
330
20
100
AcDbEntity
  8
33
  6
Continuous
100
AcDbLine
 10
1096.709181484276
 20
1501.92362121686
 30
0.0
 11
1116.337904993093
 21
1498.087840538243
 31
0.0
  0
LINE
  5
1FB
330
20
100
AcDbEntity
  8
33
  6
Continuous
100
AcDbLine
 10
1096.709181484276
 20
1501.92362121686
 30
0.0
 11
1111.790264347463
 21
1488.787375951425
 31
0.0
  0
LINE
  5
1FC
330
20
100
AcDbEntity
  8
33
  6
Continuous
100
AcDbLine
 10
1129.702037138854
 20
1485.79113127622
 30
0.0
 11
1199.702037138854
 21
1485.79113127622
 31
0.0
  0
LINE
  5
1FD
330
20
100
AcDbEntity
  8
33
  6
Continuous
100
AcDbLine
 10
953.8705943240442
 20
1571.767289634754
 30
0.0
 11
926.9199175013586
 21
1584.94534027964
 31
0.0
  0
LINE
  5
1FE
330
20
100
AcDbEntity
  8
33
  6
Continuous
100
AcDbLine
 10
953.8705943240442
 20
1571.767289634754
 30
0.0
 11
934.2418708152282
 21
1575.603070313372
 31
0.0
  0
LINE
  5
1FF
330
20
100
AcDbEntity
  8
33
  6
Continuous
100
AcDbLine
 10
953.8705943240442
 20
1571.767289634754
 30
0.0
 11
938.7895114608577
 21
1584.903534900191
 31
0.0
  0
TEXT
  5
200
330
20
100
AcDbEntity
  8
33
100
AcDbText
 10
1119.002782554401
 20
1492.445037743267
 30
0.0
 40
20.0
  1
%%c159%%p0.5_
 41
0.75
 51
15.0
 72
     1
 11
1175.252782554401
 21
1492.445037743267
 31
0.0
100
AcDbText
  0
LINE
  5
201
330
20
100
AcDbEntity
  8
33
  6
Continuous
100
AcDbLine
 10
1669.191673618446
 20
1656.845455425808
 30
0.0
 11
1669.191673618446
 21
1671.845455425807
 31
0.0
  0
LINE
  5
202
330
20
100
AcDbEntity
  8
33
  6
Continuous
100
AcDbLine
 10
1669.191673618446
 20
1671.845455425807
 30
0.0
 11
1669.191673618446
 21
1661.845455425808
 31
0.0
  0
LINE
  5
203
330
20
100
AcDbEntity
  8
33
  6
Continuous
100
AcDbLine
 10
1674.191673618446
 20
1656.845455425808
 30
0.0
 11
1834.191673618446
 21
1656.845455425808
 31
0.0
  0
LINE
  5
204
330
20
100
AcDbEntity
  8
33
  6
Continuous
100
AcDbLine
 10
1859.191673618446
 20
1631.845455425808
 30
0.0
 11
1859.191673618446
 21
1446.345455425808
 31
0.0
  0
LINE
  5
205
330
20
100
AcDbEntity
  8
33
  6
Continuous
100
AcDbLine
 10
1818.157869020266
 20
1226.845455425808
 30
0.0
 11
1674.191673618446
 21
1226.845455425808
 31
0.0
  0
LINE
  5
206
330
20
100
AcDbEntity
  8
33
  6
DASHDOT
100
AcDbLine
 10
1639.513102189874
 20
1536.845455425808
 30
0.0
 11
1891.432745047018
 21
1536.845455425808
 31
0.0
  0
LINE
  5
207
330
20
100
AcDbEntity
  8
33
  6
DASHDOT
100
AcDbLine
 10
1859.191673618446
 20
1446.345455425808
 30
0.0
 11
1866.191673618446
 21
1446.345455425808
 31
0.0
  0
LINE
  5
208
330
20
100
AcDbEntity
  8
33
  6
Continuous
100
AcDbLine
 10
1859.191673618446
 20
1446.345455425808
 30
0.0
 11
1866.191673618446
 21
1446.345455425808
 31
0.0
  0
LINE
  5
209
330
20
100
AcDbEntity
  8
33
  6
Continuous
100
AcDbLine
 10
1866.191673618446
 20
1446.345455425808
 30
0.0
 11
1866.191673618446
 21
1627.345455425808
 31
0.0
  0
LINE
  5
20A
330
20
100
AcDbEntity
  8
33
  6
Continuous
100
AcDbLine
 10
1866.191673618446
 20
1627.345455425808
 30
0.0
 11
1859.191673618446
 21
1627.345455425808
 31
0.0
  0
LINE
  5
20B
330
20
100
AcDbEntity
  8
33
  6
Continuous
100
AcDbLine
 10
1843.074231277006
 20
1249.802200206576
 30
0.0
 11
1859.191673618446
 21
1446.345455425808
 31
0.0
  0
ARC
  5
20C
330
20
100
AcDbEntity
  8
33
  6
Continuous
100
AcDbCircle
 10
1818.157869020266
 20
1251.845455425807
 30
0.0
 40
25.0
100
AcDbArc
 50
270.0
 51
355.311974867293
  0
ARC
  5
20D
330
20
100
AcDbEntity
  8
33
  6
Continuous
100
AcDbCircle
 10
1834.191673618446
 20
1631.845455425808
 30
0.0
 40
25.0
100
AcDbArc
 50
0.0
 51
90.0
  0
LINE
  5
20E
330
20
100
AcDbEntity
  8
33
  6
Continuous
100
AcDbLine
 10
1669.191673618446
 20
1221.845455425808
 30
0.0
 11
1669.191673618446
 21
1211.845455425808
 31
0.0
  0
ARC
  5
20F
330
20
100
AcDbEntity
  8
33
  6
Continuous
100
AcDbCircle
 10
1674.191673618446
 20
1221.845455425808
 30
0.0
 40
5.0
100
AcDbArc
 50
90.0
 51
180.0
  0
ARC
  5
210
330
20
100
AcDbEntity
  8
33
  6
Continuous
100
AcDbCircle
 10
1674.191673618446
 20
1661.845455425808
 30
0.0
 40
5.0
100
AcDbArc
 50
180.0
 51
270.0
  0
LINE
  5
211
330
20
100
AcDbEntity
  8
33
  6
Continuous
100
AcDbLine
 10
1669.191673618446
 20
1221.845455425808
 30
0.0
 11
1669.191673618446
 21
1667.598604341623
 31
0.0
  0
LINE
  5
212
330
20
100
AcDbEntity
  8
33
  6
Continuous
100
AcDbLine
 10
1670.191673618446
 20
1211.845455425808
 30
0.0
 11
1670.191673618446
 21
1221.845455425808
 31
0.0
  0
ARC
  5
213
330
20
100
AcDbEntity
  8
33
  6
Continuous
100
AcDbCircle
 10
1674.191673618446
 20
1221.845455425808
 30
0.0
 40
4.0
100
AcDbArc
 50
90.0
 51
180.0
  0
LINE
  5
214
330
20
100
AcDbEntity
  8
33
  6
Continuous
100
AcDbLine
 10
1674.191673618446
 20
1225.845455425808
 30
0.0
 11
1818.157869020266
 21
1225.845455425808
 31
0.0
  0
ARC
  5
215
330
20
100
AcDbEntity
  8
33
  6
Continuous
100
AcDbCircle
 10
1818.157869020266
 20
1251.845455425807
 30
0.0
 40
26.0
100
AcDbArc
 50
270.0
 51
355.311974867293
  0
LINE
  5
216
330
20
100
AcDbEntity
  8
33
  6
Continuous
100
AcDbLine
 10
1844.070885767275
 20
1249.720469997807
 30
0.0
 11
1860.113025802373
 21
1445.345455425808
 31
0.0
  0
LINE
  5
217
330
20
100
AcDbEntity
  8
33
  6
Continuous
100
AcDbLine
 10
1860.113025802373
 20
1445.345455425808
 30
0.0
 11
1867.191673618446
 21
1445.345455425808
 31
0.0
  0
LINE
  5
218
330
20
100
AcDbEntity
  8
33
  6
Continuous
100
AcDbLine
 10
1867.191673618446
 20
1445.345455425808
 30
0.0
 11
1867.191673618446
 21
1628.345455425808
 31
0.0
  0
LINE
  5
219
330
20
100
AcDbEntity
  8
33
  6
Continuous
100
AcDbLine
 10
1867.191673618446
 20
1628.345455425808
 30
0.0
 11
1860.191673618446
 21
1628.345455425808
 31
0.0
  0
LINE
  5
21A
330
20
100
AcDbEntity
  8
33
  6
Continuous
100
AcDbLine
 10
1860.191673618446
 20
1628.345455425808
 30
0.0
 11
1860.191673618446
 21
1631.845455425808
 31
0.0
  0
ARC
  5
21B
330
20
100
AcDbEntity
  8
33
  6
Continuous
100
AcDbCircle
 10
1834.191673618446
 20
1631.845455425808
 30
0.0
 40
26.0
100
AcDbArc
 50
0.0
 51
90.0
  0
LINE
  5
21C
330
20
100
AcDbEntity
  8
33
  6
Continuous
100
AcDbLine
 10
1834.191673618446
 20
1657.845455425808
 30
0.0
 11
1674.191673618446
 21
1657.845455425808
 31
0.0
  0
ARC
  5
21D
330
20
100
AcDbEntity
  8
33
  6
Continuous
100
AcDbCircle
 10
1674.191673618446
 20
1661.845455425808
 30
0.0
 40
4.0
100
AcDbArc
 50
180.0
 51
270.0
  0
LINE
  5
21E
330
20
100
AcDbEntity
  8
33
  6
Continuous
100
AcDbLine
 10
1670.191673618446
 20
1661.845455425808
 30
0.0
 11
1670.191673618446
 21
1671.845455425807
 31
0.0
  0
LINE
  5
21F
330
20
100
AcDbEntity
  8
33
  6
Continuous
100
AcDbLine
 10
1669.191673618446
 20
1671.845455425807
 30
0.0
 11
1670.191673618446
 21
1671.845455425807
 31
0.0
  0
LINE
  5
220
330
20
100
AcDbEntity
  8
33
  6
Continuous
100
AcDbLine
 10
1669.191673618446
 20
1211.845455425808
 30
0.0
 11
1670.191673618446
 21
1211.845455425808
 31
0.0
  0
LINE
  5
221
330
20
100
AcDbEntity
  8
33
  6
Continuous
100
AcDbLine
 10
674.2898879041602
 20
1108.361381214249
 30
0.0
 11
1376.28988790416
 21
1108.361381214249
 31
0.0
  0
LINE
  5
222
330
20
100
AcDbEntity
  8
33
  6
Continuous
100
AcDbLine
 10
674.2898879041602
 20
1108.361381214249
 30
0.0
 11
693.6084044299416
 21
1113.537762116299
 31
0.0
  0
LINE
  5
223
330
20
100
AcDbEntity
  8
33
  6
Continuous
100
AcDbLine
 10
674.2898879041602
 20
1108.361381214249
 30
0.0
 11
693.6084044299416
 21
1103.185000312199
 31
0.0
  0
LINE
  5
224
330
20
100
AcDbEntity
  8
33
  6
Continuous
100
AcDbLine
 10
1376.28988790416
 20
1108.361381214249
 30
0.0
 11
1356.971371378379
 21
1103.185000312199
 31
0.0
  0
LINE
  5
225
330
20
100
AcDbEntity
  8
33
  6
Continuous
100
AcDbLine
 10
1376.28988790416
 20
1108.361381214249
 30
0.0
 11
1356.971371378379
 21
1113.537762116299
 31
0.0
  0
LINE
  5
226
330
20
100
AcDbEntity
  8
33
  6
Continuous
100
AcDbLine
 10
674.2898879041606
 20
1436.845455425808
 30
0.0
 11
674.2898879041602
 21
1103.361381214249
 31
0.0
  0
LINE
  5
227
330
20
100
AcDbEntity
  8
33
  6
Continuous
100
AcDbLine
 10
1376.28988790416
 20
1436.845455425808
 30
0.0
 11
1376.28988790416
 21
1103.361381214249
 31
0.0
  0
TEXT
  5
228
330
20
100
AcDbEntity
  8
33
100
AcDbText
 10
984.0398919294012
 20
1113.361358536849
 30
0.0
 40
20.0
  1
702%%p2_
 50
0.00000001
 41
0.75
 51
15.0
 72
     1
 11
1025.289891929401
 21
1113.361358544048
 31
0.0
100
AcDbText
  0
LINE
  5
229
330
20
100
AcDbEntity
  8
33
  6
Continuous
100
AcDbLine
 10
1361.289887904161
 20
1163.78370264282
 30
0.0
 11
1376.28988790416
 21
1163.78370264282
 31
0.0
  0
LINE
  5
22A
330
20
100
AcDbEntity
  8
33
  6
Continuous
100
AcDbLine
 10
1361.289887904161
 20
1436.845455425808
 30
0.0
 11
1361.289887904161
 21
1158.78370264282
 31
0.0
  0
LINE
  5
22B
330
20
100
AcDbEntity
  8
33
  6
Continuous
100
AcDbLine
 10
1376.28988790416
 20
1436.845455425808
 30
0.0
 11
1376.28988790416
 21
1158.78370264282
 31
0.0
  0
LINE
  5
22C
330
20
100
AcDbEntity
  8
33
  6
Continuous
100
AcDbLine
 10
1376.28988790416
 20
1163.78370264282
 30
0.0
 11
1416.28988790416
 21
1163.78370264282
 31
0.0
  0
LINE
  5
22D
330
20
100
AcDbEntity
  8
33
  6
Continuous
100
AcDbLine
 10
1376.28988790416
 20
1163.78370264282
 30
0.0
 11
1395.608404429941
 21
1168.96008354487
 31
0.0
  0
LINE
  5
22E
330
20
100
AcDbEntity
  8
33
  6
Continuous
100
AcDbLine
 10
1376.28988790416
 20
1163.78370264282
 30
0.0
 11
1395.608404429941
 21
1158.607321740769
 31
0.0
  0
TEXT
  5
22F
330
20
100
AcDbEntity
  8
33
100
AcDbText
 10
1366.289891929401
 20
1168.783721820062
 30
0.0
 40
20.0
  1
15%%p1_
 50
0.00000001
 41
0.75
 51
15.0
 72
     1
 11
1396.289891929401
 21
1168.783721825298
 31
0.0
100
AcDbText
  0
LINE
  5
230
330
20
100
AcDbEntity
  8
33
  6
Continuous
100
AcDbLine
 10
689.2898879041601
 20
1163.78370264282
 30
0.0
 11
1361.289887904161
 21
1163.78370264282
 31
0.0
  0
LINE
  5
231
330
20
100
AcDbEntity
  8
33
  6
Continuous
100
AcDbLine
 10
689.2898879041601
 20
1163.78370264282
 30
0.0
 11
708.6084044299416
 21
1168.96008354487
 31
0.0
  0
LINE
  5
232
330
20
100
AcDbEntity
  8
33
  6
Continuous
100
AcDbLine
 10
689.2898879041601
 20
1163.78370264282
 30
0.0
 11
708.6084044299416
 21
1158.607321740769
 31
0.0
  0
LINE
  5
233
330
20
100
AcDbEntity
  8
33
  6
Continuous
100
AcDbLine
 10
1361.289887904161
 20
1163.78370264282
 30
0.0
 11
1341.971371378379
 21
1158.607321740769
 31
0.0
  0
LINE
  5
234
330
20
100
AcDbEntity
  8
33
  6
Continuous
100
AcDbLine
 10
1361.289887904161
 20
1163.78370264282
 30
0.0
 11
1341.971371378379
 21
1168.96008354487
 31
0.0
  0
LINE
  5
235
330
20
100
AcDbEntity
  8
33
  6
Continuous
100
AcDbLine
 10
689.2898879041606
 20
1436.845455425808
 30
0.0
 11
689.2898879041601
 21
1158.78370264282
 31
0.0
  0
TEXT
  5
236
330
20
100
AcDbEntity
  8
33
100
AcDbText
 10
982.7898919294012
 20
1168.783721817881
 30
0.0
 40
20.0
  1
672%%p2_
 50
0.00000001
 41
0.75
 51
15.0
 72
     1
 11
1025.289891929401
 21
1168.783721825298
 31
0.0
100
AcDbText
  0
LINE
  5
237
330
20
100
AcDbEntity
  8
33
  6
Continuous
100
AcDbLine
 10
674.2898879041602
 20
1163.78370264282
 30
0.0
 11
689.2898879041601
 21
1163.78370264282
 31
0.0
  0
LINE
  5
238
330
20
100
AcDbEntity
  8
33
  6
Continuous
100
AcDbLine
 10
674.2898879041606
 20
1436.845455425808
 30
0.0
 11
674.2898879041602
 21
1158.78370264282
 31
0.0
  0
LINE
  5
239
330
20
100
AcDbEntity
  8
33
  6
Continuous
100
AcDbLine
 10
634.2898879041602
 20
1163.78370264282
 30
0.0
 11
674.2898879041602
 21
1163.78370264282
 31
0.0
  0
LINE
  5
23A
330
20
100
AcDbEntity
  8
33
  6
Continuous
100
AcDbLine
 10
674.2898879041602
 20
1163.78370264282
 30
0.0
 11
654.9713713783792
 21
1158.607321740769
 31
0.0
  0
LINE
  5
23B
330
20
100
AcDbEntity
  8
33
  6
Continuous
100
AcDbLine
 10
674.2898879041602
 20
1163.78370264282
 30
0.0
 11
654.9713713783792
 21
1168.96008354487
 31
0.0
  0
TEXT
  5
23C
330
20
100
AcDbEntity
  8
33
100
AcDbText
 10
616.8052422711981
 20
1169.595550433343
 30
0.0
 40
20.0
  1
15%%p1_
 50
0.00000001
 41
0.75
 51
15.0
 72
     1
 11
646.8052422711981
 21
1169.595550438579
 31
0.0
100
AcDbText
  0
LINE
  5
23D
330
20
100
AcDbEntity
  8
33
  6
Continuous
100
AcDbLine
 10
545.0153557965887
 20
1211.845455425807
 30
0.0
 11
545.0153557965887
 21
1671.845455425807
 31
0.0
  0
LINE
  5
23E
330
20
100
AcDbEntity
  8
33
  6
Continuous
100
AcDbLine
 10
545.0153557965887
 20
1211.845455425807
 30
0.0
 11
539.8389748945382
 21
1231.163971951589
 31
0.0
  0
LINE
  5
23F
330
20
100
AcDbEntity
  8
33
  6
Continuous
100
AcDbLine
 10
545.0153557965887
 20
1211.845455425807
 30
0.0
 11
550.1917366986391
 21
1231.163971951589
 31
0.0
  0
LINE
  5
240
330
20
100
AcDbEntity
  8
33
  6
Continuous
100
AcDbLine
 10
545.0153557965887
 20
1671.845455425807
 30
0.0
 11
550.1917366986391
 21
1652.526938900026
 31
0.0
  0
LINE
  5
241
330
20
100
AcDbEntity
  8
33
  6
Continuous
100
AcDbLine
 10
545.0153557965887
 20
1671.845455425807
 30
0.0
 11
539.8389748945382
 21
1652.526938900026
 31
0.0
  0
LINE
  5
242
330
20
100
AcDbEntity
  8
33
  6
Continuous
100
AcDbLine
 10
1020.28988790416
 20
1211.845455425807
 30
0.0
 11
540.0153557965886
 21
1211.845455425807
 31
0.0
  0
LINE
  5
243
330
20
100
AcDbEntity
  8
33
  6
Continuous
100
AcDbLine
 10
1020.28988790416
 20
1671.845455425807
 30
0.0
 11
540.0153557965886
 21
1671.845455425807
 31
0.0
  0
TEXT
  5
244
330
20
100
AcDbEntity
  8
33
100
AcDbText
 10
540.0153557965886
 20
1400.595428368267
 30
0.0
 40
20.0
  1
460%%p2_
 50
90.0
 41
0.75
 51
15.0
 72
     1
 11
540.0153557965886
 21
1441.845428368267
 31
0.0
100
AcDbText
  0
LINE
  5
245
330
20
100
AcDbEntity
  8
33
  6
Continuous
100
AcDbLine
 10
616.5254402991397
 20
1211.845455425807
 30
0.0
 11
616.5254402991397
 21
1226.845455425807
 31
0.0
  0
LINE
  5
246
330
20
100
AcDbEntity
  8
33
  6
Continuous
100
AcDbLine
 10
1020.28988790416
 20
1211.845455425807
 30
0.0
 11
611.5254402991397
 21
1211.845455425807
 31
0.0
  0
LINE
  5
247
330
20
100
AcDbEntity
  8
33
  6
Continuous
100
AcDbLine
 10
1020.28988790416
 20
1226.845455425807
 30
0.0
 11
611.5254402991397
 21
1226.845455425807
 31
0.0
  0
LINE
  5
248
330
20
100
AcDbEntity
  8
33
  6
Continuous
100
AcDbLine
 10
616.5254402991397
 20
1171.845455425807
 30
0.0
 11
616.5254402991397
 21
1211.845455425807
 31
0.0
  0
LINE
  5
249
330
20
100
AcDbEntity
  8
33
  6
Continuous
100
AcDbLine
 10
616.5254402991397
 20
1211.845455425807
 30
0.0
 11
621.70182120119
 21
1192.526938900026
 31
0.0
  0
LINE
  5
24A
330
20
100
AcDbEntity
  8
33
  6
Continuous
100
AcDbLine
 10
616.5254402991397
 20
1211.845455425807
 30
0.0
 11
611.3490593970891
 21
1192.526938900026
 31
0.0
  0
TEXT
  5
24B
330
20
100
AcDbEntity
  8
33
100
AcDbText
 10
610.7682244489326
 20
1156.350921532329
 30
0.0
 40
20.0
  1
15%%p1_
 50
90.0
 41
0.75
 51
15.0
 72
     1
 11
610.7682244489326
 21
1186.350921532329
 31
0.0
100
AcDbText
  0
LINE
  5
24C
330
20
100
AcDbEntity
  8
33
  6
Continuous
100
AcDbLine
 10
616.5254402991397
 20
1226.845455425807
 30
0.0
 11
616.5254402991397
 21
1656.845455425808
 31
0.0
  0
LINE
  5
24D
330
20
100
AcDbEntity
  8
33
  6
Continuous
100
AcDbLine
 10
616.5254402991397
 20
1226.845455425807
 30
0.0
 11
611.3490593970891
 21
1246.163971951589
 31
0.0
  0
LINE
  5
24E
330
20
100
AcDbEntity
  8
33
  6
Continuous
100
AcDbLine
 10
616.5254402991397
 20
1226.845455425807
 30
0.0
 11
621.70182120119
 21
1246.163971951589
 31
0.0
  0
LINE
  5
24F
330
20
100
AcDbEntity
  8
33
  6
Continuous
100
AcDbLine
 10
616.5254402991397
 20
1656.845455425808
 30
0.0
 11
621.70182120119
 21
1637.526938900026
 31
0.0
  0
LINE
  5
250
330
20
100
AcDbEntity
  8
33
  6
Continuous
100
AcDbLine
 10
616.5254402991397
 20
1656.845455425808
 30
0.0
 11
611.3490593970891
 21
1637.526938900026
 31
0.0
  0
LINE
  5
251
330
20
100
AcDbEntity
  8
33
  6
Continuous
100
AcDbLine
 10
1020.28988790416
 20
1656.845455425808
 30
0.0
 11
611.5254402991397
 21
1656.845455425808
 31
0.0
  0
TEXT
  5
252
330
20
100
AcDbEntity
  8
33
100
AcDbText
 10
611.5254265973701
 20
1400.595428368267
 30
0.0
 40
20.0
  1
430%%p2_
 50
90.0
 41
0.75
 51
15.0
 72
     1
 11
611.5254265973701
 21
1441.845428368267
 31
0.0
100
AcDbText
  0
LINE
  5
253
330
20
100
AcDbEntity
  8
33
  6
Continuous
100
AcDbLine
 10
616.5254402991397
 20
1656.845455425808
 30
0.0
 11
616.5254402991397
 21
1671.845455425807
 31
0.0
  0
LINE
  5
254
330
20
100
AcDbEntity
  8
33
  6
Continuous
100
AcDbLine
 10
1020.28988790416
 20
1671.845455425807
 30
0.0
 11
611.5254402991397
 21
1671.845455425807
 31
0.0
  0
LINE
  5
255
330
20
100
AcDbEntity
  8
33
  6
Continuous
100
AcDbLine
 10
616.5254402991397
 20
1671.845455425807
 30
0.0
 11
616.5254402991397
 21
1711.845455425808
 31
0.0
  0
LINE
  5
256
330
20
100
AcDbEntity
  8
33
  6
Continuous
100
AcDbLine
 10
616.5254402991397
 20
1671.845455425807
 30
0.0
 11
611.3490593970891
 21
1691.163971951589
 31
0.0
  0
LINE
  5
257
330
20
100
AcDbEntity
  8
33
  6
Continuous
100
AcDbLine
 10
616.5254402991397
 20
1671.845455425807
 30
0.0
 11
621.70182120119
 21
1691.163971951589
 31
0.0
  0
TEXT
  5
258
330
20
100
AcDbEntity
  8
33
100
AcDbText
 10
611.5254265973701
 20
1661.845428368266
 30
0.0
 40
20.0
  1
15%%p1_
 50
90.0
 41
0.75
 51
15.0
 72
     1
 11
611.5254265973701
 21
1691.845428368267
 31
0.0
100
AcDbText
  0
LINE
  5
259
330
20
100
AcDbEntity
  8
33
  6
Continuous
100
AcDbLine
 10
1843.074231277006
 20
1178.250666928534
 30
0.0
 11
1860.113025802373
 21
1178.250666928534
 31
0.0
  0
LINE
  5
25A
330
20
100
AcDbEntity
  8
33
  6
Continuous
100
AcDbLine
 10
1843.074231277006
 20
1244.802200206576
 30
0.0
 11
1843.074231277006
 21
1173.250666928534
 31
0.0
  0
LINE
  5
25B
330
20
100
AcDbEntity
  8
33
  6
Continuous
100
AcDbLine
 10
1860.113025802373
 20
1440.345455425808
 30
0.0
 11
1860.113025802373
 21
1173.250666928534
 31
0.0
  0
LINE
  5
25C
330
20
100
AcDbEntity
  8
33
  6
Continuous
100
AcDbLine
 10
1813.074231277006
 20
1178.250666928534
 30
0.0
 11
1843.074231277006
 21
1178.250666928534
 31
0.0
  0
LINE
  5
25D
330
20
100
AcDbEntity
  8
33
  6
Continuous
100
AcDbLine
 10
1843.074231277006
 20
1178.250666928534
 30
0.0
 11
1823.755714751224
 21
1173.074286026484
 31
0.0
  0
LINE
  5
25E
330
20
100
AcDbEntity
  8
33
  6
Continuous
100
AcDbLine
 10
1843.074231277006
 20
1178.250666928534
 30
0.0
 11
1823.755714751224
 21
1183.427047830585
 31
0.0
  0
LINE
  5
25F
330
20
100
AcDbEntity
  8
33
  6
Continuous
100
AcDbLine
 10
1860.113025802373
 20
1178.250666928534
 30
0.0
 11
1872.38142722516
 21
1178.250666928534
 31
0.0
  0
LINE
  5
260
330
20
100
AcDbEntity
  8
33
  6
Continuous
100
AcDbLine
 10
1860.113025802373
 20
1178.250666928534
 30
0.0
 11
1879.431542328154
 21
1183.427047830585
 31
0.0
  0
LINE
  5
261
330
20
100
AcDbEntity
  8
33
  6
Continuous
100
AcDbLine
 10
1860.113025802373
 20
1178.250666928534
 30
0.0
 11
1879.431542328154
 21
1173.074286026484
 31
0.0
  0
TEXT
  5
262
330
20
100
AcDbEntity
  8
33
100
AcDbText
 10
1845.866307945026
 20
1184.788055315719
 30
0.0
 40
20.0
  1
18%%p2_
 50
0.00000001
 41
0.75
 51
15.0
 72
     1
 11
1878.366307945026
 21
1184.788055321392
 31
0.0
100
AcDbText
  0
LINE
  5
263
330
20
100
AcDbEntity
  8
33
  6
Continuous
100
AcDbLine
 10
1835.718833149097
 20
1234.051845930656
 30
0.0
 11
1804.189384291654
 21
1265.998992821392
 31
0.0
  0
LINE
  5
264
330
20
100
AcDbEntity
  8
33
  6
Continuous
100
AcDbLine
 10
1835.718833149097
 20
1234.051845930656
 30
0.0
 11
1818.464502105068
 21
1244.165601920549
 31
0.0
  0
LINE
  5
265
330
20
100
AcDbEntity
  8
33
  6
Continuous
100
AcDbLine
 10
1835.718833149097
 20
1234.051845930656
 30
0.0
 11
1825.833022134608
 21
1251.437781067594
 31
0.0
  0
TEXT
  5
266
330
20
100
AcDbEntity
  8
33
100
AcDbText
 10
1794.155791859233
 20
1282.443717687197
 30
0.0
 40
20.0
  1
R25
 50
314.622985839844
 41
0.75
 51
15.0
 72
     1
 11
1808.204564780963
 21
1268.208831688579
 31
0.0
100
AcDbText
  0
LINE
  5
267
330
20
100
AcDbEntity
  8
33
  6
Continuous
100
AcDbLine
 10
1891.625288832303
 20
1178.250666928534
 30
0.0
 11
1871.184440618017
 21
1178.250666928534
 31
0.0
  0
LINE
  5
268
330
20
100
AcDbEntity
  8
33
  6
Continuous
100
AcDbLine
 10
1622.99452971776
 20
1583.042599326494
 30
0.0
 11
1812.994529717759
 21
1583.042599326494
 31
0.0
  0
LINE
  5
269
330
20
100
AcDbEntity
  8
33
  6
Continuous
100
AcDbLine
 10
1665.656139712513
 20
1540.38098933174
 30
0.0
 11
1619.458995811828
 21
1586.578133232426
 31
0.0
  0
LINE
  5
26A
330
20
100
AcDbEntity
  8
33
  6
Continuous
100
AcDbLine
 10
1855.656139712513
 20
1540.38098933174
 30
0.0
 11
1809.458995811827
 21
1586.578133232426
 31
0.0
  0
LINE
  5
26B
330
20
100
AcDbEntity
  8
33
  6
Continuous
100
AcDbLine
 10
1619.9665660297
 20
1583.042599326494
 30
0.0
 11
1622.99452971776
 21
1583.042599326494
 31
0.0
  0
LINE
  5
26C
330
20
100
AcDbEntity
  8
33
  6
Continuous
100
AcDbLine
 10
1622.99452971776
 20
1583.042599326494
 30
0.0
 11
1603.676013191979
 21
1577.866218424443
 31
0.0
  0
LINE
  5
26D
330
20
100
AcDbEntity
  8
33
  6
Continuous
100
AcDbLine
 10
1622.99452971776
 20
1583.042599326494
 30
0.0
 11
1603.676013191979
 21
1588.218980228544
 31
0.0
  0
LINE
  5
26E
330
20
100
AcDbEntity
  8
33
  6
Continuous
100
AcDbLine
 10
1812.994529717759
 20
1583.042599326494
 30
0.0
 11
1819.99452971776
 21
1583.042599326494
 31
0.0
  0
LINE
  5
26F
330
20
100
AcDbEntity
  8
33
  6
Continuous
100
AcDbLine
 10
1862.656139712514
 20
1540.38098933174
 30
0.0
 11
1816.458995811828
 21
1586.578133232426
 31
0.0
  0
LINE
  5
270
330
20
100
AcDbEntity
  8
33
  6
Continuous
100
AcDbLine
 10
1819.99452971776
 20
1583.042599326494
 30
0.0
 11
1844.99452971776
 21
1583.042599326494
 31
0.0
  0
LINE
  5
271
330
20
100
AcDbEntity
  8
33
  6
Continuous
100
AcDbLine
 10
1819.99452971776
 20
1583.042599326494
 30
0.0
 11
1839.313046243542
 21
1588.218980228544
 31
0.0
  0
LINE
  5
272
330
20
100
AcDbEntity
  8
33
  6
Continuous
100
AcDbLine
 10
1819.99452971776
 20
1583.042599326494
 30
0.0
 11
1839.313046243542
 21
1577.866218424443
 31
0.0
  0
TEXT
  5
273
330
20
100
AcDbEntity
  8
33
100
AcDbText
 10
1793.744481773151
 20
1588.042571916191
 30
0.0
 40
20.0
  1
7+1_-0
 50
0.00000001
 41
0.75
 51
15.0
 72
     1
 11
1832.494481773151
 21
1588.042571922954
 31
0.0
100
AcDbText
  0
LINE
  5
274
330
20
100
AcDbEntity
  8
33
  6
Continuous
100
AcDbLine
 10
1591.567237971333
 20
1583.042599326494
 30
0.0
 11
1625.445484450414
 21
1583.042599326494
 31
0.0
  0
LINE
  5
275
330
20
100
AcDbEntity
  8
33
  6
Continuous
100
AcDbLine
 10
1671.178800597993
 20
1657.855142635733
 30
0.0
 11
1688.255623033661
 21
1680.47204766833
 31
0.0
  0
LINE
  5
276
330
20
100
AcDbEntity
  8
33
  6
Continuous
100
AcDbLine
 10
1671.178800597993
 20
1657.855142635733
 30
0.0
 11
1678.688572261185
 21
1676.391683024024
 31
0.0
  0
LINE
  5
277
330
20
100
AcDbEntity
  8
33
  6
Continuous
100
AcDbLine
 10
1671.178800597993
 20
1657.855142635733
 30
0.0
 11
1686.950723829083
 21
1670.153371678673
 31
0.0
  0
TEXT
  5
278
330
20
100
AcDbEntity
  8
33
100
AcDbText
 10
1704.158100255607
 20
1664.670061241617
 30
0.0
 40
20.0
  1
R5
 50
52.945487976074
 41
0.75
 51
15.0
 72
     1
 11
1711.690282554401
 21
1674.645843407329
 31
0.0
100
AcDbText
  0
LINE
  5
279
330
20
100
AcDbEntity
  8
33
  6
DIVIDE
100
AcDbLine
 10
1724.191673618446
 20
1656.845455425808
 30
0.0
 11
1724.191673618446
 21
1226.845455425808
 31
0.0
  0
LINE
  5
27A
330
20
100
AcDbEntity
  8
33
  6
Continuous
100
AcDbLine
 10
1786.934998653731
 20
1408.80870264282
 30
0.0
 11
1946.042141510874
 21
1329.255131214249
 31
0.0
  0
LINE
  5
27B
330
20
100
AcDbEntity
  8
33
  6
Continuous
100
AcDbLine
 10
1946.042141510874
 20
1329.255131214249
 30
0.0
 11
2073.544418296588
 21
1329.255131214249
 31
0.0
  0
LINE
  5
27C
330
20
100
AcDbEntity
  8
33
  6
Continuous
100
AcDbLine
 10
1813.321318806793
 20
1402.758001112208
 30
0.0
 11
1786.934998653731
 21
1408.80870264282
 31
0.0
  0
LINE
  5
27D
330
20
100
AcDbEntity
  8
33
  6
Continuous
100
AcDbLine
 10
1786.934998653731
 20
1408.80870264282
 30
0.0
 11
1807.165387684344
 21
1392.498115908126
 31
0.0
  0
TEXT
  5
27E
330
20
100
AcDbEntity
  8
33
100
AcDbText
 10
1685.441625327839
 20
1589.925628556816
 30
0.0
 40
20.0
  1
190%%p2_
 50
0.00000001
 41
0.75
 51
15.0
 72
     1
 11
1724.191625327838
 21
1589.925628563579
 31
0.0
100
AcDbText
  0
TEXT
  5
27F
330
20
100
AcDbEntity
  8
33
100
AcDbText
 10
1951.355809898123
 20
1337.343353172954
 30
0.0
 40
30.0
  1
防滴パット
 41
0.6666666666670001
  7
BIGFONT
 72
     1
 11
2007.355809898151
 21
1352.343353172954
 31
0.0
100
AcDbText
 73
     2
  0
LINE
  5
280
330
20
100
AcDbEntity
  8
33
  6
Continuous
100
AcDbLine
 10
674.2898879041606
 20
981.8454554258073
 30
0.0
 11
684.2898879041602
 21
981.8454554258073
 31
0.0
  0
LINE
  5
281
330
20
100
AcDbEntity
  8
33
  6
Continuous
100
AcDbLine
 10
689.2898879041606
 20
976.8454554258072
 30
0.0
 11
689.2898879041606
 21
833.0795688001057
 31
0.0
  0
LINE
  5
282
330
20
100
AcDbEntity
  8
33
  6
Continuous
100
AcDbLine
 10
934.7898879041611
 20
791.8454554258073
 30
0.0
 11
1115.789887904159
 21
791.8454554258073
 31
0.0
  0
LINE
  5
283
330
20
100
AcDbEntity
  8
33
  6
Continuous
100
AcDbLine
 10
1361.28988790416
 20
833.0795688001057
 30
0.0
 11
1361.289887904161
 21
976.8454554258072
 31
0.0
  0
LINE
  5
284
330
20
100
AcDbEntity
  8
33
  6
Continuous
100
AcDbLine
 10
1366.28988790416
 20
981.8454554258073
 30
0.0
 11
1376.28988790416
 21
981.8454554258073
 31
0.0
  0
LINE
  5
285
330
20
100
AcDbEntity
  8
33
  6
DASHDOT
100
AcDbLine
 10
1025.28988790416
 20
1013.250666928535
 30
0.0
 11
1025.28988790416
 21
761.3310240713917
 31
0.0
  0
LINE
  5
286
330
20
100
AcDbEntity
  8
33
  6
Continuous
100
AcDbLine
 10
934.7898879041606
 20
791.8454554258078
 30
0.0
 11
934.7898879041606
 21
784.8454554258077
 31
0.0
  0
LINE
  5
287
330
20
100
AcDbEntity
  8
33
  6
Continuous
100
AcDbLine
 10
934.7898879041606
 20
784.8454554258077
 30
0.0
 11
1115.789887904161
 21
784.8454554258077
 31
0.0
  0
LINE
  5
288
330
20
100
AcDbEntity
  8
33
  6
Continuous
100
AcDbLine
 10
1115.789887904161
 20
784.8454554258077
 30
0.0
 11
1115.789887904161
 21
791.8454554258078
 31
0.0
  0
LINE
  5
289
330
20
100
AcDbEntity
  8
33
  6
Continuous
100
AcDbLine
 10
712.4618011302336
 20
808.1464964112688
 30
0.0
 11
934.7898879041606
 21
791.8454554258078
 31
0.0
  0
LINE
  5
28A
330
20
100
AcDbEntity
  8
33
  6
Continuous
100
AcDbLine
 10
1338.117974678087
 20
808.1464964112688
 30
0.0
 11
1115.78988790416
 21
791.8454554258078
 31
0.0
  0
ARC
  5
28B
330
20
100
AcDbEntity
  8
33
  6
Continuous
100
AcDbCircle
 10
714.2898879041606
 20
833.0795688001057
 30
0.0
 40
25.0
100
AcDbArc
 50
180.0
 51
265.806590997898
  0
ARC
  5
28C
330
20
100
AcDbEntity
  8
33
  6
Continuous
100
AcDbCircle
 10
1336.28988790416
 20
833.0795688001057
 30
0.0
 40
25.0
100
AcDbArc
 50
274.193409002103
 51
0.0
  0
ARC
  5
28D
330
20
100
AcDbEntity
  8
33
  6
Continuous
100
AcDbCircle
 10
684.2898879041602
 20
976.8454554258072
 30
0.0
 40
5.0
100
AcDbArc
 50
0.0
 51
90.0
  0
ARC
  5
28E
330
20
100
AcDbEntity
  8
33
  6
Continuous
100
AcDbCircle
 10
1366.28988790416
 20
976.8454554258072
 30
0.0
 40
5.0
100
AcDbArc
 50
90.0
 51
180.0
  0
LINE
  5
28F
330
20
100
AcDbEntity
  8
33
  6
Continuous
100
AcDbLine
 10
1376.28988790416
 20
981.8454554258073
 30
0.0
 11
689.2898879041606
 21
981.8454554258073
 31
0.0
  0
LINE
  5
290
330
20
100
AcDbEntity
  8
33
  6
Continuous
100
AcDbLine
 10
681.0608022251601
 20
981.8454554258073
 30
0.0
 11
690.0821772251601
 21
981.8454554258073
 31
0.0
  0
LINE
  5
291
330
20
100
AcDbEntity
  8
33
  6
Continuous
100
AcDbLine
 10
674.2898879041606
 20
980.8454554258073
 30
0.0
 11
684.2898879041602
 21
980.8454554258073
 31
0.0
  0
ARC
  5
292
330
20
100
AcDbEntity
  8
33
  6
Continuous
100
AcDbCircle
 10
684.2898879041602
 20
976.8454554258072
 30
0.0
 40
4.0
100
AcDbArc
 50
0.0
 51
90.0
  0
LINE
  5
293
330
20
100
AcDbEntity
  8
33
  6
Continuous
100
AcDbLine
 10
688.2898879041606
 20
976.8454554258072
 30
0.0
 11
688.2898879041606
 21
833.0795688001057
 31
0.0
  0
ARC
  5
294
330
20
100
AcDbEntity
  8
33
  6
Continuous
100
AcDbCircle
 10
714.2898879041606
 20
833.0795688001057
 30
0.0
 40
26.0
100
AcDbArc
 50
180.0
 51
265.806590997897
  0
LINE
  5
295
330
20
100
AcDbEntity
  8
33
  6
Continuous
100
AcDbLine
 10
712.3886776592767
 20
807.1491735157152
 30
0.0
 11
933.7898879041606
 21
790.9160908908356
 31
0.0
  0
LINE
  5
296
330
20
100
AcDbEntity
  8
33
  6
Continuous
100
AcDbLine
 10
933.7898879041606
 20
790.9160908908356
 30
0.0
 11
933.7898879041606
 21
783.8454554258078
 31
0.0
  0
LINE
  5
297
330
20
100
AcDbEntity
  8
33
  6
Continuous
100
AcDbLine
 10
933.7898879041606
 20
783.8454554258078
 30
0.0
 11
1116.78988790416
 21
783.8454554258078
 31
0.0
  0
LINE
  5
298
330
20
100
AcDbEntity
  8
33
  6
Continuous
100
AcDbLine
 10
1116.78988790416
 20
783.8454554258078
 30
0.0
 11
1116.78988790416
 21
790.9160908908356
 31
0.0
  0
LINE
  5
299
330
20
100
AcDbEntity
  8
33
  6
Continuous
100
AcDbLine
 10
1116.78988790416
 20
790.9160908908356
 30
0.0
 11
1338.191098149044
 21
807.1491735157152
 31
0.0
  0
ARC
  5
29A
330
20
100
AcDbEntity
  8
33
  6
Continuous
100
AcDbCircle
 10
1336.28988790416
 20
833.0795688001057
 30
0.0
 40
26.0
100
AcDbArc
 50
274.193409002103
 51
0.0
  0
LINE
  5
29B
330
20
100
AcDbEntity
  8
33
  6
Continuous
100
AcDbLine
 10
1362.28988790416
 20
833.0795688001057
 30
0.0
 11
1362.28988790416
 21
976.8454554258072
 31
0.0
  0
ARC
  5
29C
330
20
100
AcDbEntity
  8
33
  6
Continuous
100
AcDbCircle
 10
1366.28988790416
 20
976.8454554258072
 30
0.0
 40
4.0
100
AcDbArc
 50
90.0
 51
180.0
  0
LINE
  5
29D
330
20
100
AcDbEntity
  8
33
  6
Continuous
100
AcDbLine
 10
1366.28988790416
 20
980.8454554258073
 30
0.0
 11
1376.28988790416
 21
980.8454554258073
 31
0.0
  0
LINE
  5
29E
330
20
100
AcDbEntity
  8
33
  6
Continuous
100
AcDbLine
 10
674.2898879041606
 20
981.8454554258073
 30
0.0
 11
674.2898879041606
 21
980.8454554258073
 31
0.0
  0
LINE
  5
29F
330
20
100
AcDbEntity
  8
33
  6
Continuous
100
AcDbLine
 10
1376.28988790416
 20
981.8454554258073
 30
0.0
 11
1376.28988790416
 21
980.8454554258073
 31
0.0
  0
LINE
  5
2A0
330
20
100
AcDbEntity
  8
33
  6
Continuous
100
AcDbLine
 10
647.6571415108747
 20
790.9160908908356
 30
0.0
 11
647.6571415108747
 21
807.1491735157152
 31
0.0
  0
LINE
  5
2A1
330
20
100
AcDbEntity
  8
33
  6
Continuous
100
AcDbLine
 10
928.7898879041605
 20
790.9160908908356
 30
0.0
 11
642.6571415108746
 21
790.9160908908356
 31
0.0
  0
LINE
  5
2A2
330
20
100
AcDbEntity
  8
33
  6
Continuous
100
AcDbLine
 10
707.3886776592766
 20
807.1491735157152
 30
0.0
 11
642.6571415108746
 21
807.1491735157152
 31
0.0
  0
LINE
  5
2A3
330
20
100
AcDbEntity
  8
33
  6
Continuous
100
AcDbLine
 10
647.6571415108747
 20
760.9160908908356
 30
0.0
 11
647.6571415108747
 21
790.9160908908356
 31
0.0
  0
LINE
  5
2A4
330
20
100
AcDbEntity
  8
33
  6
Continuous
100
AcDbLine
 10
647.6571415108747
 20
790.9160908908356
 30
0.0
 11
652.8335224129246
 21
771.5975743650542
 31
0.0
  0
LINE
  5
2A5
330
20
100
AcDbEntity
  8
33
  6
Continuous
100
AcDbLine
 10
647.6571415108747
 20
790.9160908908356
 30
0.0
 11
642.4807606088241
 21
771.5975743650542
 31
0.0
  0
LINE
  5
2A6
330
20
100
AcDbEntity
  8
33
  6
Continuous
100
AcDbLine
 10
647.6571415108747
 20
807.1491735157152
 30
0.0
 11
647.6571415108747
 21
837.1491735157153
 31
0.0
  0
LINE
  5
2A7
330
20
100
AcDbEntity
  8
33
  6
Continuous
100
AcDbLine
 10
647.6571415108747
 20
807.1491735157152
 30
0.0
 11
642.4807606088241
 21
826.4676900414963
 31
0.0
  0
LINE
  5
2A8
330
20
100
AcDbEntity
  8
33
  6
Continuous
100
AcDbLine
 10
647.6571415108747
 20
807.1491735157152
 30
0.0
 11
652.8335224129246
 21
826.4676900414963
 31
0.0
  0
TEXT
  5
2A9
330
20
100
AcDbEntity
  8
33
100
AcDbText
 10
636.9641167829167
 20
766.6193846670946
 30
0.0
 40
20.0
  1
18%%p2_
 50
90.0
 41
0.75
 51
15.0
 72
     1
 11
636.9641167829167
 21
799.1193846670946
 31
0.0
100
AcDbText
  0
LINE
  5
2AA
330
20
100
AcDbEntity
  8
33
  6
Continuous
100
AcDbLine
 10
696.0202056445411
 20
816.0144373874102
 30
0.0
 11
732.5142843680171
 21
850.1024001856396
 31
0.0
  0
LINE
  5
2AB
330
20
100
AcDbEntity
  8
33
  6
Continuous
100
AcDbLine
 10
696.0202056445411
 20
816.0144373874102
 30
0.0
 11
706.6045071772442
 21
832.9841916892508
 31
0.0
  0
LINE
  5
2AC
330
20
100
AcDbEntity
  8
33
  6
Continuous
100
AcDbLine
 10
696.0202056445411
 20
816.0144373874102
 30
0.0
 11
713.6713568040966
 21
825.4185249424327
 31
0.0
  0
TEXT
  5
2AD
330
20
100
AcDbEntity
  8
33
100
AcDbText
 10
710.6402109338906
 20
836.9708497091753
 30
0.0
 40
20.0
  1
R25
 50
43.047565460205
 41
0.75
 51
15.0
 72
     1
 11
725.2559563825261
 21
850.6229552237357
 31
0.0
100
AcDbText
  0
LINE
  5
2AE
330
20
100
AcDbEntity
  8
33
  6
Continuous
100
AcDbLine
 10
1362.661203238225
 20
980.2853169920933
 30
0.0
 11
1381.051191796725
 21
962.8522742588197
 31
0.0
  0
LINE
  5
2AF
330
20
100
AcDbEntity
  8
33
  6
Continuous
100
AcDbLine
 10
1362.661203238225
 20
980.2853169920933
 30
0.0
 11
1380.242570918851
 21
970.7514032900167
 31
0.0
  0
LINE
  5
2B0
330
20
100
AcDbEntity
  8
33
  6
Continuous
100
AcDbLine
 10
1362.661203238225
 20
980.2853169920933
 30
0.0
 11
1373.120157431884
 21
963.2380216882937
 31
0.0
  0
TEXT
  5
2B1
330
20
100
AcDbEntity
  8
33
100
AcDbText
 10
1374.777872775409
 20
955.1035296846672
 30
0.0
 40
20.0
  1
R5
 50
316.530185699463
 41
0.75
 51
15.0
 72
     1
 11
1383.849584312214
 21
946.5038756338918
 31
0.0
100
AcDbText
  0
LINE
  5
2B2
330
20
100
AcDbEntity
  8
33
  6
DIVIDE
100
AcDbLine
 10
689.2898879041601
 20
926.8454554258072
 30
0.0
 11
1361.28988790416
 21
926.8454554258072
 31
0.0
  0
LINE
  5
2B3
330
20
100
AcDbEntity
  8
33
  6
Continuous
100
AcDbLine
 10
1025.28988790416
 20
1691.845455425808
 30
0.0
 11
985.2898879041607
 21
1691.845455425808
 31
0.0
  0
LINE
  5
2B4
330
20
100
AcDbEntity
  8
33
  6
Continuous
100
AcDbLine
 10
1025.28988790416
 20
1641.944863357106
 30
0.0
 11
985.2898879041607
 21
1641.944863357106
 31
0.0
  0
LINE
  5
2B5
330
20
100
AcDbEntity
  8
33
  6
Continuous
100
AcDbLine
 10
1396.28988790416
 20
1441.845455425808
 30
0.0
 11
1396.28988790416
 21
1481.845455425808
 31
0.0
  0
LINE
  5
2B6
330
20
100
AcDbEntity
  8
33
  6
Continuous
100
AcDbLine
 10
1339.604003755773
 20
1441.845455425808
 30
0.0
 11
1339.604003755773
 21
1481.845455425808
 31
0.0
  0
LINE
  5
2B7
330
20
100
AcDbEntity
  8
33
  6
Continuous
100
AcDbLine
 10
985.2898879041601
 20
1641.944863357106
 30
0.0
 11
1005.28988790416
 21
1634.944863357105
 31
0.0
  0
LINE
  5
2B8
330
20
100
AcDbEntity
  8
33
  6
Continuous
100
AcDbLine
 10
1005.28988790416
 20
1684.845455425808
 30
0.0
 11
1005.28988790416
 21
1698.845455425807
 31
0.0
  0
LINE
  5
2B9
330
20
100
AcDbEntity
  8
33
  6
Continuous
100
AcDbLine
 10
985.2898879041607
 20
1691.845455425808
 30
0.0
 11
1005.28988790416
 21
1698.845455425807
 31
0.0
  0
LINE
  5
2BA
330
20
100
AcDbEntity
  8
33
  6
Continuous
100
AcDbLine
 10
1005.28988790416
 20
1648.944863357106
 30
0.0
 11
1005.28988790416
 21
1634.944863357105
 31
0.0
  0
TEXT
  5
2BB
330
20
100
AcDbEntity
  8
33
100
AcDbText
 10
974.5250603864326
 20
1687.285613915141
 30
0.0
 40
20.0
  1
A
 50
90.0
 41
0.75
 51
15.0
 72
     1
 11
974.5250603864326
 21
1692.285613915142
 31
0.0
100
AcDbText
  0
TEXT
  5
2BC
330
20
100
AcDbEntity
  8
33
100
AcDbText
 10
974.5250603864326
 20
1635.278655907329
 30
0.0
 40
20.0
  1
A
 50
90.0
 41
0.75
 51
15.0
 72
     1
 11
974.5250603864326
 21
1640.278655907329
 31
0.0
100
AcDbText
  0
LINE
  5
2BD
330
20
100
AcDbEntity
  8
33
  6
Continuous
100
AcDbLine
 10
1396.28988790416
 20
1481.845455425808
 30
0.0
 11
1403.289887904161
 21
1461.845455425808
 31
0.0
  0
LINE
  5
2BE
330
20
100
AcDbEntity
  8
33
  6
Continuous
100
AcDbLine
 10
1403.289887904161
 20
1461.845455425808
 30
0.0
 11
1389.28988790416
 21
1461.845455425808
 31
0.0
  0
LINE
  5
2BF
330
20
100
AcDbEntity
  8
33
  6
Continuous
100
AcDbLine
 10
1332.604003755773
 20
1461.845455425808
 30
0.0
 11
1346.604003755772
 21
1461.845455425808
 31
0.0
  0
LINE
  5
2C0
330
20
100
AcDbEntity
  8
33
  6
Continuous
100
AcDbLine
 10
1339.604003755773
 20
1481.845455425808
 30
0.0
 11
1332.604003755773
 21
1461.845455425808
 31
0.0
  0
TEXT
  5
2C1
330
20
100
AcDbEntity
  8
33
100
AcDbText
 10
1333.586034507526
 20
1493.824920555766
 30
0.0
 40
20.0
  1
B
 41
0.75
 51
15.0
 72
     1
 11
1338.586034507526
 21
1493.824920555766
 31
0.0
100
AcDbText
  0
TEXT
  5
2C2
330
20
100
AcDbEntity
  8
33
100
AcDbText
 10
1389.971776695026
 20
1493.824920555766
 30
0.0
 40
20.0
  1
B
 41
0.75
 51
15.0
 72
     1
 11
1394.971776695026
 21
1493.824920555766
 31
0.0
100
AcDbText
  0
LINE
  5
2D1
330
20
100
AcDbEntity
  8
33
  6
HIDDEN
100
AcDbLine
 10
1282.406248653731
 20
1493.82495264282
 30
0.0
 11
1441.336605796588
 21
1493.82495264282
 31
0.0
  0
TEXT
  5
332
330
20
100
AcDbEntity
  8
0
100
AcDbText
 10
617.6248737828757
 20
550.461228960738
 30
0.0
 40
30.0
  1
・表面仕様はBA材をプレスしたままとする。
  7
ＭＳ ゴシック
100
AcDbText
  0
LINE
  5
333
330
20
100
AcDbEntity
  8
一般
100
AcDbLine
 10
2759.177578150814
 20
2167.39333118327
 30
0.0
 11
2759.177578150814
 21
247.3625289823281
 31
0.0
  0
LINE
  5
334
330
20
100
AcDbEntity
  8
0
100
AcDbLine
 10
-20.82242184918687
 20
2167.39333118327
 30
0.0
 11
-20.82242184918687
 21
247.3625289823281
 31
0.0
  0
LINE
  5
335
330
20
100
AcDbEntity
  8
一般
100
AcDbLine
 10
2759.177578150814
 20
2167.39333118327
 30
0.0
 11
-20.82242184918687
 21
2167.39333118327
 31
0.0
  0
LINE
  5
336
330
20
100
AcDbEntity
  8
一般
100
AcDbLine
 10
2759.177578150814
 20
2017.405993177552
 30
0.0
 11
2759.177578150814
 21
247.3625289823281
 31
0.0
  0
MTEXT
  5
337
330
20
100
AcDbEntity
  8
一般
  6
Continuous
100
AcDbMText
 10
2199.864008905553
 20
430.4047575480894
 30
0.0
 40
38.0
 41
613.8525194768535
 71
     1
 72
     5
  1
{\fMS Gothic|b0|i0|c128|p0;672\fArial|b0|i0|c0|p32;AD\fMS Gothic|b0|i0|c128|p0;ボール} A{\fMS Gothic|b0|i0|c128|p0;-}H7-14{\fMS Gothic|b0|i0|c128|p0;5}
  7
ＭＳ ゴシック
 73
     1
 44
1.0
1001
ACAD
1000
MTEXTBEGIN
1070
    73
1070
     1
1070
    44
1040
1.0
1070
    74
1070
     0
1000
MTEXTEND
  0
LINE
  5
338
330
20
100
AcDbEntity
  8
一般
100
AcDbLine
 10
-20.82242184918687
 20
247.3625289823281
 30
0.0
 11
2759.177578150814
 21
247.3625289823281
 31
0.0
  0
MTEXT
  5
339
330
20
100
AcDbEntity
  8
一般
100
AcDbMText
 10
110.677219159179
 20
426.7769914743422
 30
0.0
 40
30.0
 41
0.0
 71
     1
 72
     1
  3
{\C7;\l\U+203b\U+5b9f\U+5bf8\U+306b\U+306f\U+88fd\U+9020\U+4e0a\U+306e\U+8aa4\U+5dee\U+304c\U+591a\U+5c11\U+751f\U+305a\U+308b\U+5834\U+5408\U+304c\U+3042\U+308a\U+307e\U+3059\U+3002\U+30b7\U+30f3\U+30af\U+306e\U+7a74\U+3042\U+3051\U+52a0\U+5de5\U+30
  1
6f\U+73fe\U+7269\U+5408\U+308f\U+305b\U+306b\U+3066\U+304a\U+9858\U+3044\U+3057\U+307e\U+3059\U+3002}
  7
ＭＳ ゴシック
 73
     1
 44
0.792296314685874
1001
ACAD
1000
MTEXTBEGIN
1070
    73
1070
     1
1070
    44
1040
0.792296314685874
1070
    74
1070
     0
1000
MTEXTEND
  0
LINE
  5
33A
330
20
100
AcDbEntity
  8
一般
100
AcDbLine
 10
2159.177578150814
 20
312.3625289823281
 30
0.0
 11
2159.177578150814
 21
442.362528982328
 31
0.0
  0
LINE
  5
33B
330
20
100
AcDbEntity
  8
一般
100
AcDbLine
 10
2159.177578150814
 20
312.3625289823281
 30
0.0
 11
2759.177578150814
 21
312.3625289823281
 31
0.0
  0
LINE
  5
33C
330
20
100
AcDbEntity
  8
一般
100
AcDbLine
 10
2039.177578150813
 20
377.362528982328
 30
0.0
 11
2759.177578150814
 21
377.362528982328
 31
0.0
  0
LINE
  5
33D
330
20
100
AcDbEntity
  8
一般
100
AcDbLine
 10
2039.177578150813
 20
442.362528982328
 30
0.0
 11
2759.177578150814
 21
442.362528982328
 31
0.0
  0
LINE
  5
33E
330
20
100
AcDbEntity
  8
一般
100
AcDbLine
 10
2759.177578150814
 20
247.3625289823281
 30
0.0
 11
2759.177578150814
 21
312.3625289823281
 31
0.0
  0
LINE
  5
33F
330
20
100
AcDbEntity
  8
一般
100
AcDbLine
 10
2759.177578150814
 20
377.362528982328
 30
0.0
 11
2759.177578150814
 21
442.362528982328
 31
0.0
  0
LINE
  5
340
330
20
100
AcDbEntity
  8
一般
100
AcDbLine
 10
2039.177578150813
 20
312.3625289823281
 30
0.0
 11
2759.177578150814
 21
312.3625289823281
 31
0.0
  0
LINE
  5
341
330
20
100
AcDbEntity
  8
一般
100
AcDbLine
 10
2039.177578150813
 20
247.3625289823281
 30
0.0
 11
2039.177578150813
 21
442.362528982328
 31
0.0
  0
MTEXT
  5
342
330
20
100
AcDbEntity
  8
一般
100
AcDbMText
 10
2450.058897342535
 20
358.2478081701453
 30
0.0
 40
35.0
 41
0.0
 71
     2
 72
     1
  1
1\U+ff1a10
  7
ＭＳ ゴシック
 73
     1
 44
0.7859706209094222
1001
ACAD
1000
MTEXTBEGIN
1070
    73
1070
     1
1070
    44
1040
0.7859706209094222
1070
    74
1070
     0
1000
MTEXTEND
  0
MTEXT
  5
343
330
20
100
AcDbEntity
  8
一般
100
AcDbMText
 10
2159.677578150815
 20
293.2821759730689
 30
0.0
 40
35.36964699074076
 41
0.0
 71
     1
 72
     1
  1
e-KITCHEN {\H0.3571x;\lU-ARCHITECTURE WORKS}
  7
Arial
 73
     1
 44
0.9673603504928808
1001
ACAD
1000
MTEXTBEGIN
1070
    73
1070
     1
1070
    44
1040
0.9673603504928808
1070
    74
1070
     0
1000
MTEXTEND
  0
MTEXT
  5
344
330
20
100
AcDbEntity
  8
一般
100
AcDbMText
 10
2054.748356333814
 20
360.4114482531613
 30
0.0
 40
35.29155815972223
 41
0.0
 71
     1
 72
     1
  1
\U+5c3a\U+5ea6
  7
ＭＳ ゴシック
 73
     1
 44
0.7828267384257841
1001
ACAD
1000
MTEXTBEGIN
1070
    73
1070
     1
1070
    44
1040
0.7828267384257841
1070
    74
1070
     0
1000
MTEXTEND
  0
LINE
  5
345
330
20
100
AcDbEntity
  8
一般
100
AcDbLine
 10
2159.177578150814
 20
312.3625289823281
 30
0.0
 11
2159.177578150814
 21
442.362528982328
 31
0.0
  0
LINE
  5
346
330
20
100
AcDbEntity
  8
一般
100
AcDbLine
 10
2159.177578150814
 20
312.3625289823281
 30
0.0
 11
2759.177578150814
 21
312.3625289823281
 31
0.0
  0
LINE
  5
347
330
20
100
AcDbEntity
  8
一般
100
AcDbLine
 10
2039.177578150813
 20
377.362528982328
 30
0.0
 11
2759.177578150814
 21
377.362528982328
 31
0.0
  0
LINE
  5
348
330
20
100
AcDbEntity
  8
一般
100
AcDbLine
 10
2039.177578150813
 20
442.362528982328
 30
0.0
 11
2759.177578150814
 21
442.362528982328
 31
0.0
  0
LINE
  5
349
330
20
100
AcDbEntity
  8
一般
100
AcDbLine
 10
2759.177578150814
 20
247.3625289823281
 30
0.0
 11
2759.177578150814
 21
312.3625289823281
 31
0.0
  0
LINE
  5
34A
330
20
100
AcDbEntity
  8
一般
100
AcDbLine
 10
2759.177578150814
 20
377.362528982328
 30
0.0
 11
2759.177578150814
 21
442.362528982328
 31
0.0
  0
LINE
  5
34B
330
20
100
AcDbEntity
  8
一般
100
AcDbLine
 10
2039.177578150813
 20
312.3625289823281
 30
0.0
 11
2759.177578150814
 21
312.3625289823281
 31
0.0
  0
LINE
  5
34C
330
20
100
AcDbEntity
  8
一般
100
AcDbLine
 10
2039.177578150813
 20
247.3625289823281
 30
0.0
 11
2039.177578150813
 21
442.362528982328
 31
0.0
  0
MTEXT
  5
34E
330
20
100
AcDbEntity
  8
一般
100
AcDbMText
 10
2159.677578150815
 20
293.2821759730689
 30
0.0
 40
35.36964699074076
 41
0.0
 71
     1
 72
     1
  1
e-KITCHEN {\H0.3571x;\lU-ARCHITECTURE WORKS}
  7
Arial
 73
     1
 44
0.9673603504928808
1001
ACAD
1000
MTEXTBEGIN
1070
    73
1070
     1
1070
    44
1040
0.9673603504928808
1070
    74
1070
     0
1000
MTEXTEND
  0
MTEXT
  5
34F
330
20
100
AcDbEntity
  8
一般
100
AcDbMText
 10
2052.177578150815
 20
428.2135315864947
 30
0.0
 40
35.29155815972223
 41
0.0
 71
     1
 72
     1
  1
\U+54c1\U+756a
  7
ＭＳ ゴシック
 73
     1
 44
0.7828267384257841
1001
ACAD
1000
MTEXTBEGIN
1070
    73
1070
     1
1070
    44
1040
0.7828267384257841
1070
    74
1070
     0
1000
MTEXTEND
  0
LINE
  5
351
330
20
100
AcDbEntity
  8
一般
100
AcDbLine
 10
2159.177578150814
 20
312.3625289823281
 30
0.0
 11
2159.177578150814
 21
442.362528982328
 31
0.0
  0
LINE
  5
352
330
20
100
AcDbEntity
  8
一般
100
AcDbLine
 10
2159.177578150814
 20
312.3625289823281
 30
0.0
 11
2759.177578150814
 21
312.3625289823281
 31
0.0
  0
LINE
  5
353
330
20
100
AcDbEntity
  8
一般
100
AcDbLine
 10
2039.177578150813
 20
377.362528982328
 30
0.0
 11
2759.177578150814
 21
377.362528982328
 31
0.0
  0
LINE
  5
354
330
20
100
AcDbEntity
  8
一般
100
AcDbLine
 10
2039.177578150813
 20
442.362528982328
 30
0.0
 11
2759.177578150814
 21
442.362528982328
 31
0.0
  0
LINE
  5
355
330
20
100
AcDbEntity
  8
一般
100
AcDbLine
 10
2759.177578150814
 20
247.3625289823281
 30
0.0
 11
2759.177578150814
 21
312.3625289823281
 31
0.0
  0
LINE
  5
356
330
20
100
AcDbEntity
  8
一般
100
AcDbLine
 10
2759.177578150814
 20
377.362528982328
 30
0.0
 11
2759.177578150814
 21
442.362528982328
 31
0.0
  0
LINE
  5
357
330
20
100
AcDbEntity
  8
一般
100
AcDbLine
 10
2039.177578150813
 20
312.3625289823281
 30
0.0
 11
2759.177578150814
 21
312.3625289823281
 31
0.0
  0
LINE
  5
358
330
20
100
AcDbEntity
  8
一般
100
AcDbLine
 10
2039.177578150813
 20
247.3625289823281
 30
0.0
 11
2039.177578150813
 21
442.362528982328
 31
0.0
  0
MTEXT
  5
35A
330
20
100
AcDbEntity
  8
一般
100
AcDbMText
 10
2159.677578150815
 20
293.2821759730689
 30
0.0
 40
35.36964699074076
 41
0.0
 71
     1
 72
     1
  1
e-KITCHEN {\H0.3571x;\lU-ARCHITECTURE WORKS}
  7
Arial
 73
     1
 44
0.9673603504928808
1001
ACAD
1000
MTEXTBEGIN
1070
    73
1070
     1
1070
    44
1040
0.9673603504928808
1070
    74
1070
     0
1000
MTEXTEND
  0
LINE
  5
35D
330
20
100
AcDbEntity
  8
一般
100
AcDbLine
 10
2757.09322444136
 20
2102.757999851223
 30
0.0
 11
2037.09322444136
 21
2102.757999851223
 31
0.0
  0
LINE
  5
35E
330
20
100
AcDbEntity
  8
一般
100
AcDbLine
 10
2757.09322444136
 20
2037.757999851223
 30
0.0
 11
2037.09322444136
 21
2037.757999851223
 31
0.0
  0
LINE
  5
35F
330
20
100
AcDbEntity
  8
一般
100
AcDbLine
 10
2037.09322444136
 20
2037.757999851223
 30
0.0
 11
2037.09322444136
 21
2167.757999851223
 31
0.0
  0
LINE
  5
360
330
20
100
AcDbEntity
  8
一般
100
AcDbLine
 10
2207.09322444136
 20
2037.757999851223
 30
0.0
 11
2207.09322444136
 21
2167.757999851223
 31
0.0
  0
LINE
  5
361
330
20
100
AcDbEntity
  8
一般
100
AcDbLine
 10
2482.09322444136
 20
2037.757999851223
 30
0.0
 11
2482.09322444136
 21
2167.757999851223
 31
0.0
  0
MTEXT
  5
362
330
20
100
AcDbEntity
  8
一般
100
AcDbMText
 10
2057.593224441362
 20
2150.034560893133
 30
0.0
 40
33.79825020482697
 41
0.0
 71
     1
 72
     1
  1
\U+90e8\U+54c1\U+540d
  7
ＭＳ ゴシック
 73
     1
 44
0.7828267384257844
1001
ACAD
1000
MTEXTBEGIN
1070
    73
1070
     1
1070
    44
1040
0.7828267384257844
1070
    74
1070
     0
1000
MTEXTEND
  0
MTEXT
  5
363
330
20
100
AcDbEntity
  8
一般
100
AcDbMText
 10
2050.093224441361
 20
2088.60900245539
 30
0.0
 40
35.29155815972223
 41
0.0
 71
     1
 72
     1
  1
\U+30dc\U+30fc\U+30eb
  7
ＭＳ ゴシック
 73
     1
 44
0.7828267384257841
1001
ACAD
1000
MTEXTBEGIN
1070
    73
1070
     1
1070
    44
1040
0.7828267384257841
1070
    74
1070
     0
1000
MTEXTEND
  0
MTEXT
  5
364
330
20
100
AcDbEntity
  8
一般
100
AcDbMText
 10
2300.093224441361
 20
2150.8292736139
 30
0.0
 40
35.29155815972223
 41
0.0
 71
     1
 72
     1
  1
\U+6750\U+8cea
  7
ＭＳ ゴシック
 73
     1
 44
0.7828267384257841
1001
ACAD
1000
MTEXTBEGIN
1070
    73
1070
     1
1070
    44
1040
0.7828267384257841
1070
    74
1070
     0
1000
MTEXTEND
  0
MTEXT
  5
365
330
20
100
AcDbEntity
  8
一般
100
AcDbMText
 10
2525.093224441361
 20
2150.8292736139
 30
0.0
 40
35.29155815972223
 41
0.0
 71
     1
 72
     1
  1
\U+7d20\U+6750\U+65b9\U+6cd5
  7
ＭＳ ゴシック
 73
     1
 44
0.7828267384257841
1001
ACAD
1000
MTEXTBEGIN
1070
    73
1070
     1
1070
    44
1040
0.7828267384257841
1070
    74
1070
     0
1000
MTEXTEND
  0
MTEXT
  5
366
330
20
100
AcDbEntity
  8
一般
100
AcDbMText
 10
2280.093224441362
 20
2088.60900245539
 30
0.0
 40
35.29155815972223
 41
0.0
 71
     1
 72
     1
  1
SUS304
  7
ＭＳ ゴシック
 73
     1
 44
0.7828267384257841
1001
ACAD
1000
MTEXTBEGIN
1070
    73
1070
     1
1070
    44
1040
0.7828267384257841
1070
    74
1070
     0
1000
MTEXTEND
  0
LINE
  5
368
330
20
100
AcDbEntity
  8
一般
100
AcDbLine
 10
2037.09322444136
 20
2037.757999851223
 30
0.0
 11
2037.09322444136
 21
2167.757999851223
 31
0.0
  0
LINE
  5
369
330
20
100
AcDbEntity
  8
一般
100
AcDbLine
 10
2207.09322444136
 20
2037.757999851223
 30
0.0
 11
2207.09322444136
 21
2167.757999851223
 31
0.0
  0
LINE
  5
36A
330
20
100
AcDbEntity
  8
一般
100
AcDbLine
 10
2482.09322444136
 20
2037.757999851223
 30
0.0
 11
2482.09322444136
 21
2167.757999851223
 31
0.0
  0
MTEXT
  5
370
330
20
100
AcDbEntity
  8
一般
100
AcDbMText
 10
2542.593224441362
 20
2088.60900245539
 30
0.0
 40
35.29155815972223
 41
0.0
 71
     1
 72
     1
  1
{\fMS Gothic|b0|i0|c128|p0;0.6\fArial|b0|i0|c0|p32;mm}
  7
ＭＳ ゴシック
 73
     1
 44
0.7828267384257841
1001
ACAD
1000
MTEXTBEGIN
1070
    73
1070
     1
1070
    44
1040
0.7828267384257841
1070
    74
1070
     0
1000
MTEXTEND
  0
LINE
  5
371
330
20
100
AcDbEntity
  8
一般
100
AcDbLine
 10
2037.09322444136
 20
2037.757999851223
 30
0.0
 11
2037.09322444136
 21
2167.757999851223
 31
0.0
  0
LINE
  5
372
330
20
100
AcDbEntity
  8
一般
100
AcDbLine
 10
2207.09322444136
 20
2037.757999851223
 30
0.0
 11
2207.09322444136
 21
2167.757999851223
 31
0.0
  0
LINE
  5
373
330
20
100
AcDbEntity
  8
一般
100
AcDbLine
 10
2482.09322444136
 20
2037.757999851223
 30
0.0
 11
2482.09322444136
 21
2167.757999851223
 31
0.0
  0
ENDSEC
  0
SECTION
  2
OBJECTS
  0
DICTIONARY
  5
C
330
0
100
AcDbDictionary
281
     1
  3
ACAD_COLOR
350
1B
  3
ACAD_GROUP
350
D
  3
ACAD_LAYOUT
350
19
  3
ACAD_MATERIAL
350
1A
  3
ACAD_MLINESTYLE
350
16
  3
ACAD_PLOTSETTINGS
350
18
  3
ACAD_PLOTSTYLENAME
350
E
  3
ACDBHEADERROUNDTRIPXREC
350
3AD
  3
AcDbVariableDictionary
350
38C
  3
DWGPROPS
350
3AC
  0
DICTIONARY
  5
1B
102
{ACAD_REACTORS
330
C
102
}
330
C
100
AcDbDictionary
281
     1
  0
DICTIONARY
  5
D
102
{ACAD_REACTORS
330
C
102
}
330
C
100
AcDbDictionary
281
     1
  0
DICTIONARY
  5
19
102
{ACAD_REACTORS
330
C
102
}
330
C
100
AcDbDictionary
281
     1
  3
Model
350
23
  3
レイアウト1
350
1F
  0
DICTIONARY
  5
1A
102
{ACAD_REACTORS
330
C
102
}
330
C
100
AcDbDictionary
281
     1
  0
DICTIONARY
  5
16
102
{ACAD_REACTORS
330
C
102
}
330
C
100
AcDbDictionary
281
     1
  3
Standard
350
17
  0
DICTIONARY
  5
18
102
{ACAD_REACTORS
330
C
102
}
330
C
100
AcDbDictionary
281
     1
  0
ACDBDICTIONARYWDFLT
  5
E
102
{ACAD_REACTORS
330
C
102
}
330
C
100
AcDbDictionary
281
     1
  3
Normal
350
F
100
AcDbDictionaryWithDefault
340
F
  0
DICTIONARY
  5
3AD
102
{ACAD_REACTORS
330
C
102
}
330
C
100
AcDbDictionary
281
     1
  3
COLORDICT
350
3AF
  3
MATERIALDICT
350
3AE
  0
DICTIONARY
  5
38C
102
{ACAD_REACTORS
330
C
102
}
330
C
100
AcDbDictionary
281
     1
  3
DIMASSOC
350
38D
  3
PROJECTNAME
350
38E
  0
XRECORD
  5
3AC
102
{ACAD_REACTORS
330
C
102
}
330
C
100
AcDbXrecord
280
     1
  1
DWGPROPS COOKIE
  2

  3

  4

  6

  7

  8
山崎　広絵
  9

300
=
301
=
302
=
303
=
304
=
305
=
306
=
307
=
308
=
309
=
 40
0.0109812615740741
 41
2453853.608004201
 42
2453853.618984375
  1

 90
        0
  0
LAYOUT
  5
23
102
{ACAD_XDICTIONARY
360
3B2
102
}
102
{ACAD_REACTORS
330
19
102
}
330
19
100
AcDbPlotSettings
  1

  2
Adobe PDF
  4
A4
  6

 40
3.174999952316284
 41
3.174999952316284
 42
3.175003051757812
 43
3.17498779296875
 44
209.9098358154297
 45
297.0318298339844
 46
0.0
 47
0.0
 48
0.0
 49
0.0
140
0.0
141
0.0
142
1.0
143
1.0
 70
 11952
 72
     0
 73
     1
 74
     0
  7

 75
     0
147
1.0
148
-10068.46689743325
149
-5955.223719802944
100
AcDbLayout
  1
Model
 70
     1
 71
     0
 10
0.0
 20
0.0
 11
12.0
 21
9.0
 12
0.0
 22
0.0
 32
0.0
 14
0.0
 24
0.0
 34
0.0
 15
0.0
 25
0.0
 35
0.0
146
0.0
 13
0.0
 23
0.0
 33
0.0
 16
1.0
 26
0.0
 36
0.0
 17
0.0
 27
1.0
 37
0.0
 76
     0
330
20
  0
LAYOUT
  5
1F
102
{ACAD_XDICTIONARY
360
3B0
102
}
102
{ACAD_REACTORS
330
19
102
}
330
19
100
AcDbPlotSettings
  1

  2
Adobe PDF
  4

  6

 40
0.0
 41
0.0
 42
0.0
 43
0.0
 44
0.0
 45
0.0
 46
0.0
 47
0.0
 48
0.0
 49
0.0
140
0.0
141
0.0
142
1.0
143
1.0
 70
   688
 72
     0
 73
     0
 74
     5
  7

 75
    16
147
1.0
148
0.0
149
0.0
100
AcDbLayout
  1
レイアウト1
 70
     1
 71
     1
 10
0.0
 20
0.0
 11
12.0
 21
9.0
 12
0.0
 22
0.0
 32
0.0
 14
1.000000000000000E+20
 24
1.000000000000000E+20
 34
1.000000000000000E+20
 15
-1.000000000000000E+20
 25
-1.000000000000000E+20
 35
-1.000000000000000E+20
146
0.0
 13
0.0
 23
0.0
 33
0.0
 16
1.0
 26
0.0
 36
0.0
 17
0.0
 27
1.0
 37
0.0
 76
     0
330
1C
  0
MLINESTYLE
  5
17
102
{ACAD_REACTORS
330
16
102
}
330
16
100
AcDbMlineStyle
  2
STANDARD
 70
     0
  3

 62
   256
 51
90.0
 52
90.0
 71
     2
 49
0.5
 62
   256
  6
BYLAYER
 49
-0.5
 62
   256
  6
BYLAYER
  0
ACDBPLACEHOLDER
  5
F
102
{ACAD_REACTORS
330
E
102
}
330
E
  0
XRECORD
  5
3AF
102
{ACAD_REACTORS
330
3AD
102
}
330
3AD
100
AcDbXrecord
280
     1
340
1B
  0
XRECORD
  5
3AE
102
{ACAD_REACTORS
330
3AD
102
}
330
3AD
100
AcDbXrecord
280
     1
340
1A
  0
DICTIONARYVAR
  5
38D
102
{ACAD_REACTORS
330
38C
102
}
330
38C
100
DictionaryVariables
280
     0
  1
1
  0
DICTIONARYVAR
  5
38E
102
{ACAD_REACTORS
330
38C
102
}
330
38C
100
DictionaryVariables
280
     0
  1

  0
DICTIONARY
  5
3B2
330
23
100
AcDbDictionary
280
     1
281
     1
  3
ACAD_XREC_ROUNDTRIP
360
3B3
  0
DICTIONARY
  5
3B0
330
1F
100
AcDbDictionary
280
     1
281
     1
  3
ACAD_XREC_ROUNDTRIP
360
3B1
  0
XRECORD
  5
3B3
102
{ACAD_REACTORS
330
3B2
102
}
330
3B2
100
AcDbXrecord
280
     1
102
SHADEPLOT
 70
     0
102
SHADEPLOTRESLEVEL
 70
     2
102
SHADEPLOTCUSTOMDPI
 70
   300
  0
XRECORD
  5
3B1
102
{ACAD_REACTORS
330
3B0
102
}
330
3B0
100
AcDbXrecord
280
     1
102
SHADEPLOT
 70
     0
102
SHADEPLOTRESLEVEL
 70
     2
102
SHADEPLOTCUSTOMDPI
 70
   300
  0
ENDSEC
  0
EOF
