  0
SECTION
  2
HEADER
  9
$ACADVER
  1
AC1015
  9
$ACADMAINTVER
 70
               6
  9
$DWGCODEPAGE
  3
ANSI_932
  9
$INSBASE
 10
0.0
 20
0.0
 30
0.0
  9
$EXTMIN
 10
2081.4084755386057
 20
1380.3072101219068
 30
0.0
  9
$EXTMAX
 10
2343.3084755386085
 20
1559.80721012191
 30
0.0
  9
$LIMMIN
 10
0.0
 20
0.0
  9
$LIMMAX
 10
0.0
 20
0.0
  9
$ORTHOMODE
 70
               0
  9
$REGENMODE
 70
               1
  9
$FILLMODE
 70
               1
  9
$QTEXTMODE
 70
               0
  9
$MIRRTEXT
 70
               1
  9
$LTSCALE
 40
12.699999999999999
  9
$ATTMODE
 70
               1
  9
$TEXTSIZE
 40
0.2
  9
$TRACEWID
 40
1.0
  9
$TEXTSTYLE
  7
Standard
  9
$CLAYER
  8
0
  9
$CELTYPE
  6
Continuous
  9
$CECOLOR
 62
             256
  9
$CELTSCALE
 40
1.0
  9
$DISPSILH
 70
               0
  9
$DIMSCALE
 40
1.0
  9
$DIMASZ
 40
0.18
  9
$DIMEXO
 40
0.0625
  9
$DIMDLI
 40
0.38
  9
$DIMRND
 40
0.0
  9
$DIMDLE
 40
0.0
  9
$DIMEXE
 40
0.18
  9
$DIMTP
 40
0.0
  9
$DIMTM
 40
0.0
  9
$DIMTXT
 40
0.18
  9
$DIMCEN
 40
0.09
  9
$DIMTSZ
 40
0.0
  9
$DIMTOL
 70
               0
  9
$DIMLIM
 70
               0
  9
$DIMTIH
 70
               1
  9
$DIMTOH
 70
               1
  9
$DIMSE1
 70
               0
  9
$DIMSE2
 70
               0
  9
$DIMTAD
 70
               0
  9
$DIMZIN
 70
               0
  9
$DIMBLK
  1

  9
$DIMASO
 70
               1
  9
$DIMSHO
 70
               1
  9
$DIMPOST
  1

  9
$DIMAPOST
  1

  9
$DIMALT
 70
               0
  9
$DIMALTD
 70
               2
  9
$DIMALTF
 40
25.399999999999999
  9
$DIMLFAC
 40
1.0
  9
$DIMTOFL
 70
               0
  9
$DIMTVP
 40
0.0
  9
$DIMTIX
 70
               0
  9
$DIMSOXD
 70
               0
  9
$DIMSAH
 70
               0
  9
$DIMBLK1
  1

  9
$DIMBLK2
  1

  9
$DIMSTYLE
  2
Standard
  9
$DIMCLRD
 70
               0
  9
$DIMCLRE
 70
               0
  9
$DIMCLRT
 70
               0
  9
$DIMTFAC
 40
1.0
  9
$DIMGAP
 40
0.09
  9
$DIMJUST
 70
               0
  9
$DIMSD1
 70
               0
  9
$DIMSD2
 70
               0
  9
$DIMTOLJ
 70
               1
  9
$DIMTZIN
 70
               0
  9
$DIMALTZ
 70
               0
  9
$DIMALTTZ
 70
               0
  9
$DIMUPT
 70
               0
  9
$DIMDEC
 70
               4
  9
$DIMTDEC
 70
               4
  9
$DIMALTU
 70
               2
  9
$DIMALTTD
 70
               2
  9
$DIMTXSTY
  7
Standard
  9
$DIMAUNIT
 70
               0
  9
$DIMADEC
 70
               0
  9
$DIMALTRND
 40
0.0
  9
$DIMAZIN
 70
               0
  9
$DIMDSEP
 70
               0
  9
$DIMATFIT
 70
               3
  9
$DIMFRAC
 70
               0
  9
$DIMLDRBLK
  1

  9
$DIMLUNIT
 70
               2
  9
$DIMLWD
 70
               0
  9
$DIMLWE
 70
               0
  9
$DIMTMOVE
 70
               0
  9
$LUNITS
 70
               2
  9
$LUPREC
 70
               4
  9
$SKETCHINC
 40
0.1
  9
$FILLETRAD
 40
0.0
  9
$AUNITS
 70
               0
  9
$AUPREC
 70
               0
  9
$MENU
  1
acad
  9
$ELEVATION
 40
0.0
  9
$PELEVATION
 40
0.0
  9
$THICKNESS
 40
0.0
  9
$LIMCHECK
 70
               0
  9
$CHAMFERA
 40
0.0
  9
$CHAMFERB
 40
0.0
  9
$CHAMFERC
 40
0.0
  9
$CHAMFERD
 40
0.0
  9
$SKPOLY
 70
               0
  9
$TDCREATE
 40
2453649.444212963
  9
$TDUCREATE
 40
0.000000000
  9
$TDUPDATE
 40
2453649.444212963
  9
$TDUUPDATE
 40
0.000000000
  9
$TDINDWG
 40
0.0000000000
  9
$TDUSRTIMER
 40
0.0000000000
  9
$USRTIMER
 70
               1
  9
$ANGBASE
 50
0.0
  9
$ANGDIR
 70
               0
  9
$PDMODE
 70
               1
  9
$PDSIZE
 40
-2.0
  9
$PLINEWID
 40
0.0
  9
$SPLFRAME
 70
               0
  9
$SPLINETYPE
 70
               6
  9
$SPLINESEGS
 70
               8
  9
$HANDSEED
  5
2B0
  9
$SURFTAB1
 70
               6
  9
$SURFTAB2
 70
               6
  9
$SURFTYPE
 70
               6
  9
$SURFU
 70
               6
  9
$SURFV
 70
               6
  9
$UCSBASE
  2

  9
$UCSNAME
  2

  9
$UCSORG
 10
0.0
 20
0.0
 30
0.0
  9
$UCSXDIR
 10
1.0
 20
0.0
 30
0.0
  9
$UCSYDIR
 10
0.0
 20
1.0
 30
0.0
  9
$UCSORTHOREF
  2

  9
$UCSORTHOVIEW
 70
               0
  9
$UCSORGTOP
 10
0.0
 20
0.0
 30
0.0
  9
$UCSORGBOTTOM
 10
0.0
 20
0.0
 30
0.0
  9
$UCSORGLEFT
 10
0.0
 20
0.0
 30
0.0
  9
$UCSORGRIGHT
 10
0.0
 20
0.0
 30
0.0
  9
$UCSORGFRONT
 10
0.0
 20
0.0
 30
0.0
  9
$UCSORGBACK
 10
0.0
 20
0.0
 30
0.0
  9
$PUCSBASE
  2

  9
$PUCSNAME
  2

  9
$PUCSORG
 10
0.0
 20
0.0
 30
0.0
  9
$PUCSXDIR
 10
1.0
 20
0.0
 30
0.0
  9
$PUCSYDIR
 10
0.0
 20
1.0
 30
0.0
  9
$PUCSORTHOREF
  2

  9
$PUCSORTHOVIEW
 70
               0
  9
$PUCSORGTOP
 10
0.0
 20
0.0
 30
0.0
  9
$PUCSORGBOTTOM
 10
0.0
 20
0.0
 30
0.0
  9
$PUCSORGLEFT
 10
0.0
 20
0.0
 30
0.0
  9
$PUCSORGRIGHT
 10
0.0
 20
0.0
 30
0.0
  9
$PUCSORGFRONT
 10
0.0
 20
0.0
 30
0.0
  9
$PUCSORGBACK
 10
0.0
 20
0.0
 30
0.0
  9
$USERI1
 70
               0
  9
$USERI2
 70
               0
  9
$USERI3
 70
               0
  9
$USERI4
 70
               0
  9
$USERI5
 70
               0
  9
$USERR1
 40
0.0
  9
$USERR2
 40
0.0
  9
$USERR3
 40
0.0
  9
$USERR4
 40
0.0
  9
$USERR5
 40
0.0
  9
$WORLDVIEW
 70
               1
  9
$SHADEDGE
 70
               3
  9
$SHADEDIF
 70
              70
  9
$TILEMODE
 70
               1
  9
$MAXACTVP
 70
              16
  9
$PINSBASE
 10
0.0
 20
0.0
 30
0.0
  9
$PLIMCHECK
 70
               0
  9
$PEXTMIN
 10
1.0000000000000000E+20
 20
1.0000000000000000E+20
 30
1.0000000000000000E+20
  9
$PEXTMAX
 10
-1.0000000000000000E+20
 20
-1.0000000000000000E+20
 30
-1.0000000000000000E+20
  9
$PLIMMIN
 10
0.0
 20
0.0
  9
$PLIMMAX
 10
12.0
 20
9.0
  9
$UNITMODE
 70
               0
  9
$VISRETAIN
 70
               0
  9
$PLINEGEN
 70
               1
  9
$PSLTSCALE
 70
               0
  9
$TREEDEPTH
 70
            3020
  9
$CMLSTYLE
  2
Standard
  9
$CMLJUST
 70
               0
  9
$CMLSCALE
 40
1.0
  9
$PROXYGRAPHICS
 70
               0
  9
$MEASUREMENT
 70
               1
  9
$CELWEIGHT
370
               0
  9
$ENDCAPS
280
               0
  9
$JOINSTYLE
280
               0
  9
$LWDISPLAY
290
               1
  9
$INSUNITS
 70
               4
  9
$HYPERLINKBASE
  1

  9
$STYLESHEET
  1

  9
$XEDIT
290
               1
  9
$CEPSNTYPE
380
               0
  9
$PSTYLEMODE
290
               1
  9
$FINGERPRINTGUID
  2

  9
$VERSIONGUID
  2

  9
$EXTNAMES
290
               1
  9
$PSVPSCALE
 40
0.0
  0
ENDSEC
  0
SECTION
  2
CLASSES
  0
CLASS
  1
LWPOLYLINE
  2
AcDbPolyline
  3
AutoCAD 2000
 90
    32768
280
               0
281
               1
  0
CLASS
  1
IMAGE
  2
AcDbRasterImage
  3
ISM
 90
    32895
280
               0
281
               1
  0
CLASS
  1
OLE2FRAME
  2
AcDbOle2Frame
  3
AutoCAD 2000
 90
    32768
280
               0
281
               1
  0
CLASS
  1
HATCH
  2
AcDbHatch
  3
AutoCAD 2000
 90
    32768
280
               0
281
               1
  0
CLASS
  1
DICTIONARYVAR
  2
AcDbDictionaryVar
  3
AutoCAD 2000
 90
    32768
280
               0
281
               0
  0
CLASS
  1
RASTERVARIABLES
  2
AcDbRasterVariables
  3
ISM
 90
    32768
280
               0
281
               0
  0
CLASS
  1
IMAGEDEF
  2
AcDbRasterImageDef
  3
ISM
 90
    32768
280
               0
281
               0
  0
CLASS
  1
IMAGEDEF_REACTOR
  2
AcDbRasterImageDefReactor
  3
ISM
 90
    32769
280
               0
281
               0
  0
CLASS
  1
IDBUFFER
  2
AcDbIdBuffer
  3
AutoCAD 2000
 90
    32768
280
               0
281
               0
  0
CLASS
  1
SPATIAL_FILTER
  2
AcDbSpatialFilter
  3
AutoCAD 2000
 90
    32768
280
               0
281
               0
  0
CLASS
  1
XRECORD
  2
AcDbXrecord
  3
AutoCAD 2000
 90
    32768
280
               0
281
               0
  0
CLASS
  1
SORTENTSTABLE
  2
AcDbSortentsTable
  3
AutoCAD 2000
 90
    32768
280
               0
281
               0
  0
CLASS
  1
LAYER_INDEX
  2
AcDbLayerIndex
  3
AutoCAD 2000
 90
    32768
280
               0
281
               0
  0
CLASS
  1
SPATIAL_INDEX
  2
AcDbSpatialIndex
  3
AutoCAD 2000
 90
    32768
280
               0
281
               0
  0
CLASS
  1
OBJECT_PTR
  2
CAseDLPNTableRecord
  3
"ASE-LPNTableRecord"
 90
    32769
280
               0
281
               0
  0
CLASS
  1
LAYOUT
  2
AcDbLayout
  3
AutoCAD 2000
 90
        0
280
               0
281
               0
  0
CLASS
  1
PLOTSETTINGS
  2
AcDbPlotSettings
  3
AutoCAD 2000
 90
    32768
280
               0
281
               0
  0
CLASS
  1
ACDBDICTIONARYWDFLT
  2
AcDbDictionaryWithDefault
  3
AutoCAD 2000
 90
        0
280
               0
281
               0
  0
CLASS
  1
ACDBPLACEHOLDER
  2
AcDbPlaceHolder
  3
AutoCAD 2000
 90
        0
280
               0
281
               0
  0
CLASS
  1
VBA_PROJECT
  2
AcDbVbaProject
  3
acadvba
 90
    32768
280
               0
281
               0
  0
CLASS
  1
WIPEOUT
  2
AcDbWipeout
  3
WipeOut|AutoCAD Express Tool|expresstools@autodesk.com
 90
    32895
280
               0
281
               1
  0
CLASS
  1
WIPEOUTVARIABLES
  2
AcDbWipeoutVariables
  3
WipeOut|AutoCAD Express Tool|expresstools@autodesk.com
 90
        0
280
               0
281
               0
  0
CLASS
  1
RTEXT
  2
RText
  3
RText|AutoCAD Express Tool|expresstools@autodesk.com
 90
    32768
280
               0
281
               1
  0
CLASS
  1
ARCALIGNEDTEXT
  2
AcDbArcAlignedText
  3
ATEXT|AutoCAD Express Tool|expresstools@autodesk.com
 90
    32768
280
               0
281
               1
  0
ENDSEC
  0
SECTION
  2
TABLES
  0
TABLE
  2
VPORT
  5
7
100
AcDbSymbolTable
 70
               1
  0
VPORT
  5
15
100
AcDbSymbolTableRecord
100
AcDbViewportTableRecord
  2
*ACTIVE
 70
               0
 10
0.0
 20
0.0
 11
1.0
 21
1.0
 12
2212.3584755386073
 22
1470.0572101219084
 13
0.0
 23
0.0
 14
1.0
 24
1.0
 15
0.0
 25
0.0
 16
0.0
 26
0.0
 36
1.0
 17
0.0
 27
0.0
 37
0.0
 40
179.50000000000318
 41
0.688564
 42
50.0
 43
0.0
 44
0.0
 50
0.0
 51
0.0
 71
               0
 72
             100
 73
               1
 74
               1
 75
               0
 76
               0
 77
               0
 78
               0
281
               0
 65
               0
110
0.0
120
0.0
130
0.0
111
1.0
121
0.0
131
0.0
112
0.0
122
1.0
132
0.0
345
0
346
0
 79
               0
146
0.0
  0
ENDTAB
  0
TABLE
  2
LTYPE
  5
4
100
AcDbSymbolTable
 70
              13
  0
LTYPE
  5
11
100
AcDbSymbolTableRecord
100
AcDbLinetypeTableRecord
  2
ByBlock
 70
              64
  3

 72
              65
 73
               0
 40
0.0
  0
LTYPE
  5
12
100
AcDbSymbolTableRecord
100
AcDbLinetypeTableRecord
  2
ByLayer
 70
              64
  3

 72
              65
 73
               0
 40
0.0
  0
LTYPE
  5
13
100
AcDbSymbolTableRecord
100
AcDbLinetypeTableRecord
  2
Continuous
 70
              64
  3
Solid line
 72
              65
 73
               0
 40
0.0
  0
LTYPE
  5
26
100
AcDbSymbolTableRecord
100
AcDbLinetypeTableRecord
  2
STYLE_01
 70
               0
  3

 72
              65
 73
               2
 40
0.8858267716535434
 49
0.5905511811023623
 74
               0
 49
-0.2952755905511811
 74
               0
  0
LTYPE
  5
27
100
AcDbSymbolTableRecord
100
AcDbLinetypeTableRecord
  2
STYLE_02
 70
               0
  3

 72
              65
 73
               2
 40
0.4429133858267717
 49
0.2952755905511811
 74
               0
 49
-0.1476377952755906
 74
               0
  0
LTYPE
  5
28
100
AcDbSymbolTableRecord
100
AcDbLinetypeTableRecord
  2
STYLE_03
 70
               0
  3

 72
              65
 73
               2
 40
0.2952755905511811
 49
0.0002
 74
               0
 49
-0.2950755905511812
 74
               0
  0
LTYPE
  5
29
100
AcDbSymbolTableRecord
100
AcDbLinetypeTableRecord
  2
STYLE_04
 70
               0
  3

 72
              65
 73
               4
 40
1.1811023622047245
 49
0.5905511811023623
 74
               0
 49
-0.2952755905511811
 74
               0
 49
0.0002
 74
               0
 49
-0.2950755905511812
 74
               0
  0
LTYPE
  5
2A
100
AcDbSymbolTableRecord
100
AcDbLinetypeTableRecord
  2
STYLE_05
 70
               0
  3

 72
              65
 73
               6
 40
1.4763779527559056
 49
0.5905511811023623
 74
               0
 49
-0.2952755905511811
 74
               0
 49
0.0002
 74
               0
 49
-0.2950755905511812
 74
               0
 49
0.0002
 74
               0
 49
-0.295075590551181
 74
               0
  0
LTYPE
  5
2B
100
AcDbSymbolTableRecord
100
AcDbLinetypeTableRecord
  2
STYLE_06
 70
               0
  3

 72
              65
 73
               4
 40
0.416656
 49
0.25
 74
               0
 49
-0.083312
 74
               0
 49
0.027772
 74
               0
 49
-0.055572
 74
               0
  0
LTYPE
  5
2C
100
AcDbSymbolTableRecord
100
AcDbLinetypeTableRecord
  2
STYLE_07
 70
               0
  3

 72
              65
 73
               6
 40
0.75
 49
0.25
 74
               0
 49
-0.083312
 74
               0
 49
0.2500000000000001
 74
               0
 49
-0.083344
 74
               0
 49
0.027772
 74
               0
 49
-0.055572
 74
               0
  0
LTYPE
  5
2D
100
AcDbSymbolTableRecord
100
AcDbLinetypeTableRecord
  2
STYLE_08
 70
               0
  3

 72
              65
 73
               6
 40
0.5
 49
0.25
 74
               0
 49
-0.083312
 74
               0
 49
0.027772
 74
               0
 49
-0.055572
 74
               0
 49
0.027772
 74
               0
 49
-0.055572
 74
               0
  0
LTYPE
  5
2E
100
AcDbSymbolTableRecord
100
AcDbLinetypeTableRecord
  2
STYLE_09
 70
               0
  3

 72
              65
 73
               4
 40
2.0
 49
1.5
 74
               0
 49
-0.1111139999999999
 74
               0
 49
0.2777720000000001
 74
               0
 49
-0.1111139999999999
 74
               0
  0
LTYPE
  5
2F
100
AcDbSymbolTableRecord
100
AcDbLinetypeTableRecord
  2
STYLE_10
 70
               0
  3

 72
              65
 73
               6
 40
2.375
 49
1.5
 74
               0
 49
-0.1111139999999999
 74
               0
 49
0.2777720000000001
 74
               0
 49
-0.1111139999999999
 74
               0
 49
0.25
 74
               0
 49
-0.125
 74
               0
  0
ENDTAB
  0
TABLE
  2
LAYER
  5
2
100
AcDbSymbolTable
 70
               8
  0
LAYER
  5
14
100
AcDbSymbolTableRecord
100
AcDbLayerTableRecord
  2
0
 70
               0
 62
               7
  6
Continuous
290
               1
370
              15
390
1D
  0
LAYER
  5
30
100
AcDbSymbolTableRecord
100
AcDbLayerTableRecord
  2
Defpoints
 70
               0
 62
               7
  6
Continuous
290
               0
370
              -3
390
1D
  0
LAYER
  5
31
100
AcDbSymbolTableRecord
100
AcDbLayerTableRecord
  2
一般
 70
               0
 62
               7
  6
Continuous
290
               1
370
               5
390
1D
  0
LAYER
  5
32
100
AcDbSymbolTableRecord
100
AcDbLayerTableRecord
  2
寸法
 70
               0
 62
               7
  6
Continuous
290
               1
370
               5
390
1D
  0
LAYER
  5
33
100
AcDbSymbolTableRecord
100
AcDbLayerTableRecord
  2
1
 70
               0
 62
               7
  6
Continuous
290
               1
370
              15
390
1D
  0
LAYER
  5
34
100
AcDbSymbolTableRecord
100
AcDbLayerTableRecord
  2
17
 70
               0
 62
               7
  6
Continuous
290
               1
370
              15
390
1D
  0
LAYER
  5
35
100
AcDbSymbolTableRecord
100
AcDbLayerTableRecord
  2
33
 70
               0
 62
               7
  6
Continuous
290
               1
370
              15
390
1D
  0
LAYER
  5
36
100
AcDbSymbolTableRecord
100
AcDbLayerTableRecord
  2
実形
 70
               0
 62
               7
  6
Continuous
290
               1
370
              18
390
1D
  0
ENDTAB
  0
TABLE
  2
STYLE
  5
3
100
AcDbSymbolTable
 70
               3
  0
STYLE
  5
17
100
AcDbSymbolTableRecord
100
AcDbTextStyleTableRecord
  2
Standard
 70
               0
 40
0.0
 41
1.0
 50
0.0
 71
               0
 42
0.0
  3
txt
  4
BIGFONT.SHX
  0
STYLE
  5
24
100
AcDbSymbolTableRecord
100
AcDbTextStyleTableRecord
  2
Arial
 70
               0
 40
0.0
 41
1.0
 50
0.0
 71
               0
 42
0.0
  3
Arial
  4

1001
ACAD
1000
Arial
1071
        0
  0
STYLE
  5
25
100
AcDbSymbolTableRecord
100
AcDbTextStyleTableRecord
  2
ＭＳ ゴシック
 70
               0
 40
0.0
 41
1.0
 50
0.0
 71
               0
 42
0.0
  3
ＭＳ ゴシック
  4

1001
ACAD
1000
ＭＳ ゴシック
1071
        0
  0
ENDTAB
  0
TABLE
  2
VIEW
  5
5
100
AcDbSymbolTable
 70
               0
  0
ENDTAB
  0
TABLE
  2
UCS
  5
6
100
AcDbSymbolTable
 70
               0
  0
ENDTAB
  0
TABLE
  2
APPID
  5
8
100
AcDbSymbolTable
 70
               1
  0
APPID
  5
16
100
AcDbSymbolTableRecord
100
AcDbRegAppTableRecord
  2
ACAD
 70
               0
  0
ENDTAB
  0
TABLE
  2
DIMSTYLE
  5
9
100
AcDbSymbolTable
 70
               1
100
AcDbDimStyleTable
 71
               0
  0
DIMSTYLE
105
18
100
AcDbSymbolTableRecord
100
AcDbDimStyleTableRecord
  2
Standard
 70
               0
  3

  4

 40
1.0
 41
0.18
 42
0.0625
 43
0.38
 44
0.18
 45
0.0
 46
0.0
 47
0.0
 48
0.0
 71
               0
 72
               0
 73
               1
 74
               1
 75
               0
 76
               0
 77
               0
 78
               0
 79
               0
140
0.18
141
0.09
142
0.0
143
25.399999999999999
144
1.0
145
0.0
146
1.0
147
0.09
148
0.0
170
               0
171
               2
172
               0
173
               0
174
               0
175
               0
176
               0
177
               0
178
               0
179
               0
271
               4
272
               4
273
               2
274
               2
275
               0
276
               0
277
               2
278
              46
279
               0
280
               0
281
               0
282
               0
283
               1
284
               0
285
               0
286
               0
288
               0
340
17
341
0
342
0
343
0
344
0
371
              -2
372
              -2
  0
ENDTAB
  0
TABLE
  2
BLOCK_RECORD
  5
1
100
AcDbSymbolTable
 70
               0
  0
BLOCK_RECORD
  5
A
100
AcDbSymbolTableRecord
100
AcDbBlockTableRecord
  2
*MODEL_SPACE
340
20
  0
BLOCK_RECORD
  5
B
100
AcDbSymbolTableRecord
100
AcDbBlockTableRecord
  2
*PAPER_SPACE
340
21
  0
ENDTAB
  0
ENDSEC
  0
SECTION
  2
BLOCKS
  0
BLOCK
  5
D
100
AcDbEntity
  8
0
100
AcDbBlockBegin
  2
*MODEL_SPACE
 70
               0
 10
0.0
 20
0.0
 30
0.0
  3
*MODEL_SPACE
  1

  0
ENDBLK
  5
E
100
AcDbEntity
  8
0
100
AcDbBlockEnd
  0
BLOCK
  5
F
100
AcDbEntity
 67
               1
  8
0
100
AcDbBlockBegin
  2
*PAPER_SPACE
 70
               0
 10
0.0
 20
0.0
 30
0.0
  3
*PAPER_SPACE
  1

  0
ENDBLK
  5
10
100
AcDbEntity
 67
               1
  8
0
100
AcDbBlockEnd
  0
ENDSEC
  0
SECTION
  2
ENTITIES
  0
LINE
  5
37
100
AcDbEntity
  8
33
370
              15
  6
Continuous
 62
               7
100
AcDbLine
 10
2241.1840626953413
 20
1479.1889414424218
 30
0.0
 11
2241.1840626953413
 21
1480.1889414424218
 31
0.0
  0
LINE
  5
38
100
AcDbEntity
  8
33
370
              15
  6
Continuous
 62
               7
100
AcDbLine
 10
2241.6840626953413
 20
1480.6889414424218
 30
0.0
 11
2256.7439459731877
 21
1480.6889414424218
 31
0.0
  0
LINE
  5
39
100
AcDbEntity
  8
33
370
              15
  6
Continuous
 62
               7
100
AcDbLine
 10
2260.1840626953413
 20
1491.6389414424218
 30
0.0
 11
2260.1840626953413
 21
1509.7389414424213
 31
0.0
  0
LINE
  5
3A
100
AcDbEntity
  8
33
370
              15
  6
Continuous
 62
               7
100
AcDbLine
 10
2256.7439459731877
 20
1520.6889414424218
 30
0.0
 11
2241.6840626953413
 21
1520.6889414424218
 31
0.0
  0
LINE
  5
3B
100
AcDbEntity
  8
33
370
              15
  6
Continuous
 62
               7
100
AcDbLine
 10
2239.6925528101369
 20
1500.6889414424218
 30
0.0
 11
2262.7062645448309
 21
1500.6889414424218
 31
0.0
  0
LINE
  5
3C
100
AcDbEntity
  8
33
370
              15
  6
Continuous
 62
               7
100
AcDbLine
 10
2260.1840626953413
 20
1491.6389414424218
 30
0.0
 11
2260.8840626953411
 21
1491.6389414424218
 31
0.0
  0
LINE
  5
3D
100
AcDbEntity
  8
33
370
              15
  6
Continuous
 62
               7
100
AcDbLine
 10
2260.8840626953411
 20
1491.6389414424218
 30
0.0
 11
2260.8840626953411
 21
1509.7389414424217
 31
0.0
  0
LINE
  5
3E
100
AcDbEntity
  8
33
370
              15
  6
Continuous
 62
               7
100
AcDbLine
 10
2260.8840626953411
 20
1509.7389414424217
 30
0.0
 11
2260.1840626953413
 21
1509.7389414424217
 31
0.0
  0
LINE
  5
3F
100
AcDbEntity
  8
33
370
              15
  6
Continuous
 62
               7
100
AcDbLine
 10
2259.7394524301299
 20
1483.5248041023153
 30
0.0
 11
2260.1840626953413
 21
1491.6389414424216
 31
0.0
  0
LINE
  5
40
100
AcDbEntity
  8
33
370
              15
  6
Continuous
 62
               7
100
AcDbLine
 10
2259.7394524301299
 20
1517.853078782528
 30
0.0
 11
2260.1840626953413
 21
1509.7389414424217
 31
0.0
  0
ARC
  5
41
100
AcDbEntity
  8
33
370
              15
  6
Continuous
 62
               7
100
AcDbCircle
 10
2256.7439459731877
 20
1517.6889414424218
 30
0.0
 40
2.9999999999999956
100
AcDbArc
 50
3.1363583683327891
 51
90.0
  0
ARC
  5
42
100
AcDbEntity
  8
33
370
              15
  6
Continuous
 62
               7
100
AcDbCircle
 10
2256.7439459731877
 20
1483.6889414424218
 30
0.0
 40
3.0
100
AcDbArc
 50
270.0
 51
356.86364163166701
  0
LINE
  5
43
100
AcDbEntity
  8
33
370
              15
  6
Continuous
 62
               7
100
AcDbLine
 10
2241.1840626953413
 20
1521.1889414424218
 30
0.0
 11
2241.1840626953413
 21
1522.1889414424218
 31
0.0
  0
ARC
  5
44
100
AcDbEntity
  8
33
370
              15
  6
Continuous
 62
               7
100
AcDbCircle
 10
2241.6840626953413
 20
1480.1889414424218
 30
0.0
 40
0.5
100
AcDbArc
 50
90.0
 51
180.0
  0
ARC
  5
45
100
AcDbEntity
  8
33
370
              15
  6
Continuous
 62
               7
100
AcDbCircle
 10
2241.6840626953413
 20
1521.1889414424218
 30
0.0
 40
0.5
100
AcDbArc
 50
180.0
 51
270.0
  0
LINE
  5
46
100
AcDbEntity
  8
33
370
              15
  6
Continuous
 62
               7
100
AcDbLine
 10
2241.1840626953413
 20
1480.1889414424218
 30
0.0
 11
2241.1840626953413
 21
1522.0110874883401
 31
0.0
  0
LINE
  5
47
100
AcDbEntity
  8
33
370
              15
  6
Continuous
 62
               7
100
AcDbLine
 10
2241.2840626953412
 20
1479.1889414424218
 30
0.0
 11
2241.2840626953412
 21
1480.1889414424218
 31
0.0
  0
ARC
  5
48
100
AcDbEntity
  8
33
370
              15
  6
Continuous
 62
               7
100
AcDbCircle
 10
2241.6840626953413
 20
1480.1889414424218
 30
0.0
 40
0.4
100
AcDbArc
 50
90.0
 51
180.0
  0
LINE
  5
49
100
AcDbEntity
  8
33
370
              15
  6
Continuous
 62
               7
100
AcDbLine
 10
2241.6840626953413
 20
1480.5889414424216
 30
0.0
 11
2256.7439459731877
 21
1480.5889414424216
 31
0.0
  0
ARC
  5
4A
100
AcDbEntity
  8
33
370
              15
  6
Continuous
 62
               7
100
AcDbCircle
 10
2256.7439459731877
 20
1483.6889414424218
 30
0.0
 40
3.1000000000000001
100
AcDbArc
 50
270.0
 51
356.86364163166803
  0
LINE
  5
4B
100
AcDbEntity
  8
33
370
              15
  6
Continuous
 62
               7
100
AcDbLine
 10
2259.8393026453614
 20
1483.5193328576449
 30
0.0
 11
2260.2787332527464
 21
1491.5389414424217
 31
0.0
  0
LINE
  5
4C
100
AcDbEntity
  8
33
370
              15
  6
Continuous
 62
               7
100
AcDbLine
 10
2260.2787332527464
 20
1491.5389414424217
 30
0.0
 11
2260.984062695341
 21
1491.5389414424217
 31
0.0
  0
LINE
  5
4D
100
AcDbEntity
  8
33
370
              15
  6
Continuous
 62
               7
100
AcDbLine
 10
2260.984062695341
 20
1491.5389414424217
 30
0.0
 11
2260.984062695341
 21
1509.8389414424216
 31
0.0
  0
LINE
  5
4E
100
AcDbEntity
  8
33
370
              15
  6
Continuous
 62
               7
100
AcDbLine
 10
2260.984062695341
 20
1509.8389414424216
 30
0.0
 11
2260.2787332527464
 21
1509.8389414424216
 31
0.0
  0
LINE
  5
4F
100
AcDbEntity
  8
33
370
              15
  6
Continuous
 62
               7
100
AcDbLine
 10
2260.2787332527464
 20
1509.8389414424216
 30
0.0
 11
2259.8393026453614
 21
1517.8585500271984
 31
0.0
  0
ARC
  5
50
100
AcDbEntity
  8
33
370
              15
  6
Continuous
 62
               7
100
AcDbCircle
 10
2256.7439459731877
 20
1517.6889414424218
 30
0.0
 40
3.100000000000001
100
AcDbArc
 50
3.1363583683330645
 51
90.0
  0
LINE
  5
51
100
AcDbEntity
  8
33
370
              15
  6
Continuous
 62
               7
100
AcDbLine
 10
2256.7439459731877
 20
1520.7889414424217
 30
0.0
 11
2241.6840626953413
 21
1520.7889414424217
 31
0.0
  0
ARC
  5
52
100
AcDbEntity
  8
33
370
              15
  6
Continuous
 62
               7
100
AcDbCircle
 10
2241.6840626953413
 20
1521.1889414424218
 30
0.0
 40
0.4
100
AcDbArc
 50
180.0
 51
270.0
  0
LINE
  5
53
100
AcDbEntity
  8
33
370
              15
  6
Continuous
 62
               7
100
AcDbLine
 10
2241.2840626953412
 20
1521.1889414424218
 30
0.0
 11
2241.2840626953412
 21
1522.0110874883401
 31
0.0
  0
LINE
  5
54
100
AcDbEntity
  8
33
370
              15
  6
Continuous
 62
               7
100
AcDbLine
 10
2236.4026931162598
 20
1505.4703110215034
 30
0.0
 11
2255.4026931162598
 21
1505.4703110215034
 31
0.0
  0
LINE
  5
55
100
AcDbEntity
  8
33
370
              15
  6
Continuous
 62
               7
100
AcDbLine
 10
2236.4026931162598
 20
1505.4703110215034
 30
0.0
 11
2238.3345447688375
 21
1505.9879491117085
 31
0.0
  0
LINE
  5
56
100
AcDbEntity
  8
33
370
              15
  6
Continuous
 62
               7
100
AcDbLine
 10
2236.4026931162598
 20
1505.4703110215034
 30
0.0
 11
2238.3345447688375
 21
1504.9526729312984
 31
0.0
  0
LINE
  5
57
100
AcDbEntity
  8
33
370
              15
  6
Continuous
 62
               7
100
AcDbLine
 10
2255.4026931162598
 20
1505.4703110215034
 30
0.0
 11
2253.4708414636816
 21
1504.9526729312984
 31
0.0
  0
LINE
  5
58
100
AcDbEntity
  8
33
370
              15
  6
Continuous
 62
               7
100
AcDbLine
 10
2255.4026931162598
 20
1505.4703110215034
 30
0.0
 11
2253.4708414636816
 21
1505.9879491117085
 31
0.0
  0
LINE
  5
59
100
AcDbEntity
  8
33
370
              15
  6
Continuous
 62
               7
100
AcDbLine
 10
2240.8305093047479
 20
1501.0424948330149
 30
0.0
 11
2236.0491397256665
 21
1505.8238644120966
 31
0.0
  0
LINE
  5
5A
100
AcDbEntity
  8
33
370
              15
  6
Continuous
 62
               7
100
AcDbLine
 10
2259.8305093047479
 20
1501.0424948330149
 30
0.0
 11
2255.0491397256665
 21
1505.8238644120966
 31
0.0
  0
MTEXT
  5
5B
100
AcDbEntity
  8
33
 62
               7
100
AcDbMText
 10
2245.9026848948488
 20
1507.9703135127343
 30
0.0
 40
2.0
 41
0.0
 71
               2
 72
               1
  1
190±2_
  7
ＭＳ ゴシック
 11
1.0
 21
0.0000000001745329
 31
0.0
 73
               1
 44
0.7828267384257843
  0
LINE
  5
5C
100
AcDbEntity
  8
33
370
              15
  6
Continuous
 62
               7
100
AcDbLine
 10
2255.4026931162598
 20
1505.4703110215034
 30
0.0
 11
2256.1026931162596
 21
1505.4703110215034
 31
0.0
  0
LINE
  5
5D
100
AcDbEntity
  8
33
370
              15
  6
Continuous
 62
               7
100
AcDbLine
 10
2260.5305093047477
 20
1501.0424948330149
 30
0.0
 11
2255.7491397256663
 21
1505.8238644120966
 31
0.0
  0
LINE
  5
5E
100
AcDbEntity
  8
33
370
              15
  6
Continuous
 62
               7
100
AcDbLine
 10
2256.1026931162596
 20
1505.4703110215034
 30
0.0
 11
2258.6026931162596
 21
1505.4703110215034
 31
0.0
  0
LINE
  5
5F
100
AcDbEntity
  8
33
370
              15
  6
Continuous
 62
               7
100
AcDbLine
 10
2256.1026931162596
 20
1505.4703110215034
 30
0.0
 11
2258.0345447688378
 21
1505.9879491117085
 31
0.0
  0
LINE
  5
60
100
AcDbEntity
  8
33
370
              15
  6
Continuous
 62
               7
100
AcDbLine
 10
2256.1026931162596
 20
1505.4703110215034
 30
0.0
 11
2258.0345447688378
 21
1504.9526729312984
 31
0.0
  0
MTEXT
  5
61
100
AcDbEntity
  8
33
 62
               7
100
AcDbMText
 10
2257.3526848948486
 20
1507.9703135127343
 30
0.0
 40
2.0
 41
0.0
 71
               2
 72
               1
  1
7{\H0.932x;\l±1}
  7
ＭＳ ゴシック
 11
1.0
 21
0.0000000001745329
 31
0.0
 73
               1
 44
0.7828267384257843
  0
LINE
  5
62
100
AcDbEntity
  8
33
370
              15
  6
Continuous
 62
               7
100
AcDbLine
 10
2259.7673217119668
 20
1477.2377752616637
 30
0.0
 11
2260.2787332527464
 21
1477.2377752616637
 31
0.0
  0
LINE
  5
63
100
AcDbEntity
  8
33
370
              15
  6
Continuous
 62
               7
100
AcDbLine
 10
2259.7673217119668
 20
1482.5039603170158
 30
0.0
 11
2259.7673217119668
 21
1476.7377752616637
 31
0.0
  0
LINE
  5
64
100
AcDbEntity
  8
33
370
              15
  6
Continuous
 62
               7
100
AcDbLine
 10
2260.2787332527464
 20
1491.0389414424217
 30
0.0
 11
2260.2787332527464
 21
1476.7377752616637
 31
0.0
  0
LINE
  5
65
100
AcDbEntity
  8
33
370
              15
  6
Continuous
 62
               7
100
AcDbLine
 10
2256.7673217119668
 20
1477.2377752616637
 30
0.0
 11
2259.7673217119668
 21
1477.2377752616637
 31
0.0
  0
LINE
  5
66
100
AcDbEntity
  8
33
370
              15
  6
Continuous
 62
               7
100
AcDbLine
 10
2259.7673217119668
 20
1477.2377752616637
 30
0.0
 11
2257.8354700593886
 21
1476.7201371714586
 31
0.0
  0
LINE
  5
67
100
AcDbEntity
  8
33
370
              15
  6
Continuous
 62
               7
100
AcDbLine
 10
2259.7673217119668
 20
1477.2377752616637
 30
0.0
 11
2257.8354700593886
 21
1477.7554133518688
 31
0.0
  0
LINE
  5
68
100
AcDbEntity
  8
33
370
              15
  6
Continuous
 62
               7
100
AcDbLine
 10
2260.2787332527464
 20
1477.2377752616637
 30
0.0
 11
2260.2903371805819
 21
1477.2377752616637
 31
0.0
  0
LINE
  5
69
100
AcDbEntity
  8
33
370
              15
  6
Continuous
 62
               7
100
AcDbLine
 10
2260.2787332527464
 20
1477.2377752616637
 30
0.0
 11
2262.2105849053246
 21
1477.7554133518688
 31
0.0
  0
LINE
  5
6A
100
AcDbEntity
  8
33
370
              15
  6
Continuous
 62
               7
100
AcDbLine
 10
2260.2787332527464
 20
1477.2377752616637
 30
0.0
 11
2262.2105849053246
 21
1476.7201371714586
 31
0.0
  0
MTEXT
  5
6B
100
AcDbEntity
  8
33
 62
               7
100
AcDbMText
 10
2261.4253045237547
 20
1479.9187571162499
 30
0.0
 40
2.0
 41
0.0
 71
               2
 72
               1
  1
6±2_
  7
ＭＳ ゴシック
 11
1.0
 21
0.0000000001745329
 31
0.0
 73
               1
 44
0.7828267384257843
  0
LINE
  5
6C
100
AcDbEntity
  8
33
370
              15
  6
Continuous
 62
               7
100
AcDbLine
 10
2241.3158375622406
 20
1480.5271872869685
 30
0.0
 11
2243.6130480241268
 21
1478.4170057079984
 31
0.0
  0
LINE
  5
6D
100
AcDbEntity
  8
33
370
              15
  6
Continuous
 62
               7
100
AcDbLine
 10
2241.3158375622406
 20
1480.5271872869685
 30
0.0
 11
2243.0887280920247
 21
1479.6015204087648
 31
0.0
  0
LINE
  5
6E
100
AcDbEntity
  8
33
370
              15
  6
Continuous
 62
               7
100
AcDbLine
 10
2241.3158375622406
 20
1480.5271872869685
 30
0.0
 11
2242.3883723600607
 21
1478.8390909901104
 31
0.0
  0
MTEXT
  5
6F
100
AcDbEntity
  8
33
 62
               7
100
AcDbMText
 10
2245.4099651287256
 20
1479.8454296393666
 30
0.0
 40
2.0
 41
0.0
 71
               2
 72
               1
  1
R5
  7
ＭＳ ゴシック
 11
0.7364502752301786
 21
-0.676491679263976
 31
0.0
 73
               1
 44
0.7828267384257843
  0
LINE
  5
70
100
AcDbEntity
  8
33
370
              15
  6
Continuous
 62
               7
100
AcDbLine
 10
2241.1840626953413
 20
1479.1889414424218
 30
0.0
 11
2241.2840626953412
 21
1479.1889414424218
 31
0.0
  0
LINE
  5
71
100
AcDbEntity
  8
33
370
              15
  6
Continuous
 62
               7
100
AcDbLine
 10
2241.1840626953413
 20
1522.1889414424218
 30
0.0
 11
2241.2840627318351
 21
1522.1887382622197
 31
0.0
  0
LINE
  5
72
100
AcDbEntity
  8
33
370
              15
  6
Continuous
 62
               7
100
AcDbLine
 10
2241.2840626953412
 20
1522.0110874883401
 30
0.0
 11
2241.2840626953412
 21
1522.18872030084
 31
0.0
  0
LINE
  5
73
100
AcDbEntity
  8
33
370
              15
  6
Continuous
 62
               7
100
AcDbLine
 10
2258.8587070465574
 20
1481.5610820479692
 30
0.0
 11
2255.7750982496304
 21
1484.6637899755849
 31
0.0
  0
LINE
  5
74
100
AcDbEntity
  8
33
370
              15
  6
Continuous
 62
               7
100
AcDbLine
 10
2258.8587070465574
 20
1481.5610820479692
 30
0.0
 11
2257.1297517973685
 21
1482.5664246494252
 31
0.0
  0
LINE
  5
75
100
AcDbEntity
  8
33
370
              15
  6
Continuous
 62
               7
100
AcDbLine
 10
2258.8587070465574
 20
1481.5610820479692
 30
0.0
 11
2257.8640591794815
 21
1483.2962119049312
 31
0.0
  0
MTEXT
  5
76
100
AcDbEntity
  8
33
 62
               7
100
AcDbMText
 10
2257.6393972301357
 20
1486.2689606252984
 30
0.0
 40
2.0
 41
0.0
 71
               2
 72
               1
  1
R30
  7
ＭＳ ゴシック
 11
0.7049204801102057
 21
-0.7092863432501694
 31
0.0
 73
               1
 44
0.7828267384257843
  0
LINE
  5
77
100
AcDbEntity
  8
33
370
              15
  6
Continuous
 62
               7
100
AcDbLine
 10
2246.1840626953413
 20
1480.6889414424218
 30
0.0
 11
2246.1840626953413
 21
1520.6889414424218
 31
0.0
  0
LINE
  5
78
100
AcDbEntity
  8
33
370
              15
  6
Continuous
 62
               7
100
AcDbLine
 10
2252.6081698381981
 20
1512.6219771567075
 30
0.0
 11
2265.867098409627
 21
1521.4612628709931
 31
0.0
  0
LINE
  5
79
100
AcDbEntity
  8
33
370
              15
  6
Continuous
 62
               7
100
AcDbLine
 10
2265.867098409627
 20
1521.4612628709931
 30
0.0
 11
2279.1207655014637
 21
1521.4612628709931
 31
0.0
  0
LINE
  5
7A
100
AcDbEntity
  8
33
370
              15
  6
Continuous
 62
               7
100
AcDbLine
 10
2254.1451795639637
 20
1514.3273542294116
 30
0.0
 11
2252.6081698381981
 21
1512.6219771567075
 31
0.0
  0
LINE
  5
7B
100
AcDbEntity
  8
33
370
              15
  6
Continuous
 62
               7
100
AcDbLine
 10
2252.6081698381981
 20
1512.6219771567075
 30
0.0
 11
2254.6266049466167
 21
1513.3645034641054
 31
0.0
  0
MTEXT
  5
7C
100
AcDbEntity
  8
33
 62
               7
100
AcDbMText
 10
2273.1016228834787
 20
1523.8815439814841
 30
0.0
 40
3.0
 41
0.0
 71
               5
 72
               1
  1
防滴パット
  7
ＭＳ ゴシック
 73
               1
 44
0.7828267384257842
  0
LINE
  5
7D
100
AcDbEntity
  8
17
370
              15
  6
Continuous
 62
               7
100
AcDbLine
 10
2291.7713354950861
 20
1465.3317985852789
 30
0.0
 11
2286.7713354950861
 21
1465.3317985852789
 31
0.0
  0
LINE
  5
7E
100
AcDbEntity
  8
17
370
              15
  6
Continuous
 62
               7
100
AcDbLine
 10
2284.2713354950861
 20
1462.8317985852789
 30
0.0
 11
2284.2713354950861
 21
1445.3317985852789
 31
0.0
  0
ARC
  5
7F
100
AcDbEntity
  8
17
370
              15
  6
Continuous
 62
               7
100
AcDbCircle
 10
2286.7713354950861
 20
1462.8317985852789
 30
0.0
 40
2.5
100
AcDbArc
 50
90.0
 51
180.0
  0
LINE
  5
80
100
AcDbEntity
  8
17
370
              15
  6
Continuous
 62
               7
100
AcDbLine
 10
2291.7713354950861
 20
1464.8317985852789
 30
0.0
 11
2286.7713354950861
 21
1464.8317985852789
 31
0.0
  0
ARC
  5
81
100
AcDbEntity
  8
17
370
              15
  6
Continuous
 62
               7
100
AcDbCircle
 10
2286.7713354950861
 20
1462.8317985852789
 30
0.0
 40
2.0
100
AcDbArc
 50
90.0
 51
180.0
  0
LINE
  5
82
100
AcDbEntity
  8
17
370
              15
  6
Continuous
 62
               7
100
AcDbLine
 10
2284.7713354950861
 20
1462.8317985852789
 30
0.0
 11
2284.7713354950861
 21
1445.3317985852789
 31
0.0
  0
LINE
  5
83
100
AcDbEntity
  8
17
370
              15
  6
Continuous
 62
               7
100
AcDbLine
 10
2291.7713354950861
 20
1465.3317985852789
 30
0.0
 11
2291.7713354950861
 21
1464.8317985852789
 31
0.0
  0
LINE
  5
84
100
AcDbEntity
  8
17
370
              15
  6
Continuous
 62
               7
100
AcDbLine
 10
2268.1328756736575
 20
1465.3317985852789
 30
0.0
 11
2286.717473887943
 21
1465.3317985852789
 31
0.0
  0
LINE
  5
85
100
AcDbEntity
  8
17
370
              15
  6
Continuous
 62
               7
100
AcDbLine
 10
2268.1328756736575
 20
1465.3317985852789
 30
0.0
 11
2268.1755646835254
 21
1465.1761701979935
 31
0.0
  0
LINE
  5
86
100
AcDbEntity
  8
17
370
              15
  6
Continuous
 62
               7
100
AcDbLine
 10
2268.1755646835254
 20
1465.1761701979935
 30
0.0
 11
2268.2179972260055
 21
1465.0205260520315
 31
0.0
  0
LINE
  5
87
100
AcDbEntity
  8
17
370
              15
  6
Continuous
 62
               7
100
AcDbLine
 10
2268.2179972260055
 20
1465.0205260520315
 30
0.0
 11
2268.2599168337097
 21
1464.8648503887159
 31
0.0
  0
LINE
  5
88
100
AcDbEntity
  8
17
370
              15
  6
Continuous
 62
               7
100
AcDbLine
 10
2268.2599168337097
 20
1464.8648503887159
 30
0.0
 11
2268.30106703925
 21
1464.7091274493705
 31
0.0
  0
LINE
  5
89
100
AcDbEntity
  8
17
370
              15
  6
Continuous
 62
               7
100
AcDbLine
 10
2268.30106703925
 20
1464.7091274493705
 30
0.0
 11
2268.3411913752389
 21
1464.5533414753181
 31
0.0
  0
LINE
  5
8A
100
AcDbEntity
  8
17
370
              15
  6
Continuous
 62
               7
100
AcDbLine
 10
2268.3411913752389
 20
1464.5533414753181
 30
0.0
 11
2268.3800333742879
 21
1464.3974767078823
 31
0.0
  0
LINE
  5
8B
100
AcDbEntity
  8
17
370
              15
  6
Continuous
 62
               7
100
AcDbLine
 10
2268.3800333742879
 20
1464.3974767078823
 30
0.0
 11
2268.4173365690094
 21
1464.2415173883862
 31
0.0
  0
LINE
  5
8C
100
AcDbEntity
  8
17
370
              15
  6
Continuous
 62
               7
100
AcDbLine
 10
2268.4173365690094
 20
1464.2415173883862
 30
0.0
 11
2268.4528444920161
 21
1464.0854477581534
 31
0.0
  0
LINE
  5
8D
100
AcDbEntity
  8
17
370
              15
  6
Continuous
 62
               7
100
AcDbLine
 10
2268.4528444920161
 20
1464.0854477581534
 30
0.0
 11
2268.4863006759188
 21
1463.929252058507
 31
0.0
  0
LINE
  5
8E
100
AcDbEntity
  8
17
370
              15
  6
Continuous
 62
               7
100
AcDbLine
 10
2268.4863006759188
 20
1463.929252058507
 30
0.0
 11
2268.5174486533306
 21
1463.7729145307701
 31
0.0
  0
LINE
  5
8F
100
AcDbEntity
  8
17
370
              15
  6
Continuous
 62
               7
100
AcDbLine
 10
2268.5174486533306
 20
1463.7729145307701
 30
0.0
 11
2268.5460319568629
 21
1463.6164194162666
 31
0.0
  0
LINE
  5
90
100
AcDbEntity
  8
17
370
              15
  6
Continuous
 62
               7
100
AcDbLine
 10
2268.5460319568629
 20
1463.6164194162666
 30
0.0
 11
2268.5717941191283
 21
1463.4597509563191
 31
0.0
  0
LINE
  5
91
100
AcDbEntity
  8
17
370
              15
  6
Continuous
 62
               7
100
AcDbLine
 10
2268.5717941191283
 20
1463.4597509563191
 30
0.0
 11
2268.5944786727387
 21
1463.3028933922515
 31
0.0
  0
LINE
  5
92
100
AcDbEntity
  8
17
370
              15
  6
Continuous
 62
               7
100
AcDbLine
 10
2268.5944786727387
 20
1463.3028933922515
 30
0.0
 11
2268.6138291503062
 21
1463.1458309653865
 31
0.0
  0
LINE
  5
93
100
AcDbEntity
  8
17
370
              15
  6
Continuous
 62
               7
100
AcDbLine
 10
2268.6138291503062
 20
1463.1458309653865
 30
0.0
 11
2268.6295890844426
 21
1462.988547917048
 31
0.0
  0
LINE
  5
94
100
AcDbEntity
  8
17
370
              15
  6
Continuous
 62
               7
100
AcDbLine
 10
2268.6295890844426
 20
1462.988547917048
 30
0.0
 11
2268.6415020077607
 21
1462.831028488559
 31
0.0
  0
LINE
  5
95
100
AcDbEntity
  8
17
370
              15
  6
Continuous
 62
               7
100
AcDbLine
 10
2268.6415020077607
 20
1462.831028488559
 30
0.0
 11
2268.6493114528716
 21
1462.6732569212429
 31
0.0
  0
LINE
  5
96
100
AcDbEntity
  8
17
370
              15
  6
Continuous
 62
               7
100
AcDbLine
 10
2268.6493114528716
 20
1462.6732569212429
 30
0.0
 11
2268.6527609523882
 21
1462.515217456423
 31
0.0
  0
LINE
  5
97
100
AcDbEntity
  8
17
370
              15
  6
Continuous
 62
               7
100
AcDbLine
 10
2268.6527609523882
 20
1462.515217456423
 30
0.0
 11
2268.6515940389227
 21
1462.3568943354223
 31
0.0
  0
LINE
  5
98
100
AcDbEntity
  8
17
370
              15
  6
Continuous
 62
               7
100
AcDbLine
 10
2268.6515940389227
 20
1462.3568943354223
 30
0.0
 11
2268.6455542450863
 21
1462.1982717995645
 31
0.0
  0
LINE
  5
99
100
AcDbEntity
  8
17
370
              15
  6
Continuous
 62
               7
100
AcDbLine
 10
2268.6455542450863
 20
1462.1982717995645
 30
0.0
 11
2268.6319958356175
 21
1462.0104404036413
 31
0.0
  0
LINE
  5
9A
100
AcDbEntity
  8
17
370
              15
  6
Continuous
 62
               7
100
AcDbLine
 10
2268.6319958356175
 20
1462.0104404036413
 30
0.0
 11
2268.6121164217348
 21
1461.8222616261355
 31
0.0
  0
LINE
  5
9B
100
AcDbEntity
  8
17
370
              15
  6
Continuous
 62
               7
100
AcDbLine
 10
2268.6121164217348
 20
1461.8222616261355
 30
0.0
 11
2268.5867576529613
 21
1461.6338281957983
 31
0.0
  0
LINE
  5
9C
100
AcDbEntity
  8
17
370
              15
  6
Continuous
 62
               7
100
AcDbLine
 10
2268.5867576529613
 20
1461.6338281957983
 30
0.0
 11
2268.5567611788201
 21
1461.4452328413806
 31
0.0
  0
LINE
  5
9D
100
AcDbEntity
  8
17
370
              15
  6
Continuous
 62
               7
100
AcDbLine
 10
2268.5567611788201
 20
1461.4452328413806
 30
0.0
 11
2268.5229686488356
 21
1461.2565682916338
 31
0.0
  0
LINE
  5
9E
100
AcDbEntity
  8
17
370
              15
  6
Continuous
 62
               7
100
AcDbLine
 10
2268.5229686488356
 20
1461.2565682916338
 30
0.0
 11
2268.4862217125296
 21
1461.0679272753089
 31
0.0
  0
LINE
  5
9F
100
AcDbEntity
  8
17
370
              15
  6
Continuous
 62
               7
100
AcDbLine
 10
2268.4862217125296
 20
1461.0679272753089
 30
0.0
 11
2268.4473620194271
 21
1460.8794025211573
 31
0.0
  0
LINE
  5
A0
100
AcDbEntity
  8
17
370
              15
  6
Continuous
 62
               7
100
AcDbLine
 10
2268.4473620194271
 20
1460.8794025211573
 30
0.0
 11
2268.4072312190501
 21
1460.6910867579297
 31
0.0
  0
LINE
  5
A1
100
AcDbEntity
  8
17
370
              15
  6
Continuous
 62
               7
100
AcDbLine
 10
2268.4072312190501
 20
1460.6910867579297
 30
0.0
 11
2268.3666709609224
 21
1460.5030727143776
 31
0.0
  0
LINE
  5
A2
100
AcDbEntity
  8
17
370
              15
  6
Continuous
 62
               7
100
AcDbLine
 10
2268.3666709609224
 20
1460.5030727143776
 30
0.0
 11
2268.3265228945679
 21
1460.3154531192522
 31
0.0
  0
LINE
  5
A3
100
AcDbEntity
  8
17
370
              15
  6
Continuous
 62
               7
100
AcDbLine
 10
2268.3265228945679
 20
1460.3154531192522
 30
0.0
 11
2268.2876286695091
 21
1460.1283207013043
 31
0.0
  0
LINE
  5
A4
100
AcDbEntity
  8
17
370
              15
  6
Continuous
 62
               7
100
AcDbLine
 10
2268.2876286695091
 20
1460.1283207013043
 30
0.0
 11
2268.2508299352698
 21
1459.9417681892851
 31
0.0
  0
LINE
  5
A5
100
AcDbEntity
  8
17
370
              15
  6
Continuous
 62
               7
100
AcDbLine
 10
2268.2508299352698
 20
1459.9417681892851
 30
0.0
 11
2268.2169683413736
 21
1459.7558883119461
 31
0.0
  0
LINE
  5
A6
100
AcDbEntity
  8
17
370
              15
  6
Continuous
 62
               7
100
AcDbLine
 10
2268.2169683413736
 20
1459.7558883119461
 30
0.0
 11
2268.1868855373432
 21
1459.5707737980381
 31
0.0
  0
LINE
  5
A7
100
AcDbEntity
  8
17
370
              15
  6
Continuous
 62
               7
100
AcDbLine
 10
2268.1868855373432
 20
1459.5707737980381
 30
0.0
 11
2268.1614231727021
 21
1459.3865173763124
 31
0.0
  0
LINE
  5
A8
100
AcDbEntity
  8
17
370
              15
  6
Continuous
 62
               7
100
AcDbLine
 10
2268.1614231727021
 20
1459.3865173763124
 30
0.0
 11
2268.1414228969743
 21
1459.20321177552
 31
0.0
  0
LINE
  5
A9
100
AcDbEntity
  8
17
370
              15
  6
Continuous
 62
               7
100
AcDbLine
 10
2268.1414228969743
 20
1459.20321177552
 30
0.0
 11
2268.1277263596821
 21
1459.0209497244123
 31
0.0
  0
LINE
  5
AA
100
AcDbEntity
  8
17
370
              15
  6
Continuous
 62
               7
100
AcDbLine
 10
2268.1277263596821
 20
1459.0209497244123
 30
0.0
 11
2268.12117521035
 21
1458.8398239517401
 31
0.0
  0
LINE
  5
AB
100
AcDbEntity
  8
17
370
              15
  6
Continuous
 62
               7
100
AcDbLine
 10
2268.12117521035
 20
1458.8398239517401
 30
0.0
 11
2268.1226110985008
 21
1458.6599271862547
 31
0.0
  0
LINE
  5
AC
100
AcDbEntity
  8
17
370
              15
  6
Continuous
 62
               7
100
AcDbLine
 10
2268.1226110985008
 20
1458.6599271862547
 30
0.0
 11
2268.1328756736575
 21
1458.4813521567075
 31
0.0
  0
LINE
  5
AD
100
AcDbEntity
  8
17
370
              15
  6
Continuous
 62
               7
100
AcDbLine
 10
2268.1328756736575
 20
1458.4813521567075
 30
0.0
 11
2268.1543096611035
 21
1458.2919267534799
 31
0.0
  0
LINE
  5
AE
100
AcDbEntity
  8
17
370
              15
  6
Continuous
 62
               7
100
AcDbLine
 10
2268.1543096611035
 20
1458.2919267534799
 30
0.0
 11
2268.1862489966347
 21
1458.1040379507485
 31
0.0
  0
LINE
  5
AF
100
AcDbEntity
  8
17
370
              15
  6
Continuous
 62
               7
100
AcDbLine
 10
2268.1862489966347
 20
1458.1040379507485
 30
0.0
 11
2268.228140767194
 21
1457.9176048748038
 31
0.0
  0
LINE
  5
B0
100
AcDbEntity
  8
17
370
              15
  6
Continuous
 62
               7
100
AcDbLine
 10
2268.228140767194
 20
1457.9176048748038
 30
0.0
 11
2268.2794320597241
 21
1457.7325466519346
 31
0.0
  0
LINE
  5
B1
100
AcDbEntity
  8
17
370
              15
  6
Continuous
 62
               7
100
AcDbLine
 10
2268.2794320597241
 20
1457.7325466519346
 30
0.0
 11
2268.3395699611683
 21
1457.5487824084312
 31
0.0
  0
LINE
  5
B2
100
AcDbEntity
  8
17
370
              15
  6
Continuous
 62
               7
100
AcDbLine
 10
2268.3395699611683
 20
1457.5487824084312
 30
0.0
 11
2268.4080015584691
 21
1457.3662312705828
 31
0.0
  0
LINE
  5
B3
100
AcDbEntity
  8
17
370
              15
  6
Continuous
 62
               7
100
AcDbLine
 10
2268.4080015584691
 20
1457.3662312705828
 30
0.0
 11
2268.4841739385697
 21
1457.1848123646794
 31
0.0
  0
LINE
  5
B4
100
AcDbEntity
  8
17
370
              15
  6
Continuous
 62
               7
100
AcDbLine
 10
2268.4841739385697
 20
1457.1848123646794
 30
0.0
 11
2268.567534188413
 21
1457.0044448170104
 31
0.0
  0
LINE
  5
B5
100
AcDbEntity
  8
17
370
              15
  6
Continuous
 62
               7
100
AcDbLine
 10
2268.567534188413
 20
1457.0044448170104
 30
0.0
 11
2268.6575293949418
 21
1456.8250477538656
 31
0.0
  0
LINE
  5
B6
100
AcDbEntity
  8
17
370
              15
  6
Continuous
 62
               7
100
AcDbLine
 10
2268.6575293949418
 20
1456.8250477538656
 30
0.0
 11
2268.7536066450984
 21
1456.6465403015345
 31
0.0
  0
LINE
  5
B7
100
AcDbEntity
  8
17
370
              15
  6
Continuous
 62
               7
100
AcDbLine
 10
2268.7536066450984
 20
1456.6465403015345
 30
0.0
 11
2268.8552130258263
 21
1456.468841586307
 31
0.0
  0
LINE
  5
B8
100
AcDbEntity
  8
17
370
              15
  6
Continuous
 62
               7
100
AcDbLine
 10
2268.8552130258263
 20
1456.468841586307
 30
0.0
 11
2268.9617956240686
 21
1456.2918707344727
 31
0.0
  0
LINE
  5
B9
100
AcDbEntity
  8
17
370
              15
  6
Continuous
 62
               7
100
AcDbLine
 10
2268.9617956240686
 20
1456.2918707344727
 30
0.0
 11
2269.0728015267678
 21
1456.1155468723209
 31
0.0
  0
LINE
  5
BA
100
AcDbEntity
  8
17
370
              15
  6
Continuous
 62
               7
100
AcDbLine
 10
2269.0728015267678
 20
1456.1155468723209
 30
0.0
 11
2269.1876778208666
 21
1455.9397891261417
 31
0.0
  0
LINE
  5
BB
100
AcDbEntity
  8
17
370
              15
  6
Continuous
 62
               7
100
AcDbLine
 10
2269.1876778208666
 20
1455.9397891261417
 30
0.0
 11
2269.305871593308
 21
1455.7645166222244
 31
0.0
  0
LINE
  5
BC
100
AcDbEntity
  8
17
370
              15
  6
Continuous
 62
               7
100
AcDbLine
 10
2269.305871593308
 20
1455.7645166222244
 30
0.0
 11
2269.4268299310352
 21
1455.589648486859
 31
0.0
  0
LINE
  5
BD
100
AcDbEntity
  8
17
370
              15
  6
Continuous
 62
               7
100
AcDbLine
 10
2269.4268299310352
 20
1455.589648486859
 30
0.0
 11
2269.549999920991
 21
1455.4151038463349
 31
0.0
  0
LINE
  5
BE
100
AcDbEntity
  8
17
370
              15
  6
Continuous
 62
               7
100
AcDbLine
 10
2269.549999920991
 20
1455.4151038463349
 30
0.0
 11
2269.6748286501179
 21
1455.2408018269418
 31
0.0
  0
LINE
  5
BF
100
AcDbEntity
  8
17
370
              15
  6
Continuous
 62
               7
100
AcDbLine
 10
2269.6748286501179
 20
1455.2408018269418
 30
0.0
 11
2269.8007632053591
 21
1455.0666615549694
 31
0.0
  0
LINE
  5
C0
100
AcDbEntity
  8
17
370
              15
  6
Continuous
 62
               7
100
AcDbLine
 10
2269.8007632053591
 20
1455.0666615549694
 30
0.0
 11
2269.9272506736575
 21
1454.8926021567074
 31
0.0
  0
LINE
  5
C1
100
AcDbEntity
  8
17
370
              15
  6
Continuous
 62
               7
100
AcDbLine
 10
2284.7713354950861
 20
1445.3317985852789
 30
0.0
 11
2284.7463153157146
 21
1445.3318108526216
 31
0.0
  0
LINE
  5
C2
100
AcDbEntity
  8
17
370
              15
  6
Continuous
 62
               7
100
AcDbLine
 10
2284.7463153157146
 20
1445.3318108526216
 30
0.0
 11
2284.7212954397924
 21
1445.3318229354932
 31
0.0
  0
LINE
  5
C3
100
AcDbEntity
  8
17
370
              15
  6
Continuous
 62
               7
100
AcDbLine
 10
2284.7212954397924
 20
1445.3318229354932
 30
0.0
 11
2284.6962761707682
 21
1445.331834649422
 31
0.0
  0
LINE
  5
C4
100
AcDbEntity
  8
17
370
              15
  6
Continuous
 62
               7
100
AcDbLine
 10
2284.6962761707682
 20
1445.331834649422
 30
0.0
 11
2284.6712578120919
 21
1445.3318458099368
 31
0.0
  0
LINE
  5
C5
100
AcDbEntity
  8
17
370
              15
  6
Continuous
 62
               7
100
AcDbLine
 10
2284.6712578120919
 20
1445.3318458099368
 30
0.0
 11
2284.6462406672122
 21
1445.3318562325665
 31
0.0
  0
LINE
  5
C6
100
AcDbEntity
  8
17
370
              15
  6
Continuous
 62
               7
100
AcDbLine
 10
2284.6462406672122
 20
1445.3318562325665
 30
0.0
 11
2284.6212250395788
 21
1445.3318657328393
 31
0.0
  0
LINE
  5
C7
100
AcDbEntity
  8
17
370
              15
  6
Continuous
 62
               7
100
AcDbLine
 10
2284.6212250395788
 20
1445.3318657328393
 30
0.0
 11
2284.5962112326401
 21
1445.3318741262844
 31
0.0
  0
LINE
  5
C8
100
AcDbEntity
  8
17
370
              15
  6
Continuous
 62
               7
100
AcDbLine
 10
2284.5962112326401
 20
1445.3318741262844
 30
0.0
 11
2284.5711995498464
 21
1445.3318812284301
 31
0.0
  0
LINE
  5
C9
100
AcDbEntity
  8
17
370
              15
  6
Continuous
 62
               7
100
AcDbLine
 10
2284.5711995498464
 20
1445.3318812284301
 30
0.0
 11
2284.5461902946458
 21
1445.3318868548056
 31
0.0
  0
LINE
  5
CA
100
AcDbEntity
  8
17
370
              15
  6
Continuous
 62
               7
100
AcDbLine
 10
2284.5461902946458
 20
1445.3318868548056
 30
0.0
 11
2284.5211837704883
 21
1445.331890820939
 31
0.0
  0
LINE
  5
CB
100
AcDbEntity
  8
17
370
              15
  6
Continuous
 62
               7
100
AcDbLine
 10
2284.5211837704883
 20
1445.331890820939
 30
0.0
 11
2284.4961802808225
 21
1445.331892942359
 31
0.0
  0
LINE
  5
CC
100
AcDbEntity
  8
17
370
              15
  6
Continuous
 62
               7
100
AcDbLine
 10
2284.4961802808225
 20
1445.331892942359
 30
0.0
 11
2284.4711801290978
 21
1445.3318930345947
 31
0.0
  0
LINE
  5
CD
100
AcDbEntity
  8
17
370
              15
  6
Continuous
 62
               7
100
AcDbLine
 10
2284.4711801290978
 20
1445.3318930345947
 30
0.0
 11
2284.4461836187634
 21
1445.3318909131744
 31
0.0
  0
LINE
  5
CE
100
AcDbEntity
  8
17
370
              15
  6
Continuous
 62
               7
100
AcDbLine
 10
2284.4461836187634
 20
1445.3318909131744
 30
0.0
 11
2284.4211910532686
 21
1445.3318863936272
 31
0.0
  0
LINE
  5
CF
100
AcDbEntity
  8
17
370
              15
  6
Continuous
 62
               7
100
AcDbLine
 10
2284.4211910532686
 20
1445.3318863936272
 30
0.0
 11
2284.3962027360626
 21
1445.3318792914813
 31
0.0
  0
LINE
  5
D0
100
AcDbEntity
  8
17
370
              15
  6
Continuous
 62
               7
100
AcDbLine
 10
2284.3962027360626
 20
1445.3318792914813
 30
0.0
 11
2284.3712189705948
 21
1445.3318694222658
 31
0.0
  0
LINE
  5
D1
100
AcDbEntity
  8
17
370
              15
  6
Continuous
 62
               7
100
AcDbLine
 10
2284.3712189705948
 20
1445.3318694222658
 30
0.0
 11
2284.3462400603139
 21
1445.3318566015091
 31
0.0
  0
LINE
  5
D2
100
AcDbEntity
  8
17
370
              15
  6
Continuous
 62
               7
100
AcDbLine
 10
2284.3462400603139
 20
1445.3318566015091
 30
0.0
 11
2284.3212663086692
 21
1445.3318406447399
 31
0.0
  0
LINE
  5
D3
100
AcDbEntity
  8
17
370
              15
  6
Continuous
 62
               7
100
AcDbLine
 10
2284.3212663086692
 20
1445.3318406447399
 30
0.0
 11
2284.2962980191105
 21
1445.3318213674868
 31
0.0
  0
LINE
  5
D4
100
AcDbEntity
  8
17
370
              15
  6
Continuous
 62
               7
100
AcDbLine
 10
2284.2962980191105
 20
1445.3318213674868
 30
0.0
 11
2284.2713354950861
 21
1445.3317985852789
 31
0.0
  0
LINE
  5
D5
100
AcDbEntity
  8
17
370
              15
  6
Continuous
 62
               7
100
AcDbLine
 10
2284.2713354950861
 20
1445.3317985852789
 30
0.0
 11
2284.1119992872841
 21
1445.3315798542467
 31
0.0
  0
LINE
  5
D6
100
AcDbEntity
  8
17
370
              15
  6
Continuous
 62
               7
100
AcDbLine
 10
2284.1119992872841
 20
1445.3315798542467
 30
0.0
 11
2283.9528704222353
 21
1445.3312926789442
 31
0.0
  0
LINE
  5
D7
100
AcDbEntity
  8
17
370
              15
  6
Continuous
 62
               7
100
AcDbLine
 10
2283.9528704222353
 20
1445.3312926789442
 30
0.0
 11
2283.793908551816
 21
1445.3310191901014
 31
0.0
  0
LINE
  5
D8
100
AcDbEntity
  8
17
370
              15
  6
Continuous
 62
               7
100
AcDbLine
 10
2283.793908551816
 20
1445.3310191901014
 30
0.0
 11
2283.6350733279041
 21
1445.3308415184479
 31
0.0
  0
LINE
  5
D9
100
AcDbEntity
  8
17
370
              15
  6
Continuous
 62
               7
100
AcDbLine
 10
2283.6350733279041
 20
1445.3308415184479
 30
0.0
 11
2283.476324402377
 21
1445.3308417947135
 31
0.0
  0
LINE
  5
DA
100
AcDbEntity
  8
17
370
              15
  6
Continuous
 62
               7
100
AcDbLine
 10
2283.476324402377
 20
1445.3308417947135
 30
0.0
 11
2283.317621427112
 21
1445.3311021496281
 31
0.0
  0
LINE
  5
DB
100
AcDbEntity
  8
17
370
              15
  6
Continuous
 62
               7
100
AcDbLine
 10
2283.317621427112
 20
1445.3311021496281
 30
0.0
 11
2283.1589240539865
 21
1445.3317047139217
 31
0.0
  0
LINE
  5
DC
100
AcDbEntity
  8
17
370
              15
  6
Continuous
 62
               7
100
AcDbLine
 10
2283.1589240539865
 20
1445.3317047139217
 30
0.0
 11
2283.0001919348779
 21
1445.3327316183238
 31
0.0
  0
LINE
  5
DD
100
AcDbEntity
  8
17
370
              15
  6
Continuous
 62
               7
100
AcDbLine
 10
2283.0001919348779
 20
1445.3327316183238
 30
0.0
 11
2282.841384721663
 21
1445.3342649935644
 31
0.0
  0
LINE
  5
DE
100
AcDbEntity
  8
17
370
              15
  6
Continuous
 62
               7
100
AcDbLine
 10
2282.841384721663
 20
1445.3342649935644
 30
0.0
 11
2282.6824620662196
 21
1445.3363869703733
 31
0.0
  0
LINE
  5
DF
100
AcDbEntity
  8
17
370
              15
  6
Continuous
 62
               7
100
AcDbLine
 10
2282.6824620662196
 20
1445.3363869703733
 30
0.0
 11
2282.5233836204247
 21
1445.3391796794801
 31
0.0
  0
LINE
  5
E0
100
AcDbEntity
  8
17
370
              15
  6
Continuous
 62
               7
100
AcDbLine
 10
2282.5233836204247
 20
1445.3391796794801
 30
0.0
 11
2282.3641090361566
 21
1445.3427252516151
 31
0.0
  0
LINE
  5
E1
100
AcDbEntity
  8
17
370
              15
  6
Continuous
 62
               7
100
AcDbLine
 10
2282.3641090361566
 20
1445.3427252516151
 30
0.0
 11
2282.2045979652912
 21
1445.3471058175078
 31
0.0
  0
LINE
  5
E2
100
AcDbEntity
  8
17
370
              15
  6
Continuous
 62
               7
100
AcDbLine
 10
2282.2045979652912
 20
1445.3471058175078
 30
0.0
 11
2282.0448100597068
 21
1445.3524035078881
 31
0.0
  0
LINE
  5
E3
100
AcDbEntity
  8
17
370
              15
  6
Continuous
 62
               7
100
AcDbLine
 10
2282.0448100597068
 20
1445.3524035078881
 30
0.0
 11
2281.8847049712808
 21
1445.3587004534857
 31
0.0
  0
LINE
  5
E4
100
AcDbEntity
  8
17
370
              15
  6
Continuous
 62
               7
100
AcDbLine
 10
2281.8847049712808
 20
1445.3587004534857
 30
0.0
 11
2281.7242423518901
 21
1445.3660787850306
 31
0.0
  0
LINE
  5
E5
100
AcDbEntity
  8
17
370
              15
  6
Continuous
 62
               7
100
AcDbLine
 10
2281.7242423518901
 20
1445.3660787850306
 30
0.0
 11
2281.5633818534125
 21
1445.3746206332526
 31
0.0
  0
LINE
  5
E6
100
AcDbEntity
  8
17
370
              15
  6
Continuous
 62
               7
100
AcDbLine
 10
2281.5633818534125
 20
1445.3746206332526
 30
0.0
 11
2281.4020831277244
 21
1445.3844081288814
 31
0.0
  0
LINE
  5
E7
100
AcDbEntity
  8
17
370
              15
  6
Continuous
 62
               7
100
AcDbLine
 10
2281.4020831277244
 20
1445.3844081288814
 30
0.0
 11
2281.2403058267041
 21
1445.3955234026469
 31
0.0
  0
LINE
  5
E8
100
AcDbEntity
  8
17
370
              15
  6
Continuous
 62
               7
100
AcDbLine
 10
2281.2403058267041
 20
1445.3955234026469
 30
0.0
 11
2281.078009602229
 21
1445.4080485852789
 31
0.0
  0
LINE
  5
E9
100
AcDbEntity
  8
17
370
              15
  6
Continuous
 62
               7
100
AcDbLine
 10
2281.078009602229
 20
1445.4080485852789
 30
0.0
 11
2280.8526047798223
 21
1445.4278627000838
 31
0.0
  0
LINE
  5
EA
100
AcDbEntity
  8
17
370
              15
  6
Continuous
 62
               7
100
AcDbLine
 10
2280.8526047798223
 20
1445.4278627000838
 30
0.0
 11
2280.6264916685277
 21
1445.4507907670779
 31
0.0
  0
LINE
  5
EB
100
AcDbEntity
  8
17
370
              15
  6
Continuous
 62
               7
100
AcDbLine
 10
2280.6264916685277
 20
1445.4507907670779
 30
0.0
 11
2280.40003261319
 21
1445.4770904732929
 31
0.0
  0
LINE
  5
EC
100
AcDbEntity
  8
17
370
              15
  6
Continuous
 62
               7
100
AcDbLine
 10
2280.40003261319
 20
1445.4770904732929
 30
0.0
 11
2280.1735899586538
 21
1445.5070195057615
 31
0.0
  0
LINE
  5
ED
100
AcDbEntity
  8
17
370
              15
  6
Continuous
 62
               7
100
AcDbLine
 10
2280.1735899586538
 20
1445.5070195057615
 30
0.0
 11
2279.9475260497625
 21
1445.5408355515151
 31
0.0
  0
LINE
  5
EE
100
AcDbEntity
  8
17
370
              15
  6
Continuous
 62
               7
100
AcDbLine
 10
2279.9475260497625
 20
1445.5408355515151
 30
0.0
 11
2279.7222032313607
 21
1445.5787962975862
 31
0.0
  0
LINE
  5
EF
100
AcDbEntity
  8
17
370
              15
  6
Continuous
 62
               7
100
AcDbLine
 10
2279.7222032313607
 20
1445.5787962975862
 30
0.0
 11
2279.4979838482927
 21
1445.6211594310066
 31
0.0
  0
LINE
  5
F0
100
AcDbEntity
  8
17
370
              15
  6
Continuous
 62
               7
100
AcDbLine
 10
2279.4979838482927
 20
1445.6211594310066
 30
0.0
 11
2279.2752302454032
 21
1445.6681826388083
 31
0.0
  0
LINE
  5
F1
100
AcDbEntity
  8
17
370
              15
  6
Continuous
 62
               7
100
AcDbLine
 10
2279.2752302454032
 20
1445.6681826388083
 30
0.0
 11
2279.054304767536
 21
1445.7201236080236
 31
0.0
  0
LINE
  5
F2
100
AcDbEntity
  8
17
370
              15
  6
Continuous
 62
               7
100
AcDbLine
 10
2279.054304767536
 20
1445.7201236080236
 30
0.0
 11
2278.8355697595357
 21
1445.7772400256845
 31
0.0
  0
LINE
  5
F3
100
AcDbEntity
  8
17
370
              15
  6
Continuous
 62
               7
100
AcDbLine
 10
2278.8355697595357
 20
1445.7772400256845
 30
0.0
 11
2278.6193875662461
 21
1445.839789578823
 31
0.0
  0
LINE
  5
F4
100
AcDbEntity
  8
17
370
              15
  6
Continuous
 62
               7
100
AcDbLine
 10
2278.6193875662461
 20
1445.839789578823
 30
0.0
 11
2278.406120532512
 21
1445.9080299544712
 31
0.0
  0
LINE
  5
F5
100
AcDbEntity
  8
17
370
              15
  6
Continuous
 62
               7
100
AcDbLine
 10
2278.406120532512
 20
1445.9080299544712
 30
0.0
 11
2278.1961310031775
 21
1445.9822188396608
 31
0.0
  0
LINE
  5
F6
100
AcDbEntity
  8
17
370
              15
  6
Continuous
 62
               7
100
AcDbLine
 10
2278.1961310031775
 20
1445.9822188396608
 30
0.0
 11
2277.9897813230868
 21
1446.0626139214246
 31
0.0
  0
LINE
  5
F7
100
AcDbEntity
  8
17
370
              15
  6
Continuous
 62
               7
100
AcDbLine
 10
2277.9897813230868
 20
1446.0626139214246
 30
0.0
 11
2277.7874338370843
 21
1446.149472886794
 31
0.0
  0
LINE
  5
F8
100
AcDbEntity
  8
17
370
              15
  6
Continuous
 62
               7
100
AcDbLine
 10
2277.7874338370843
 20
1446.149472886794
 30
0.0
 11
2277.5894508900142
 21
1446.2430534228013
 31
0.0
  0
LINE
  5
F9
100
AcDbEntity
  8
17
370
              15
  6
Continuous
 62
               7
100
AcDbLine
 10
2277.5894508900142
 20
1446.2430534228013
 30
0.0
 11
2277.3961948267206
 21
1446.3436132164784
 31
0.0
  0
LINE
  5
FA
100
AcDbEntity
  8
17
370
              15
  6
Continuous
 62
               7
100
AcDbLine
 10
2277.3961948267206
 20
1446.3436132164784
 30
0.0
 11
2277.2080279920483
 21
1446.4514099548576
 31
0.0
  0
LINE
  5
FB
100
AcDbEntity
  8
17
370
              15
  6
Continuous
 62
               7
100
AcDbLine
 10
2277.2080279920483
 20
1446.4514099548576
 30
0.0
 11
2277.0253127308411
 21
1446.5667013249708
 31
0.0
  0
LINE
  5
FC
100
AcDbEntity
  8
17
370
              15
  6
Continuous
 62
               7
100
AcDbLine
 10
2277.0253127308411
 20
1446.5667013249708
 30
0.0
 11
2276.8484113879431
 21
1446.6897450138504
 31
0.0
  0
LINE
  5
FD
100
AcDbEntity
  8
17
370
              15
  6
Continuous
 62
               7
100
AcDbLine
 10
2276.8484113879431
 20
1446.6897450138504
 30
0.0
 11
2276.7071412599353
 21
1446.7971192383782
 31
0.0
  0
LINE
  5
FE
100
AcDbEntity
  8
17
370
              15
  6
Continuous
 62
               7
100
AcDbLine
 10
2276.7071412599353
 20
1446.7971192383782
 30
0.0
 11
2276.5698584318411
 21
1446.9096645986929
 31
0.0
  0
LINE
  5
FF
100
AcDbEntity
  8
17
370
              15
  6
Continuous
 62
               7
100
AcDbLine
 10
2276.5698584318411
 20
1446.9096645986929
 30
0.0
 11
2276.4363530457695
 21
1447.027108929753
 31
0.0
  0
LINE
  5
100
100
AcDbEntity
  8
17
370
              15
  6
Continuous
 62
               7
100
AcDbLine
 10
2276.4363530457695
 20
1447.027108929753
 30
0.0
 11
2276.3064152438315
 21
1447.1491800665174
 31
0.0
  0
LINE
  5
101
100
AcDbEntity
  8
17
370
              15
  6
Continuous
 62
               7
100
AcDbLine
 10
2276.3064152438315
 20
1447.1491800665174
 30
0.0
 11
2276.1798351681355
 21
1447.2756058439445
 31
0.0
  0
LINE
  5
102
100
AcDbEntity
  8
17
370
              15
  6
Continuous
 62
               7
100
AcDbLine
 10
2276.1798351681355
 20
1447.2756058439445
 30
0.0
 11
2276.0564029607926
 21
1447.4061140969927
 31
0.0
  0
LINE
  5
103
100
AcDbEntity
  8
17
370
              15
  6
Continuous
 62
               7
100
AcDbLine
 10
2276.0564029607926
 20
1447.4061140969927
 30
0.0
 11
2275.9359087639118
 21
1447.5404326606208
 31
0.0
  0
LINE
  5
104
100
AcDbEntity
  8
17
370
              15
  6
Continuous
 62
               7
100
AcDbLine
 10
2275.9359087639118
 20
1447.5404326606208
 30
0.0
 11
2275.8181427196037
 21
1447.6782893697873
 31
0.0
  0
LINE
  5
105
100
AcDbEntity
  8
17
370
              15
  6
Continuous
 62
               7
100
AcDbLine
 10
2275.8181427196037
 20
1447.6782893697873
 30
0.0
 11
2275.702894969977
 21
1447.819412059451
 31
0.0
  0
LINE
  5
106
100
AcDbEntity
  8
17
370
              15
  6
Continuous
 62
               7
100
AcDbLine
 10
2275.702894969977
 20
1447.819412059451
 30
0.0
 11
2275.5899556571426
 21
1447.9635285645702
 31
0.0
  0
LINE
  5
107
100
AcDbEntity
  8
17
370
              15
  6
Continuous
 62
               7
100
AcDbLine
 10
2275.5899556571426
 20
1447.9635285645702
 30
0.0
 11
2275.4791149232101
 21
1448.1103667201035
 31
0.0
  0
LINE
  5
108
100
AcDbEntity
  8
17
370
              15
  6
Continuous
 62
               7
100
AcDbLine
 10
2275.4791149232101
 20
1448.1103667201035
 30
0.0
 11
2275.3701629102889
 21
1448.2596543610096
 31
0.0
  0
LINE
  5
109
100
AcDbEntity
  8
17
370
              15
  6
Continuous
 62
               7
100
AcDbLine
 10
2275.3701629102889
 20
1448.2596543610096
 30
0.0
 11
2275.2628897604891
 21
1448.411119322247
 31
0.0
  0
LINE
  5
10A
100
AcDbEntity
  8
17
370
              15
  6
Continuous
 62
               7
100
AcDbLine
 10
2275.2628897604891
 20
1448.411119322247
 30
0.0
 11
2275.1570856159206
 21
1448.5644894387742
 31
0.0
  0
LINE
  5
10B
100
AcDbEntity
  8
17
370
              15
  6
Continuous
 62
               7
100
AcDbLine
 10
2275.1570856159206
 20
1448.5644894387742
 30
0.0
 11
2275.052540618693
 21
1448.7194925455501
 31
0.0
  0
LINE
  5
10C
100
AcDbEntity
  8
17
370
              15
  6
Continuous
 62
               7
100
AcDbLine
 10
2275.052540618693
 20
1448.7194925455501
 30
0.0
 11
2274.9490449109162
 21
1448.875856477533
 31
0.0
  0
LINE
  5
10D
100
AcDbEntity
  8
17
370
              15
  6
Continuous
 62
               7
100
AcDbLine
 10
2274.9490449109162
 20
1448.875856477533
 30
0.0
 11
2274.8463886347004
 21
1449.0333090696818
 31
0.0
  0
LINE
  5
10E
100
AcDbEntity
  8
17
370
              15
  6
Continuous
 62
               7
100
AcDbLine
 10
2274.8463886347004
 20
1449.0333090696818
 30
0.0
 11
2274.7443619321548
 21
1449.1915781569546
 31
0.0
  0
LINE
  5
10F
100
AcDbEntity
  8
17
370
              15
  6
Continuous
 62
               7
100
AcDbLine
 10
2274.7443619321548
 20
1449.1915781569546
 30
0.0
 11
2274.6427549453897
 21
1449.3503915743104
 31
0.0
  0
LINE
  5
110
100
AcDbEntity
  8
17
370
              15
  6
Continuous
 62
               7
100
AcDbLine
 10
2274.6427549453897
 20
1449.3503915743104
 30
0.0
 11
2274.5413578165148
 21
1449.5094771567074
 31
0.0
  0
LINE
  5
111
100
AcDbEntity
  8
17
370
              15
  6
Continuous
 62
               7
100
AcDbLine
 10
2284.2713354950861
 20
1470.672936978136
 30
0.0
 11
2291.7713354950861
 21
1470.672936978136
 31
0.0
  0
LINE
  5
112
100
AcDbEntity
  8
17
370
              15
  6
Continuous
 62
               7
100
AcDbLine
 10
2284.2713354950861
 20
1470.672936978136
 30
0.0
 11
2286.2031871476643
 21
1471.1905750683411
 31
0.0
  0
LINE
  5
113
100
AcDbEntity
  8
17
370
              15
  6
Continuous
 62
               7
100
AcDbLine
 10
2284.2713354950861
 20
1470.672936978136
 30
0.0
 11
2286.2031871476643
 21
1470.1552988879309
 31
0.0
  0
LINE
  5
114
100
AcDbEntity
  8
17
370
              15
  6
Continuous
 62
               7
100
AcDbLine
 10
2291.7713354950861
 20
1470.672936978136
 30
0.0
 11
2289.8394838425079
 21
1470.1552988879309
 31
0.0
  0
LINE
  5
115
100
AcDbEntity
  8
17
370
              15
  6
Continuous
 62
               7
100
AcDbLine
 10
2291.7713354950861
 20
1470.672936978136
 30
0.0
 11
2289.8394838425079
 21
1471.1905750683411
 31
0.0
  0
LINE
  5
116
100
AcDbEntity
  8
17
370
              15
  6
Continuous
 62
               7
100
AcDbLine
 10
2284.2713354950861
 20
1463.3317985852789
 30
0.0
 11
2284.2713354950861
 21
1471.172936978136
 31
0.0
  0
LINE
  5
117
100
AcDbEntity
  8
17
370
              15
  6
Continuous
 62
               7
100
AcDbLine
 10
2291.7713354950861
 20
1465.8317985852789
 30
0.0
 11
2291.7713354950861
 21
1471.172936978136
 31
0.0
  0
MTEXT
  5
118
100
AcDbEntity
  8
17
 62
               7
100
AcDbMText
 10
2288.0213250315674
 20
1473.1729380244531
 30
0.0
 40
2.0
 41
0.0
 71
               2
 72
               1
  1
15±1_
  7
ＭＳ ゴシック
 11
1.0
 21
0.0000000001745329
 31
0.0
 73
               1
 44
0.7828267384257843
  0
LINE
  5
119
100
AcDbEntity
  8
17
370
              15
  6
Continuous
 62
               7
100
AcDbLine
 10
2284.9414052453858
 20
1464.5351350996621
 30
0.0
 11
2288.4943807756981
 21
1461.2279527868484
 31
0.0
  0
LINE
  5
11A
100
AcDbEntity
  8
17
370
              15
  6
Continuous
 62
               7
100
AcDbLine
 10
2284.9414052453858
 20
1464.5351350996621
 30
0.0
 11
2286.7081515002928
 21
1463.5977943554442
 31
0.0
  0
LINE
  5
11B
100
AcDbEntity
  8
17
370
              15
  6
Continuous
 62
               7
100
AcDbLine
 10
2284.9414052453858
 20
1464.5351350996621
 30
0.0
 11
2286.0027820120677
 21
1462.8400010757136
 31
0.0
  0
MTEXT
  5
11C
100
AcDbEntity
  8
17
 62
               7
100
AcDbMText
 10
2289.3593115970589
 20
1463.7568224369184
 30
0.0
 40
2.0
 41
0.0
 71
               2
 72
               1
  1
R5
  7
ＭＳ ゴシック
 11
0.7319721134591923
 21
-0.6813345911650776
 31
0.0
 73
               1
 44
0.7828267384257843
  0
LINE
  5
11D
100
AcDbEntity
  8
17
370
              15
  6
Continuous
 62
               7
100
AcDbLine
 10
2253.3070497808003
 20
1465.8429592995647
 30
0.0
 11
2248.3070497808003
 21
1465.8429592995647
 31
0.0
  0
LINE
  5
11E
100
AcDbEntity
  8
17
370
              15
  6
Continuous
 62
               7
100
AcDbLine
 10
2245.8070497808003
 20
1463.3429592995647
 30
0.0
 11
2245.8070497808003
 21
1445.8429592995647
 31
0.0
  0
ARC
  5
11F
100
AcDbEntity
  8
17
370
              15
  6
Continuous
 62
               7
100
AcDbCircle
 10
2248.3070497808003
 20
1463.3429592995647
 30
0.0
 40
2.5
100
AcDbArc
 50
90.0
 51
180.0
  0
LINE
  5
120
100
AcDbEntity
  8
17
370
              15
  6
Continuous
 62
               7
100
AcDbLine
 10
2253.3070497808003
 20
1465.3429592995647
 30
0.0
 11
2248.3070497808003
 21
1465.3429592995647
 31
0.0
  0
ARC
  5
121
100
AcDbEntity
  8
17
370
              15
  6
Continuous
 62
               7
100
AcDbCircle
 10
2248.3070497808003
 20
1463.3429592995647
 30
0.0
 40
2.0
100
AcDbArc
 50
90.0
 51
180.0
  0
LINE
  5
122
100
AcDbEntity
  8
17
370
              15
  6
Continuous
 62
               7
100
AcDbLine
 10
2246.3070497808003
 20
1463.3429592995647
 30
0.0
 11
2246.3070497808003
 21
1445.8429592995647
 31
0.0
  0
LINE
  5
123
100
AcDbEntity
  8
17
370
              15
  6
Continuous
 62
               7
100
AcDbLine
 10
2253.3070497808003
 20
1465.8429592995647
 30
0.0
 11
2253.3070497808003
 21
1465.3429592995647
 31
0.0
  0
LINE
  5
124
100
AcDbEntity
  8
17
370
              15
  6
Continuous
 62
               7
100
AcDbLine
 10
2229.6685899593717
 20
1465.8429592995647
 30
0.0
 11
2248.2531881736577
 21
1465.8429592995647
 31
0.0
  0
LINE
  5
125
100
AcDbEntity
  8
17
370
              15
  6
Continuous
 62
               7
100
AcDbLine
 10
2229.6685899593717
 20
1465.8429592995647
 30
0.0
 11
2229.7112789692396
 21
1465.6873309122793
 31
0.0
  0
LINE
  5
126
100
AcDbEntity
  8
17
370
              15
  6
Continuous
 62
               7
100
AcDbLine
 10
2229.7112789692396
 20
1465.6873309122793
 30
0.0
 11
2229.7537115117198
 21
1465.5316867663171
 31
0.0
  0
LINE
  5
127
100
AcDbEntity
  8
17
370
              15
  6
Continuous
 62
               7
100
AcDbLine
 10
2229.7537115117198
 20
1465.5316867663171
 30
0.0
 11
2229.7956311194239
 21
1465.3760111030017
 31
0.0
  0
LINE
  5
128
100
AcDbEntity
  8
17
370
              15
  6
Continuous
 62
               7
100
AcDbLine
 10
2229.7956311194239
 20
1465.3760111030017
 30
0.0
 11
2229.8367813249642
 21
1465.2202881636561
 31
0.0
  0
LINE
  5
129
100
AcDbEntity
  8
17
370
              15
  6
Continuous
 62
               7
100
AcDbLine
 10
2229.8367813249642
 20
1465.2202881636561
 30
0.0
 11
2229.8769056609531
 21
1465.0645021896039
 31
0.0
  0
LINE
  5
12A
100
AcDbEntity
  8
17
370
              15
  6
Continuous
 62
               7
100
AcDbLine
 10
2229.8769056609531
 20
1465.0645021896039
 30
0.0
 11
2229.9157476600021
 21
1464.9086374221679
 31
0.0
  0
LINE
  5
12B
100
AcDbEntity
  8
17
370
              15
  6
Continuous
 62
               7
100
AcDbLine
 10
2229.9157476600021
 20
1464.9086374221679
 30
0.0
 11
2229.9530508547241
 21
1464.752678102672
 31
0.0
  0
LINE
  5
12C
100
AcDbEntity
  8
17
370
              15
  6
Continuous
 62
               7
100
AcDbLine
 10
2229.9530508547241
 20
1464.752678102672
 30
0.0
 11
2229.9885587777303
 21
1464.5966084724391
 31
0.0
  0
LINE
  5
12D
100
AcDbEntity
  8
17
370
              15
  6
Continuous
 62
               7
100
AcDbLine
 10
2229.9885587777303
 20
1464.5966084724391
 30
0.0
 11
2230.022014961633
 21
1464.4404127727926
 31
0.0
  0
LINE
  5
12E
100
AcDbEntity
  8
17
370
              15
  6
Continuous
 62
               7
100
AcDbLine
 10
2230.022014961633
 20
1464.4404127727926
 30
0.0
 11
2230.0531629390448
 21
1464.2840752450559
 31
0.0
  0
LINE
  5
12F
100
AcDbEntity
  8
17
370
              15
  6
Continuous
 62
               7
100
AcDbLine
 10
2230.0531629390448
 20
1464.2840752450559
 30
0.0
 11
2230.0817462425771
 21
1464.1275801305521
 31
0.0
  0
LINE
  5
130
100
AcDbEntity
  8
17
370
              15
  6
Continuous
 62
               7
100
AcDbLine
 10
2230.0817462425771
 20
1464.1275801305521
 30
0.0
 11
2230.1075084048425
 21
1463.9709116706049
 31
0.0
  0
LINE
  5
131
100
AcDbEntity
  8
17
370
              15
  6
Continuous
 62
               7
100
AcDbLine
 10
2230.1075084048425
 20
1463.9709116706049
 30
0.0
 11
2230.1301929584529
 21
1463.8140541065372
 31
0.0
  0
LINE
  5
132
100
AcDbEntity
  8
17
370
              15
  6
Continuous
 62
               7
100
AcDbLine
 10
2230.1301929584529
 20
1463.8140541065372
 30
0.0
 11
2230.1495434360204
 21
1463.6569916796723
 31
0.0
  0
LINE
  5
133
100
AcDbEntity
  8
17
370
              15
  6
Continuous
 62
               7
100
AcDbLine
 10
2230.1495434360204
 20
1463.6569916796723
 30
0.0
 11
2230.1653033701568
 21
1463.4997086313338
 31
0.0
  0
LINE
  5
134
100
AcDbEntity
  8
17
370
              15
  6
Continuous
 62
               7
100
AcDbLine
 10
2230.1653033701568
 20
1463.4997086313338
 30
0.0
 11
2230.1772162934749
 21
1463.3421892028448
 31
0.0
  0
LINE
  5
135
100
AcDbEntity
  8
17
370
              15
  6
Continuous
 62
               7
100
AcDbLine
 10
2230.1772162934749
 20
1463.3421892028448
 30
0.0
 11
2230.1850257385859
 21
1463.1844176355287
 31
0.0
  0
LINE
  5
136
100
AcDbEntity
  8
17
370
              15
  6
Continuous
 62
               7
100
AcDbLine
 10
2230.1850257385859
 20
1463.1844176355287
 30
0.0
 11
2230.1884752381025
 21
1463.0263781707085
 31
0.0
  0
LINE
  5
137
100
AcDbEntity
  8
17
370
              15
  6
Continuous
 62
               7
100
AcDbLine
 10
2230.1884752381025
 20
1463.0263781707085
 30
0.0
 11
2230.1873083246369
 21
1462.8680550497081
 31
0.0
  0
LINE
  5
138
100
AcDbEntity
  8
17
370
              15
  6
Continuous
 62
               7
100
AcDbLine
 10
2230.1873083246369
 20
1462.8680550497081
 30
0.0
 11
2230.1812685308005
 21
1462.7094325138503
 31
0.0
  0
LINE
  5
139
100
AcDbEntity
  8
17
370
              15
  6
Continuous
 62
               7
100
AcDbLine
 10
2230.1812685308005
 20
1462.7094325138503
 30
0.0
 11
2230.1677101213318
 21
1462.521601117927
 31
0.0
  0
LINE
  5
13A
100
AcDbEntity
  8
17
370
              15
  6
Continuous
 62
               7
100
AcDbLine
 10
2230.1677101213318
 20
1462.521601117927
 30
0.0
 11
2230.147830707449
 21
1462.3334223404213
 31
0.0
  0
LINE
  5
13B
100
AcDbEntity
  8
17
370
              15
  6
Continuous
 62
               7
100
AcDbLine
 10
2230.147830707449
 20
1462.3334223404213
 30
0.0
 11
2230.1224719386755
 21
1462.1449889100838
 31
0.0
  0
LINE
  5
13C
100
AcDbEntity
  8
17
370
              15
  6
Continuous
 62
               7
100
AcDbLine
 10
2230.1224719386755
 20
1462.1449889100838
 30
0.0
 11
2230.0924754645348
 21
1461.9563935556664
 31
0.0
  0
LINE
  5
13D
100
AcDbEntity
  8
17
370
              15
  6
Continuous
 62
               7
100
AcDbLine
 10
2230.0924754645348
 20
1461.9563935556664
 30
0.0
 11
2230.0586829345498
 21
1461.7677290059196
 31
0.0
  0
LINE
  5
13E
100
AcDbEntity
  8
17
370
              15
  6
Continuous
 62
               7
100
AcDbLine
 10
2230.0586829345498
 20
1461.7677290059196
 30
0.0
 11
2230.0219359982439
 21
1461.5790879895947
 31
0.0
  0
LINE
  5
13F
100
AcDbEntity
  8
17
370
              15
  6
Continuous
 62
               7
100
AcDbLine
 10
2230.0219359982439
 20
1461.5790879895947
 30
0.0
 11
2229.9830763051414
 21
1461.3905632354429
 31
0.0
  0
LINE
  5
140
100
AcDbEntity
  8
17
370
              15
  6
Continuous
 62
               7
100
AcDbLine
 10
2229.9830763051414
 20
1461.3905632354429
 30
0.0
 11
2229.9429455047643
 21
1461.2022474722155
 31
0.0
  0
LINE
  5
141
100
AcDbEntity
  8
17
370
              15
  6
Continuous
 62
               7
100
AcDbLine
 10
2229.9429455047643
 20
1461.2022474722155
 30
0.0
 11
2229.9023852466366
 21
1461.0142334286634
 31
0.0
  0
LINE
  5
142
100
AcDbEntity
  8
17
370
              15
  6
Continuous
 62
               7
100
AcDbLine
 10
2229.9023852466366
 20
1461.0142334286634
 30
0.0
 11
2229.8622371802821
 21
1460.8266138335377
 31
0.0
  0
LINE
  5
143
100
AcDbEntity
  8
17
370
              15
  6
Continuous
 62
               7
100
AcDbLine
 10
2229.8622371802821
 20
1460.8266138335377
 30
0.0
 11
2229.8233429552233
 21
1460.6394814155899
 31
0.0
  0
LINE
  5
144
100
AcDbEntity
  8
17
370
              15
  6
Continuous
 62
               7
100
AcDbLine
 10
2229.8233429552233
 20
1460.6394814155899
 30
0.0
 11
2229.7865442209841
 21
1460.4529289035709
 31
0.0
  0
LINE
  5
145
100
AcDbEntity
  8
17
370
              15
  6
Continuous
 62
               7
100
AcDbLine
 10
2229.7865442209841
 20
1460.4529289035709
 30
0.0
 11
2229.7526826270878
 21
1460.2670490262319
 31
0.0
  0
LINE
  5
146
100
AcDbEntity
  8
17
370
              15
  6
Continuous
 62
               7
100
AcDbLine
 10
2229.7526826270878
 20
1460.2670490262319
 30
0.0
 11
2229.7225998230574
 21
1460.0819345123239
 31
0.0
  0
LINE
  5
147
100
AcDbEntity
  8
17
370
              15
  6
Continuous
 62
               7
100
AcDbLine
 10
2229.7225998230574
 20
1460.0819345123239
 30
0.0
 11
2229.6971374584164
 21
1459.897678090598
 31
0.0
  0
LINE
  5
148
100
AcDbEntity
  8
17
370
              15
  6
Continuous
 62
               7
100
AcDbLine
 10
2229.6971374584164
 20
1459.897678090598
 30
0.0
 11
2229.6771371826885
 21
1459.7143724898058
 31
0.0
  0
LINE
  5
149
100
AcDbEntity
  8
17
370
              15
  6
Continuous
 62
               7
100
AcDbLine
 10
2229.6771371826885
 20
1459.7143724898058
 30
0.0
 11
2229.6634406453968
 21
1459.5321104386978
 31
0.0
  0
LINE
  5
14A
100
AcDbEntity
  8
17
370
              15
  6
Continuous
 62
               7
100
AcDbLine
 10
2229.6634406453968
 20
1459.5321104386978
 30
0.0
 11
2229.6568894960642
 21
1459.3509846660259
 31
0.0
  0
LINE
  5
14B
100
AcDbEntity
  8
17
370
              15
  6
Continuous
 62
               7
100
AcDbLine
 10
2229.6568894960642
 20
1459.3509846660259
 30
0.0
 11
2229.658325384215
 21
1459.1710879005404
 31
0.0
  0
LINE
  5
14C
100
AcDbEntity
  8
17
370
              15
  6
Continuous
 62
               7
100
AcDbLine
 10
2229.658325384215
 20
1459.1710879005404
 30
0.0
 11
2229.6685899593717
 21
1458.9925128709931
 31
0.0
  0
LINE
  5
14D
100
AcDbEntity
  8
17
370
              15
  6
Continuous
 62
               7
100
AcDbLine
 10
2229.6685899593717
 20
1458.9925128709931
 30
0.0
 11
2229.6900239468177
 21
1458.8030874677654
 31
0.0
  0
LINE
  5
14E
100
AcDbEntity
  8
17
370
              15
  6
Continuous
 62
               7
100
AcDbLine
 10
2229.6900239468177
 20
1458.8030874677654
 30
0.0
 11
2229.721963282349
 21
1458.6151986650343
 31
0.0
  0
LINE
  5
14F
100
AcDbEntity
  8
17
370
              15
  6
Continuous
 62
               7
100
AcDbLine
 10
2229.721963282349
 20
1458.6151986650343
 30
0.0
 11
2229.7638550529082
 21
1458.4287655890894
 31
0.0
  0
LINE
  5
150
100
AcDbEntity
  8
17
370
              15
  6
Continuous
 62
               7
100
AcDbLine
 10
2229.7638550529082
 20
1458.4287655890894
 30
0.0
 11
2229.8151463454383
 21
1458.2437073662204
 31
0.0
  0
LINE
  5
151
100
AcDbEntity
  8
17
370
              15
  6
Continuous
 62
               7
100
AcDbLine
 10
2229.8151463454383
 20
1458.2437073662204
 30
0.0
 11
2229.8752842468825
 21
1458.059943122717
 31
0.0
  0
LINE
  5
152
100
AcDbEntity
  8
17
370
              15
  6
Continuous
 62
               7
100
AcDbLine
 10
2229.8752842468825
 20
1458.059943122717
 30
0.0
 11
2229.9437158441833
 21
1457.8773919848686
 31
0.0
  0
LINE
  5
153
100
AcDbEntity
  8
17
370
              15
  6
Continuous
 62
               7
100
AcDbLine
 10
2229.9437158441833
 20
1457.8773919848686
 30
0.0
 11
2230.0198882242839
 21
1457.6959730789652
 31
0.0
  0
LINE
  5
154
100
AcDbEntity
  8
17
370
              15
  6
Continuous
 62
               7
100
AcDbLine
 10
2230.0198882242839
 20
1457.6959730789652
 30
0.0
 11
2230.1032484741272
 21
1457.5156055312962
 31
0.0
  0
LINE
  5
155
100
AcDbEntity
  8
17
370
              15
  6
Continuous
 62
               7
100
AcDbLine
 10
2230.1032484741272
 20
1457.5156055312962
 30
0.0
 11
2230.193243680656
 21
1457.3362084681514
 31
0.0
  0
LINE
  5
156
100
AcDbEntity
  8
17
370
              15
  6
Continuous
 62
               7
100
AcDbLine
 10
2230.193243680656
 20
1457.3362084681514
 30
0.0
 11
2230.2893209308127
 21
1457.1577010158203
 31
0.0
  0
LINE
  5
157
100
AcDbEntity
  8
17
370
              15
  6
Continuous
 62
               7
100
AcDbLine
 10
2230.2893209308127
 20
1457.1577010158203
 30
0.0
 11
2230.3909273115405
 21
1456.9800023005928
 31
0.0
  0
LINE
  5
158
100
AcDbEntity
  8
17
370
              15
  6
Continuous
 62
               7
100
AcDbLine
 10
2230.3909273115405
 20
1456.9800023005928
 30
0.0
 11
2230.4975099097828
 21
1456.8030314487582
 31
0.0
  0
LINE
  5
159
100
AcDbEntity
  8
17
370
              15
  6
Continuous
 62
               7
100
AcDbLine
 10
2230.4975099097828
 20
1456.8030314487582
 30
0.0
 11
2230.608515812482
 21
1456.6267075866067
 31
0.0
  0
LINE
  5
15A
100
AcDbEntity
  8
17
370
              15
  6
Continuous
 62
               7
100
AcDbLine
 10
2230.608515812482
 20
1456.6267075866067
 30
0.0
 11
2230.7233921065808
 21
1456.4509498404275
 31
0.0
  0
LINE
  5
15B
100
AcDbEntity
  8
17
370
              15
  6
Continuous
 62
               7
100
AcDbLine
 10
2230.7233921065808
 20
1456.4509498404275
 30
0.0
 11
2230.8415858790222
 21
1456.2756773365102
 31
0.0
  0
LINE
  5
15C
100
AcDbEntity
  8
17
370
              15
  6
Continuous
 62
               7
100
AcDbLine
 10
2230.8415858790222
 20
1456.2756773365102
 30
0.0
 11
2230.9625442167494
 21
1456.1008092011448
 31
0.0
  0
LINE
  5
15D
100
AcDbEntity
  8
17
370
              15
  6
Continuous
 62
               7
100
AcDbLine
 10
2230.9625442167494
 20
1456.1008092011448
 30
0.0
 11
2231.0857142067052
 21
1455.9262645606207
 31
0.0
  0
LINE
  5
15E
100
AcDbEntity
  8
17
370
              15
  6
Continuous
 62
               7
100
AcDbLine
 10
2231.0857142067052
 20
1455.9262645606207
 30
0.0
 11
2231.2105429358321
 21
1455.7519625412276
 31
0.0
  0
LINE
  5
15F
100
AcDbEntity
  8
17
370
              15
  6
Continuous
 62
               7
100
AcDbLine
 10
2231.2105429358321
 20
1455.7519625412276
 30
0.0
 11
2231.3364774910733
 21
1455.5778222692552
 31
0.0
  0
LINE
  5
160
100
AcDbEntity
  8
17
370
              15
  6
Continuous
 62
               7
100
AcDbLine
 10
2231.3364774910733
 20
1455.5778222692552
 30
0.0
 11
2231.4629649593717
 21
1455.4037628709932
 31
0.0
  0
LINE
  5
161
100
AcDbEntity
  8
17
370
              15
  6
Continuous
 62
               7
100
AcDbLine
 10
2246.3070497808003
 20
1445.8429592995647
 30
0.0
 11
2246.2820296014288
 21
1445.8429715669074
 31
0.0
  0
LINE
  5
162
100
AcDbEntity
  8
17
370
              15
  6
Continuous
 62
               7
100
AcDbLine
 10
2246.2820296014288
 20
1445.8429715669074
 30
0.0
 11
2246.2570097255066
 21
1445.8429836497789
 31
0.0
  0
LINE
  5
163
100
AcDbEntity
  8
17
370
              15
  6
Continuous
 62
               7
100
AcDbLine
 10
2246.2570097255066
 20
1445.8429836497789
 30
0.0
 11
2246.2319904564824
 21
1445.8429953637076
 31
0.0
  0
LINE
  5
164
100
AcDbEntity
  8
17
370
              15
  6
Continuous
 62
               7
100
AcDbLine
 10
2246.2319904564824
 20
1445.8429953637076
 30
0.0
 11
2246.2069720978061
 21
1445.8430065242226
 31
0.0
  0
LINE
  5
165
100
AcDbEntity
  8
17
370
              15
  6
Continuous
 62
               7
100
AcDbLine
 10
2246.2069720978061
 20
1445.8430065242226
 30
0.0
 11
2246.1819549529264
 21
1445.8430169468522
 31
0.0
  0
LINE
  5
166
100
AcDbEntity
  8
17
370
              15
  6
Continuous
 62
               7
100
AcDbLine
 10
2246.1819549529264
 20
1445.8430169468522
 30
0.0
 11
2246.156939325293
 21
1445.8430264471251
 31
0.0
  0
LINE
  5
167
100
AcDbEntity
  8
17
370
              15
  6
Continuous
 62
               7
100
AcDbLine
 10
2246.156939325293
 20
1445.8430264471251
 30
0.0
 11
2246.1319255183544
 21
1445.8430348405702
 31
0.0
  0
LINE
  5
168
100
AcDbEntity
  8
17
370
              15
  6
Continuous
 62
               7
100
AcDbLine
 10
2246.1319255183544
 20
1445.8430348405702
 30
0.0
 11
2246.1069138355606
 21
1445.8430419427159
 31
0.0
  0
LINE
  5
169
100
AcDbEntity
  8
17
370
              15
  6
Continuous
 62
               7
100
AcDbLine
 10
2246.1069138355606
 20
1445.8430419427159
 30
0.0
 11
2246.0819045803601
 21
1445.8430475690911
 31
0.0
  0
LINE
  5
16A
100
AcDbEntity
  8
17
370
              15
  6
Continuous
 62
               7
100
AcDbLine
 10
2246.0819045803601
 20
1445.8430475690911
 30
0.0
 11
2246.0568980562025
 21
1445.8430515352247
 31
0.0
  0
LINE
  5
16B
100
AcDbEntity
  8
17
370
              15
  6
Continuous
 62
               7
100
AcDbLine
 10
2246.0568980562025
 20
1445.8430515352247
 30
0.0
 11
2246.0318945665367
 21
1445.8430536566448
 31
0.0
  0
LINE
  5
16C
100
AcDbEntity
  8
17
370
              15
  6
Continuous
 62
               7
100
AcDbLine
 10
2246.0318945665367
 20
1445.8430536566448
 30
0.0
 11
2246.006894414812
 21
1445.8430537488805
 31
0.0
  0
LINE
  5
16D
100
AcDbEntity
  8
17
370
              15
  6
Continuous
 62
               7
100
AcDbLine
 10
2246.006894414812
 20
1445.8430537488805
 30
0.0
 11
2245.9818979044776
 21
1445.8430516274602
 31
0.0
  0
LINE
  5
16E
100
AcDbEntity
  8
17
370
              15
  6
Continuous
 62
               7
100
AcDbLine
 10
2245.9818979044776
 20
1445.8430516274602
 30
0.0
 11
2245.9569053389828
 21
1445.843047107913
 31
0.0
  0
LINE
  5
16F
100
AcDbEntity
  8
17
370
              15
  6
Continuous
 62
               7
100
AcDbLine
 10
2245.9569053389828
 20
1445.843047107913
 30
0.0
 11
2245.9319170217768
 21
1445.8430400057671
 31
0.0
  0
LINE
  5
170
100
AcDbEntity
  8
17
370
              15
  6
Continuous
 62
               7
100
AcDbLine
 10
2245.9319170217768
 20
1445.8430400057671
 30
0.0
 11
2245.906933256309
 21
1445.8430301365515
 31
0.0
  0
LINE
  5
171
100
AcDbEntity
  8
17
370
              15
  6
Continuous
 62
               7
100
AcDbLine
 10
2245.906933256309
 20
1445.8430301365515
 30
0.0
 11
2245.8819543460281
 21
1445.8430173157947
 31
0.0
  0
LINE
  5
172
100
AcDbEntity
  8
17
370
              15
  6
Continuous
 62
               7
100
AcDbLine
 10
2245.8819543460281
 20
1445.8430173157947
 30
0.0
 11
2245.8569805943835
 21
1445.8430013590255
 31
0.0
  0
LINE
  5
173
100
AcDbEntity
  8
17
370
              15
  6
Continuous
 62
               7
100
AcDbLine
 10
2245.8569805943835
 20
1445.8430013590255
 30
0.0
 11
2245.8320123048247
 21
1445.8429820817726
 31
0.0
  0
LINE
  5
174
100
AcDbEntity
  8
17
370
              15
  6
Continuous
 62
               7
100
AcDbLine
 10
2245.8320123048247
 20
1445.8429820817726
 30
0.0
 11
2245.8070497808003
 21
1445.8429592995647
 31
0.0
  0
LINE
  5
175
100
AcDbEntity
  8
17
370
              15
  6
Continuous
 62
               7
100
AcDbLine
 10
2245.8070497808003
 20
1445.8429592995647
 30
0.0
 11
2245.6477135729983
 21
1445.8427405685325
 31
0.0
  0
LINE
  5
176
100
AcDbEntity
  8
17
370
              15
  6
Continuous
 62
               7
100
AcDbLine
 10
2245.6477135729983
 20
1445.8427405685325
 30
0.0
 11
2245.4885847079495
 21
1445.84245339323
 31
0.0
  0
LINE
  5
177
100
AcDbEntity
  8
17
370
              15
  6
Continuous
 62
               7
100
AcDbLine
 10
2245.4885847079495
 20
1445.84245339323
 30
0.0
 11
2245.3296228375302
 21
1445.8421799043872
 31
0.0
  0
LINE
  5
178
100
AcDbEntity
  8
17
370
              15
  6
Continuous
 62
               7
100
AcDbLine
 10
2245.3296228375302
 20
1445.8421799043872
 30
0.0
 11
2245.1707876136184
 21
1445.8420022327334
 31
0.0
  0
LINE
  5
179
100
AcDbEntity
  8
17
370
              15
  6
Continuous
 62
               7
100
AcDbLine
 10
2245.1707876136184
 20
1445.8420022327334
 30
0.0
 11
2245.0120386880917
 21
1445.8420025089993
 31
0.0
  0
LINE
  5
17A
100
AcDbEntity
  8
17
370
              15
  6
Continuous
 62
               7
100
AcDbLine
 10
2245.0120386880917
 20
1445.8420025089993
 30
0.0
 11
2244.8533357128263
 21
1445.8422628639139
 31
0.0
  0
LINE
  5
17B
100
AcDbEntity
  8
17
370
              15
  6
Continuous
 62
               7
100
AcDbLine
 10
2244.8533357128263
 20
1445.8422628639139
 30
0.0
 11
2244.6946383397008
 21
1445.8428654282072
 31
0.0
  0
LINE
  5
17C
100
AcDbEntity
  8
17
370
              15
  6
Continuous
 62
               7
100
AcDbLine
 10
2244.6946383397008
 20
1445.8428654282072
 30
0.0
 11
2244.5359062205921
 21
1445.8438923326094
 31
0.0
  0
LINE
  5
17D
100
AcDbEntity
  8
17
370
              15
  6
Continuous
 62
               7
100
AcDbLine
 10
2244.5359062205921
 20
1445.8438923326094
 30
0.0
 11
2244.3770990073772
 21
1445.8454257078499
 31
0.0
  0
LINE
  5
17E
100
AcDbEntity
  8
17
370
              15
  6
Continuous
 62
               7
100
AcDbLine
 10
2244.3770990073772
 20
1445.8454257078499
 30
0.0
 11
2244.2181763519338
 21
1445.8475476846588
 31
0.0
  0
LINE
  5
17F
100
AcDbEntity
  8
17
370
              15
  6
Continuous
 62
               7
100
AcDbLine
 10
2244.2181763519338
 20
1445.8475476846588
 30
0.0
 11
2244.059097906139
 21
1445.8503403937659
 31
0.0
  0
LINE
  5
180
100
AcDbEntity
  8
17
370
              15
  6
Continuous
 62
               7
100
AcDbLine
 10
2244.059097906139
 20
1445.8503403937659
 30
0.0
 11
2243.8998233218708
 21
1445.8538859659009
 31
0.0
  0
LINE
  5
181
100
AcDbEntity
  8
17
370
              15
  6
Continuous
 62
               7
100
AcDbLine
 10
2243.8998233218708
 20
1445.8538859659009
 30
0.0
 11
2243.7403122510054
 21
1445.8582665317936
 31
0.0
  0
LINE
  5
182
100
AcDbEntity
  8
17
370
              15
  6
Continuous
 62
               7
100
AcDbLine
 10
2243.7403122510054
 20
1445.8582665317936
 30
0.0
 11
2243.5805243454215
 21
1445.8635642221739
 31
0.0
  0
LINE
  5
183
100
AcDbEntity
  8
17
370
              15
  6
Continuous
 62
               7
100
AcDbLine
 10
2243.5805243454215
 20
1445.8635642221739
 30
0.0
 11
2243.420419256995
 21
1445.8698611677714
 31
0.0
  0
LINE
  5
184
100
AcDbEntity
  8
17
370
              15
  6
Continuous
 62
               7
100
AcDbLine
 10
2243.420419256995
 20
1445.8698611677714
 30
0.0
 11
2243.2599566376043
 21
1445.8772394993164
 31
0.0
  0
LINE
  5
185
100
AcDbEntity
  8
17
370
              15
  6
Continuous
 62
               7
100
AcDbLine
 10
2243.2599566376043
 20
1445.8772394993164
 30
0.0
 11
2243.0990961391267
 21
1445.8857813475383
 31
0.0
  0
LINE
  5
186
100
AcDbEntity
  8
17
370
              15
  6
Continuous
 62
               7
100
AcDbLine
 10
2243.0990961391267
 20
1445.8857813475383
 30
0.0
 11
2242.9377974134386
 21
1445.895568843167
 31
0.0
  0
LINE
  5
187
100
AcDbEntity
  8
17
370
              15
  6
Continuous
 62
               7
100
AcDbLine
 10
2242.9377974134386
 20
1445.895568843167
 30
0.0
 11
2242.7760201124183
 21
1445.9066841169326
 31
0.0
  0
LINE
  5
188
100
AcDbEntity
  8
17
370
              15
  6
Continuous
 62
               7
100
AcDbLine
 10
2242.7760201124183
 20
1445.9066841169326
 30
0.0
 11
2242.6137238879433
 21
1445.9192092995645
 31
0.0
  0
LINE
  5
189
100
AcDbEntity
  8
17
370
              15
  6
Continuous
 62
               7
100
AcDbLine
 10
2242.6137238879433
 20
1445.9192092995645
 30
0.0
 11
2242.3883190655365
 21
1445.9390234143696
 31
0.0
  0
LINE
  5
18A
100
AcDbEntity
  8
17
370
              15
  6
Continuous
 62
               7
100
AcDbLine
 10
2242.3883190655365
 20
1445.9390234143696
 30
0.0
 11
2242.1622059542419
 21
1445.9619514813635
 31
0.0
  0
LINE
  5
18B
100
AcDbEntity
  8
17
370
              15
  6
Continuous
 62
               7
100
AcDbLine
 10
2242.1622059542419
 20
1445.9619514813635
 30
0.0
 11
2241.9357468989047
 21
1445.9882511875787
 31
0.0
  0
LINE
  5
18C
100
AcDbEntity
  8
17
370
              15
  6
Continuous
 62
               7
100
AcDbLine
 10
2241.9357468989047
 20
1445.9882511875787
 30
0.0
 11
2241.709304244368
 21
1446.0181802200473
 31
0.0
  0
LINE
  5
18D
100
AcDbEntity
  8
17
370
              15
  6
Continuous
 62
               7
100
AcDbLine
 10
2241.709304244368
 20
1446.0181802200473
 30
0.0
 11
2241.4832403354767
 21
1446.0519962658009
 31
0.0
  0
LINE
  5
18E
100
AcDbEntity
  8
17
370
              15
  6
Continuous
 62
               7
100
AcDbLine
 10
2241.4832403354767
 20
1446.0519962658009
 30
0.0
 11
2241.2579175170749
 21
1446.0899570118718
 31
0.0
  0
LINE
  5
18F
100
AcDbEntity
  8
17
370
              15
  6
Continuous
 62
               7
100
AcDbLine
 10
2241.2579175170749
 20
1446.0899570118718
 30
0.0
 11
2241.0336981340074
 21
1446.1323201452924
 31
0.0
  0
LINE
  5
190
100
AcDbEntity
  8
17
370
              15
  6
Continuous
 62
               7
100
AcDbLine
 10
2241.0336981340074
 20
1446.1323201452924
 30
0.0
 11
2240.8109445311175
 21
1446.1793433530941
 31
0.0
  0
LINE
  5
191
100
AcDbEntity
  8
17
370
              15
  6
Continuous
 62
               7
100
AcDbLine
 10
2240.8109445311175
 20
1446.1793433530941
 30
0.0
 11
2240.5900190532502
 21
1446.2312843223094
 31
0.0
  0
LINE
  5
192
100
AcDbEntity
  8
17
370
              15
  6
Continuous
 62
               7
100
AcDbLine
 10
2240.5900190532502
 20
1446.2312843223094
 30
0.0
 11
2240.3712840452499
 21
1446.2884007399703
 31
0.0
  0
LINE
  5
193
100
AcDbEntity
  8
17
370
              15
  6
Continuous
 62
               7
100
AcDbLine
 10
2240.3712840452499
 20
1446.2884007399703
 30
0.0
 11
2240.1551018519604
 21
1446.3509502931088
 31
0.0
  0
LINE
  5
194
100
AcDbEntity
  8
17
370
              15
  6
Continuous
 62
               7
100
AcDbLine
 10
2240.1551018519604
 20
1446.3509502931088
 30
0.0
 11
2239.9418348182262
 21
1446.4191906687568
 31
0.0
  0
LINE
  5
195
100
AcDbEntity
  8
17
370
              15
  6
Continuous
 62
               7
100
AcDbLine
 10
2239.9418348182262
 20
1446.4191906687568
 30
0.0
 11
2239.7318452888917
 21
1446.4933795539466
 31
0.0
  0
LINE
  5
196
100
AcDbEntity
  8
17
370
              15
  6
Continuous
 62
               7
100
AcDbLine
 10
2239.7318452888917
 20
1446.4933795539466
 30
0.0
 11
2239.5254956088011
 21
1446.5737746357102
 31
0.0
  0
LINE
  5
197
100
AcDbEntity
  8
17
370
              15
  6
Continuous
 62
               7
100
AcDbLine
 10
2239.5254956088011
 20
1446.5737746357102
 30
0.0
 11
2239.3231481227986
 21
1446.6606336010798
 31
0.0
  0
LINE
  5
198
100
AcDbEntity
  8
17
370
              15
  6
Continuous
 62
               7
100
AcDbLine
 10
2239.3231481227986
 20
1446.6606336010798
 30
0.0
 11
2239.1251651757284
 21
1446.754214137087
 31
0.0
  0
LINE
  5
199
100
AcDbEntity
  8
17
370
              15
  6
Continuous
 62
               7
100
AcDbLine
 10
2239.1251651757284
 20
1446.754214137087
 30
0.0
 11
2238.9319091124348
 21
1446.8547739307642
 31
0.0
  0
LINE
  5
19A
100
AcDbEntity
  8
17
370
              15
  6
Continuous
 62
               7
100
AcDbLine
 10
2238.9319091124348
 20
1446.8547739307642
 30
0.0
 11
2238.7437422777625
 21
1446.9625706691434
 31
0.0
  0
LINE
  5
19B
100
AcDbEntity
  8
17
370
              15
  6
Continuous
 62
               7
100
AcDbLine
 10
2238.7437422777625
 20
1446.9625706691434
 30
0.0
 11
2238.5610270165553
 21
1447.0778620392566
 31
0.0
  0
LINE
  5
19C
100
AcDbEntity
  8
17
370
              15
  6
Continuous
 62
               7
100
AcDbLine
 10
2238.5610270165553
 20
1447.0778620392566
 30
0.0
 11
2238.3841256736573
 21
1447.2009057281361
 31
0.0
  0
LINE
  5
19D
100
AcDbEntity
  8
17
370
              15
  6
Continuous
 62
               7
100
AcDbLine
 10
2238.3841256736573
 20
1447.2009057281361
 30
0.0
 11
2238.2428555456499
 21
1447.3082799526637
 31
0.0
  0
LINE
  5
19E
100
AcDbEntity
  8
17
370
              15
  6
Continuous
 62
               7
100
AcDbLine
 10
2238.2428555456499
 20
1447.3082799526637
 30
0.0
 11
2238.1055727175553
 21
1447.4208253129786
 31
0.0
  0
LINE
  5
19F
100
AcDbEntity
  8
17
370
              15
  6
Continuous
 62
               7
100
AcDbLine
 10
2238.1055727175553
 20
1447.4208253129786
 30
0.0
 11
2237.9720673314841
 21
1447.5382696440388
 31
0.0
  0
LINE
  5
1A0
100
AcDbEntity
  8
17
370
              15
  6
Continuous
 62
               7
100
AcDbLine
 10
2237.9720673314841
 20
1447.5382696440388
 30
0.0
 11
2237.8421295295457
 21
1447.6603407808032
 31
0.0
  0
LINE
  5
1A1
100
AcDbEntity
  8
17
370
              15
  6
Continuous
 62
               7
100
AcDbLine
 10
2237.8421295295457
 20
1447.6603407808032
 30
0.0
 11
2237.7155494538501
 21
1447.7867665582301
 31
0.0
  0
LINE
  5
1A2
100
AcDbEntity
  8
17
370
              15
  6
Continuous
 62
               7
100
AcDbLine
 10
2237.7155494538501
 20
1447.7867665582301
 30
0.0
 11
2237.5921172465069
 21
1447.9172748112785
 31
0.0
  0
LINE
  5
1A3
100
AcDbEntity
  8
17
370
              15
  6
Continuous
 62
               7
100
AcDbLine
 10
2237.5921172465069
 20
1447.9172748112785
 30
0.0
 11
2237.471623049626
 21
1448.0515933749066
 31
0.0
  0
LINE
  5
1A4
100
AcDbEntity
  8
17
370
              15
  6
Continuous
 62
               7
100
AcDbLine
 10
2237.471623049626
 20
1448.0515933749066
 30
0.0
 11
2237.3538570053179
 21
1448.1894500840731
 31
0.0
  0
LINE
  5
1A5
100
AcDbEntity
  8
17
370
              15
  6
Continuous
 62
               7
100
AcDbLine
 10
2237.3538570053179
 20
1448.1894500840731
 30
0.0
 11
2237.2386092556917
 21
1448.3305727737368
 31
0.0
  0
LINE
  5
1A6
100
AcDbEntity
  8
17
370
              15
  6
Continuous
 62
               7
100
AcDbLine
 10
2237.2386092556917
 20
1448.3305727737368
 30
0.0
 11
2237.1256699428573
 21
1448.4746892788557
 31
0.0
  0
LINE
  5
1A7
100
AcDbEntity
  8
17
370
              15
  6
Continuous
 62
               7
100
AcDbLine
 10
2237.1256699428573
 20
1448.4746892788557
 30
0.0
 11
2237.0148292089243
 21
1448.6215274343892
 31
0.0
  0
LINE
  5
1A8
100
AcDbEntity
  8
17
370
              15
  6
Continuous
 62
               7
100
AcDbLine
 10
2237.0148292089243
 20
1448.6215274343892
 30
0.0
 11
2236.9058771960031
 21
1448.7708150752953
 31
0.0
  0
LINE
  5
1A9
100
AcDbEntity
  8
17
370
              15
  6
Continuous
 62
               7
100
AcDbLine
 10
2236.9058771960031
 20
1448.7708150752953
 30
0.0
 11
2236.7986040462033
 21
1448.9222800365326
 31
0.0
  0
LINE
  5
1AA
100
AcDbEntity
  8
17
370
              15
  6
Continuous
 62
               7
100
AcDbLine
 10
2236.7986040462033
 20
1448.9222800365326
 30
0.0
 11
2236.6927999016348
 21
1449.07565015306
 31
0.0
  0
LINE
  5
1AB
100
AcDbEntity
  8
17
370
              15
  6
Continuous
 62
               7
100
AcDbLine
 10
2236.6927999016348
 20
1449.07565015306
 30
0.0
 11
2236.5882549044072
 21
1449.2306532598359
 31
0.0
  0
LINE
  5
1AC
100
AcDbEntity
  8
17
370
              15
  6
Continuous
 62
               7
100
AcDbLine
 10
2236.5882549044072
 20
1449.2306532598359
 30
0.0
 11
2236.4847591966304
 21
1449.3870171918188
 31
0.0
  0
LINE
  5
1AD
100
AcDbEntity
  8
17
370
              15
  6
Continuous
 62
               7
100
AcDbLine
 10
2236.4847591966304
 20
1449.3870171918188
 30
0.0
 11
2236.3821029204146
 21
1449.5444697839675
 31
0.0
  0
LINE
  5
1AE
100
AcDbEntity
  8
17
370
              15
  6
Continuous
 62
               7
100
AcDbLine
 10
2236.3821029204146
 20
1449.5444697839675
 30
0.0
 11
2236.280076217869
 21
1449.7027388712404
 31
0.0
  0
LINE
  5
1AF
100
AcDbEntity
  8
17
370
              15
  6
Continuous
 62
               7
100
AcDbLine
 10
2236.280076217869
 20
1449.7027388712404
 30
0.0
 11
2236.1784692311039
 21
1449.8615522885959
 31
0.0
  0
LINE
  5
1B0
100
AcDbEntity
  8
17
370
              15
  6
Continuous
 62
               7
100
AcDbLine
 10
2236.1784692311039
 20
1449.8615522885959
 30
0.0
 11
2236.0770721022291
 21
1450.0206378709931
 31
0.0
  0
LINE
  5
1B1
100
AcDbEntity
  8
17
370
              15
  6
Continuous
 62
               7
100
AcDbLine
 10
2245.8070497808003
 20
1471.1840976924218
 30
0.0
 11
2253.3070497808003
 21
1471.1840976924218
 31
0.0
  0
LINE
  5
1B2
100
AcDbEntity
  8
17
370
              15
  6
Continuous
 62
               7
100
AcDbLine
 10
2245.8070497808003
 20
1471.1840976924218
 30
0.0
 11
2247.7389014333785
 21
1471.7017357826269
 31
0.0
  0
LINE
  5
1B3
100
AcDbEntity
  8
17
370
              15
  6
Continuous
 62
               7
100
AcDbLine
 10
2245.8070497808003
 20
1471.1840976924218
 30
0.0
 11
2247.7389014333785
 21
1470.6664596022167
 31
0.0
  0
LINE
  5
1B4
100
AcDbEntity
  8
17
370
              15
  6
Continuous
 62
               7
100
AcDbLine
 10
2253.3070497808003
 20
1471.1840976924218
 30
0.0
 11
2251.3751981282221
 21
1470.6664596022167
 31
0.0
  0
LINE
  5
1B5
100
AcDbEntity
  8
17
370
              15
  6
Continuous
 62
               7
100
AcDbLine
 10
2253.3070497808003
 20
1471.1840976924218
 30
0.0
 11
2251.3751981282221
 21
1471.7017357826269
 31
0.0
  0
LINE
  5
1B6
100
AcDbEntity
  8
17
370
              15
  6
Continuous
 62
               7
100
AcDbLine
 10
2245.8070497808003
 20
1463.8429592995647
 30
0.0
 11
2245.8070497808003
 21
1471.6840976924218
 31
0.0
  0
LINE
  5
1B7
100
AcDbEntity
  8
17
370
              15
  6
Continuous
 62
               7
100
AcDbLine
 10
2253.3070497808003
 20
1466.3429592995647
 30
0.0
 11
2253.3070497808003
 21
1471.6840976924218
 31
0.0
  0
MTEXT
  5
1B8
100
AcDbEntity
  8
17
 62
               7
100
AcDbMText
 10
2249.557055012036
 20
1473.6840952510154
 30
0.0
 40
2.0
 41
0.0
 71
               2
 72
               1
  1
15±1_
  7
ＭＳ ゴシック
 11
1.0
 21
0.0000000001745329
 31
0.0
 73
               1
 44
0.7828267384257843
  0
LINE
  5
1B9
100
AcDbEntity
  8
17
370
              15
  6
Continuous
 62
               7
100
AcDbLine
 10
2246.4771195311
 20
1465.0462958139478
 30
0.0
 11
2250.0300950614128
 21
1461.7391135011342
 31
0.0
  0
LINE
  5
1BA
100
AcDbEntity
  8
17
370
              15
  6
Continuous
 62
               7
100
AcDbLine
 10
2246.4771195311
 20
1465.0462958139478
 30
0.0
 11
2248.2438657860075
 21
1464.10895506973
 31
0.0
  0
LINE
  5
1BB
100
AcDbEntity
  8
17
370
              15
  6
Continuous
 62
               7
100
AcDbLine
 10
2246.4771195311
 20
1465.0462958139478
 30
0.0
 11
2247.5384962977819
 21
1463.3511617899994
 31
0.0
  0
MTEXT
  5
1BC
100
AcDbEntity
  8
17
 62
               7
100
AcDbMText
 10
2250.8950293704966
 20
1464.2679857669964
 30
0.0
 40
2.0
 41
0.0
 71
               2
 72
               1
  1
R5
  7
ＭＳ ゴシック
 11
0.7319721134591923
 21
-0.6813345911650776
 31
0.0
 73
               1
 44
0.7828267384257843
  0
LINE
  5
1BD
100
AcDbEntity
  8
17
370
              15
  6
Continuous
 62
               7
100
AcDbLine
 10
2261.5191033522287
 20
1439.0349235852789
 30
0.0
 11
2223.5191033522287
 21
1439.0349235852789
 31
0.0
  0
LINE
  5
1BE
100
AcDbEntity
  8
17
370
              15
  6
Continuous
 62
               7
100
AcDbLine
 10
2266.5191033522287
 20
1439.0349235852789
 30
0.0
 11
2305.0191033522287
 21
1439.0349235852789
 31
0.0
  0
MTEXT
  5
1BF
100
AcDbEntity
  8
17
 62
               7
100
AcDbMText
 10
2242.8078728834789
 20
1441.7141123408592
 30
0.0
 40
3.0
 41
0.0
 71
               5
 72
               1
  1
A-A断面　Ｓ＝１／ ２
  7
ＭＳ ゴシック
 73
               1
 44
0.7828267384257842
  0
MTEXT
  5
1C0
100
AcDbEntity
  8
17
 62
               7
100
AcDbMText
 10
2284.8704949537914
 20
1441.3499338740623
 30
0.0
 40
3.0
 41
0.0
 71
               5
 72
               1
  1
B-B断面　Ｓ＝１／ ２
  7
ＭＳ ゴシック
 73
               1
 44
0.7828267384257842
  0
LINE
  5
1C1
100
AcDbEntity
  8
33
370
              15
  6
Continuous
 62
               7
100
AcDbLine
 10
2138.1840626953413
 20
1500.7889414424217
 30
0.0
 11
2200.1840626953413
 21
1500.7889414424217
 31
0.0
  0
LINE
  5
1C2
100
AcDbEntity
  8
33
370
              15
  6
Continuous
 62
               7
100
AcDbLine
 10
2169.1840626953413
 20
1477.2889414424217
 30
0.0
 11
2169.1840626953413
 21
1524.2889414424217
 31
0.0
  0
LINE
  5
1C3
100
AcDbEntity
  8
33
370
              15
  6
Continuous
 62
               7
100
AcDbLine
 10
2181.9840626953414
 20
1500.7889414424217
 30
0.0
 11
2181.9840626953414
 21
1488.7889414424217
 31
0.0
  0
LINE
  5
1C4
100
AcDbEntity
  8
33
370
              15
  6
Continuous
 62
               7
100
AcDbLine
 10
2181.9840626953414
 20
1488.7889414424217
 30
0.0
 11
2181.9840626953414
 21
1512.7889414424217
 31
0.0
  0
ARC
  5
1C5
100
AcDbEntity
  8
33
370
              15
  6
Continuous
 62
               7
100
AcDbCircle
 10
2169.1840626953413
 20
1160.7889414424217
 30
0.0
 40
360.0
100
AcDbArc
 50
86.863779722711996
 51
93.136220277288004
  0
ARC
  5
1C6
100
AcDbEntity
  8
33
370
              15
  6
Continuous
 62
               7
100
AcDbCircle
 10
2169.1840626953413
 20
1840.7889414424217
 30
0.0
 40
360.0
100
AcDbArc
 50
266.86377972271202
 51
273.13622027728792
  0
ARC
  5
1C7
100
AcDbEntity
  8
33
370
              15
  6
Continuous
 62
               7
100
AcDbCircle
 10
2421.6840626953413
 20
1500.7889414424217
 30
0.0
 40
280.0
100
AcDbArc
 50
177.58257970595301
 51
182.41742029404702
  0
ARC
  5
1C8
100
AcDbEntity
  8
33
370
              15
  6
Continuous
 62
               7
100
AcDbCircle
 10
1916.6840626953413
 20
1500.7889414424217
 30
0.0
 40
280.0
100
AcDbArc
 50
357.58257970595298
 51
2.4174202940469622
  0
ARC
  5
1C9
100
AcDbEntity
  8
33
370
              15
  6
Continuous
 62
               7
100
AcDbCircle
 10
2149.926128555986
 20
1512.2617454723838
 30
0.0
 40
8.0000000000000018
100
AcDbArc
 50
93.136220277288004
 51
177.58257970595398
  0
ARC
  5
1CA
100
AcDbEntity
  8
33
370
              15
  6
Continuous
 62
               7
100
AcDbCircle
 10
2188.4419968346965
 20
1512.2617454723838
 30
0.0
 40
8.0
100
AcDbArc
 50
2.4174202940469973
 51
86.863779722711996
  0
ARC
  5
1CB
100
AcDbEntity
  8
33
370
              15
  6
Continuous
 62
               7
100
AcDbCircle
 10
2188.4419968346965
 20
1489.3161374124595
 30
0.0
 40
8.0000000000000018
100
AcDbArc
 50
273.13622027728792
 51
357.58257970595309
  0
ARC
  5
1CC
100
AcDbEntity
  8
33
370
              15
  6
Continuous
 62
               7
100
AcDbCircle
 10
2149.926128555986
 20
1489.3161374124595
 30
0.0
 40
7.9999999999999893
100
AcDbArc
 50
182.41742029404702
 51
266.863779722711
  0
ARC
  5
1CD
100
AcDbEntity
  8
33
370
              15
  6
Continuous
 62
               7
100
AcDbCircle
 10
2169.1840626953413
 20
1160.7889414424217
 30
0.0
 40
361.5
100
AcDbArc
 50
86.863779722711996
 51
93.136220277288004
  0
ARC
  5
1CE
100
AcDbEntity
  8
33
370
              15
  6
Continuous
 62
               7
100
AcDbCircle
 10
2188.4419968346965
 20
1512.2617454723838
 30
0.0
 40
9.4999999999999982
100
AcDbArc
 50
2.4174202940469711
 51
86.863779722711996
  0
ARC
  5
1CF
100
AcDbEntity
  8
33
370
              15
  6
Continuous
 62
               7
100
AcDbCircle
 10
1916.6840626953413
 20
1500.7889414424217
 30
0.0
 40
281.50000000000006
100
AcDbArc
 50
357.58257970595298
 51
2.4174202940469622
  0
ARC
  5
1D0
100
AcDbEntity
  8
33
370
              15
  6
Continuous
 62
               7
100
AcDbCircle
 10
2188.4419968346965
 20
1489.3161374124595
 30
0.0
 40
9.5000000000000036
100
AcDbArc
 50
273.13622027728792
 51
357.58257970595309
  0
ARC
  5
1D1
100
AcDbEntity
  8
33
370
              15
  6
Continuous
 62
               7
100
AcDbCircle
 10
2169.1840626953413
 20
1840.7889414424217
 30
0.0
 40
361.49999999999994
100
AcDbArc
 50
266.86377972271202
 51
273.13622027728792
  0
ARC
  5
1D2
100
AcDbEntity
  8
33
370
              15
  6
Continuous
 62
               7
100
AcDbCircle
 10
2149.926128555986
 20
1489.3161374124595
 30
0.0
 40
9.5
100
AcDbArc
 50
182.41742029404705
 51
266.86377972271214
  0
ARC
  5
1D3
100
AcDbEntity
  8
33
370
              15
  6
Continuous
 62
               7
100
AcDbCircle
 10
2421.6840626953413
 20
1500.7889414424217
 30
0.0
 40
281.50000000000006
100
AcDbArc
 50
177.58257970595301
 51
182.41742029404702
  0
ARC
  5
1D4
100
AcDbEntity
  8
33
370
              15
  6
Continuous
 62
               7
100
AcDbCircle
 10
2149.926128555986
 20
1512.2617454723838
 30
0.0
 40
9.4999999999999929
100
AcDbArc
 50
93.136220277288004
 51
177.58257970595304
  0
CIRCLE
  5
1D5
100
AcDbEntity
  8
33
370
              15
  6
Continuous
 62
               7
100
AcDbCircle
 10
2181.9840626953414
 20
1500.7889414424217
 30
0.0
 40
7.9500000000000002
  0
CIRCLE
  5
1D6
100
AcDbEntity
  8
33
370
              15
  6
Continuous
 62
               7
100
AcDbCircle
 10
2181.9840626953414
 20
1500.7889414424217
 30
0.0
 40
9.0500000000000007
  0
LINE
  5
1D7
100
AcDbEntity
  8
33
370
              15
  6
Continuous
 62
               7
100
AcDbLine
 10
2181.9840626953414
 20
1528.0907271567075
 30
0.0
 11
2196.6840626953413
 21
1528.0907271567075
 31
0.0
  0
LINE
  5
1D8
100
AcDbEntity
  8
33
370
              15
  6
Continuous
 62
               7
100
AcDbLine
 10
2181.9840626953414
 20
1528.0907271567075
 30
0.0
 11
2183.9159143479192
 21
1528.6083652469124
 31
0.0
  0
LINE
  5
1D9
100
AcDbEntity
  8
33
370
              15
  6
Continuous
 62
               7
100
AcDbLine
 10
2181.9840626953414
 20
1528.0907271567075
 30
0.0
 11
2183.9159143479192
 21
1527.5730890665025
 31
0.0
  0
LINE
  5
1DA
100
AcDbEntity
  8
33
370
              15
  6
Continuous
 62
               7
100
AcDbLine
 10
2196.6840626953413
 20
1528.0907271567075
 30
0.0
 11
2194.7522110427631
 21
1527.5730890665025
 31
0.0
  0
LINE
  5
1DB
100
AcDbEntity
  8
33
370
              15
  6
Continuous
 62
               7
100
AcDbLine
 10
2196.6840626953413
 20
1528.0907271567075
 30
0.0
 11
2194.7522110427631
 21
1528.6083652469124
 31
0.0
  0
LINE
  5
1DC
100
AcDbEntity
  8
33
370
              15
  6
Continuous
 62
               7
100
AcDbLine
 10
2181.9840626953414
 20
1513.2889414424217
 30
0.0
 11
2181.9840626953414
 21
1528.5907271567075
 31
0.0
  0
LINE
  5
1DD
100
AcDbEntity
  8
33
370
              15
  6
Continuous
 62
               7
100
AcDbLine
 10
2196.6840626953413
 20
1501.2889414424217
 30
0.0
 11
2196.6840626953413
 21
1528.5907271567075
 31
0.0
  0
MTEXT
  5
1DE
100
AcDbEntity
  8
33
 62
               7
100
AcDbMText
 10
2189.3340630686766
 20
1530.5907236689843
 30
0.0
 40
2.0
 41
0.0
 71
               2
 72
               1
  1
143±1_
  7
ＭＳ ゴシック
 11
1.0
 21
0.0000000001745329
 31
0.0
 73
               1
 44
0.7828267384257843
  0
LINE
  5
1DF
100
AcDbEntity
  8
33
370
              15
  6
Continuous
 62
               7
100
AcDbLine
 10
2206.0302640665145
 20
1500.7889414424217
 30
0.0
 11
2206.0302640665145
 21
1520.7889414424217
 31
0.0
  0
LINE
  5
1E0
100
AcDbEntity
  8
33
370
              15
  6
Continuous
 62
               7
100
AcDbLine
 10
2206.0302640665145
 20
1500.7889414424217
 30
0.0
 11
2205.5126259763097
 21
1502.7207930949999
 31
0.0
  0
LINE
  5
1E1
100
AcDbEntity
  8
33
370
              15
  6
Continuous
 62
               7
100
AcDbLine
 10
2206.0302640665145
 20
1500.7889414424217
 30
0.0
 11
2206.5479021567198
 21
1502.7207930949999
 31
0.0
  0
LINE
  5
1E2
100
AcDbEntity
  8
33
370
              15
  6
Continuous
 62
               7
100
AcDbLine
 10
2206.0302640665145
 20
1520.7889414424217
 30
0.0
 11
2206.5479021567198
 21
1518.8570897898435
 31
0.0
  0
LINE
  5
1E3
100
AcDbEntity
  8
33
370
              15
  6
Continuous
 62
               7
100
AcDbLine
 10
2206.0302640665145
 20
1520.7889414424217
 30
0.0
 11
2205.5126259763097
 21
1518.8570897898435
 31
0.0
  0
LINE
  5
1E4
100
AcDbEntity
  8
33
370
              15
  6
Continuous
 62
               7
100
AcDbLine
 10
2200.6840626953413
 20
1500.7889414424217
 30
0.0
 11
2206.5302640665145
 21
1500.7889414424217
 31
0.0
  0
LINE
  5
1E5
100
AcDbEntity
  8
33
370
              15
  6
Continuous
 62
               7
100
AcDbLine
 10
2169.6840626953413
 20
1520.7889414424217
 30
0.0
 11
2206.5302640665145
 21
1520.7889414424217
 31
0.0
  0
MTEXT
  5
1E6
100
AcDbEntity
  8
33
 62
               7
100
AcDbMText
 10
2203.5302605787915
 20
1510.7889414424217
 30
0.0
 40
2.0
 41
0.0
 71
               2
 72
               1
  1
200±1_
  7
ＭＳ ゴシック
 11
0.0
 21
1.0
 31
0.0
 73
               1
 44
0.7828267384257843
  0
LINE
  5
1E7
100
AcDbEntity
  8
33
370
              15
  6
Continuous
 62
               7
100
AcDbLine
 10
2175.9752467293251
 20
1507.5562622332925
 30
0.0
 11
2187.9928786613573
 21
1494.0216206515508
 31
0.0
  0
LINE
  5
1E8
100
AcDbEntity
  8
33
370
              15
  6
Continuous
 62
               7
100
AcDbLine
 10
2175.9752467293251
 20
1507.5562622332925
 30
0.0
 11
2173.8318790922813
 21
1509.9701914424218
 31
0.0
  0
LINE
  5
1E9
100
AcDbEntity
  8
33
370
              15
  6
Continuous
 62
               7
100
AcDbLine
 10
2175.9752467293251
 20
1507.5562622332925
 30
0.0
 11
2174.3055048438032
 21
1508.6571537064779
 31
0.0
  0
LINE
  5
1EA
100
AcDbEntity
  8
33
370
              15
  6
Continuous
 62
               7
100
AcDbLine
 10
2175.9752467293251
 20
1507.5562622332925
 30
0.0
 11
2175.0796535752929
 21
1509.344533158642
 31
0.0
  0
LINE
  5
1EB
100
AcDbEntity
  8
33
370
              15
  6
Continuous
 62
               7
100
AcDbLine
 10
2173.8318790922813
 20
1509.9701914424218
 30
0.0
 11
2166.8318790922813
 21
1509.9701914424218
 31
0.0
  0
LINE
  5
1EC
100
AcDbEntity
  8
33
370
              15
  6
Continuous
 62
               7
100
AcDbLine
 10
2187.9928786613573
 20
1494.0216206515508
 30
0.0
 11
2189.984751357274
 21
1491.7783098921461
 31
0.0
  0
LINE
  5
1ED
100
AcDbEntity
  8
33
370
              15
  6
Continuous
 62
               7
100
AcDbLine
 10
2187.9928786613573
 20
1494.0216206515508
 30
0.0
 11
2189.6626205468792
 21
1492.9207291783655
 31
0.0
  0
LINE
  5
1EE
100
AcDbEntity
  8
33
370
              15
  6
Continuous
 62
               7
100
AcDbLine
 10
2187.9928786613573
 20
1494.0216206515508
 30
0.0
 11
2188.8884718153895
 21
1492.2333497262014
 31
0.0
  0
MTEXT
  5
1EF
100
AcDbEntity
  8
33
 62
               7
100
AcDbMText
 10
2169.1840630690258
 20
1512.6943003291406
 30
0.0
 40
2.0
 41
0.0
 71
               2
 72
               1
  1
Φ181±0.5_
  7
ＭＳ ゴシック
 73
               1
 44
0.7828267384257843
  0
LINE
  5
1F0
100
AcDbEntity
  8
33
370
              15
  6
Continuous
 62
               7
100
AcDbLine
 10
2176.6631392536588
 20
1494.882142501561
 30
0.0
 11
2187.3049861370237
 21
1506.6957403832823
 31
0.0
  0
LINE
  5
1F1
100
AcDbEntity
  8
33
370
              15
  6
Continuous
 62
               7
100
AcDbLine
 10
2176.6631392536588
 20
1494.882142501561
 30
0.0
 11
2174.3079751901942
 21
1492.2676563605564
 31
0.0
  0
LINE
  5
1F2
100
AcDbEntity
  8
33
370
              15
  6
Continuous
 62
               7
100
AcDbLine
 10
2176.6631392536588
 20
1494.882142501561
 30
0.0
 11
2175.7547555277361
 21
1493.1003347098845
 31
0.0
  0
LINE
  5
1F3
100
AcDbEntity
  8
33
370
              15
  6
Continuous
 62
               7
100
AcDbLine
 10
2176.6631392536588
 20
1494.882142501561
 30
0.0
 11
2174.9855519747871
 21
1493.7932435522694
 31
0.0
  0
LINE
  5
1F4
100
AcDbEntity
  8
33
370
              15
  6
Continuous
 62
               7
100
AcDbLine
 10
2174.3079751901942
 20
1492.2676563605564
 30
0.0
 11
2167.3079751901942
 21
1492.2676563605564
 31
0.0
  0
LINE
  5
1F5
100
AcDbEntity
  8
33
370
              15
  6
Continuous
 62
               7
100
AcDbLine
 10
2187.3049861370237
 20
1506.6957403832823
 30
0.0
 11
2189.3128817753945
 21
1508.9247211156826
 31
0.0
  0
LINE
  5
1F6
100
AcDbEntity
  8
33
370
              15
  6
Continuous
 62
               7
100
AcDbLine
 10
2187.3049861370237
 20
1506.6957403832823
 30
0.0
 11
2188.2133698629464
 21
1508.4775481749589
 31
0.0
  0
LINE
  5
1F7
100
AcDbEntity
  8
33
370
              15
  6
Continuous
 62
               7
100
AcDbLine
 10
2187.3049861370237
 20
1506.6957403832823
 30
0.0
 11
2188.9825734158953
 21
1507.784639332574
 31
0.0
  0
MTEXT
  5
1F8
100
AcDbEntity
  8
33
 62
               7
100
AcDbMText
 10
2169.1840630690258
 20
1494.8565683955467
 30
0.0
 40
2.0
 41
0.0
 71
               2
 72
               1
  1
Φ159±0.5_
  7
ＭＳ ゴシック
 73
               1
 44
0.7828267384257843
  0
LINE
  5
1F9
100
AcDbEntity
  8
33
370
              15
  6
Continuous
 62
               7
100
AcDbLine
 10
2165.0729338688107
 20
1509.9701914424218
 30
0.0
 11
2167.3143241749331
 21
1509.9701914424218
 31
0.0
  0
LINE
  5
1FA
100
AcDbEntity
  8
33
370
              15
  6
Continuous
 62
               7
100
AcDbLine
 10
2165.0729338688107
 20
1492.2676563605564
 30
0.0
 11
2167.3079751901942
 21
1492.2676563605564
 31
0.0
  0
LINE
  5
1FB
100
AcDbEntity
  8
33
370
              15
  6
Continuous
 62
               7
100
AcDbLine
 10
2144.3294136817767
 20
1517.9781064316662
 30
0.0
 11
2150.6552211086064
 21
1511.5170664424218
 31
0.0
  0
LINE
  5
1FC
100
AcDbEntity
  8
33
370
              15
  6
Continuous
 62
               7
100
AcDbLine
 10
2144.3294136817767
 20
1517.9781064316662
 30
0.0
 11
2146.0507923128562
 21
1516.9598453607894
 31
0.0
  0
LINE
  5
1FD
100
AcDbEntity
  8
33
370
              15
  6
Continuous
 62
               7
100
AcDbLine
 10
2144.3294136817767
 20
1517.9781064316662
 30
0.0
 11
2145.3110407703848
 21
1516.2355771610623
 31
0.0
  0
MTEXT
  5
1FE
100
AcDbEntity
  8
33
 62
               7
100
AcDbMText
 10
2150.4854220261177
 20
1515.6449804711567
 30
0.0
 40
2.0
 41
0.0
 71
               2
 72
               1
  1
R80
  7
ＭＳ ゴシック
 11
0.6995893385862931
 21
-0.7145451401670806
 31
0.0
 73
               1
 44
0.7828267384257843
  0
LINE
  5
1FF
100
AcDbEntity
  8
33
370
              15
  6
Continuous
 62
               7
100
AcDbLine
 10
2143.6466535818536
 20
1482.1874493109051
 30
0.0
 11
2148.1412918762371
 21
1487.2899259768606
 31
0.0
  0
LINE
  5
200
100
AcDbEntity
  8
33
370
              15
  6
Continuous
 62
               7
100
AcDbLine
 10
2143.6466535818536
 20
1482.1874493109051
 30
0.0
 11
2144.5351729093845
 21
1483.9792454501473
 31
0.0
  0
LINE
  5
201
100
AcDbEntity
  8
33
370
              15
  6
Continuous
 62
               7
100
AcDbLine
 10
2143.6466535818536
 20
1482.1874493109051
 30
0.0
 11
2145.3120319608702
 21
1483.2949306221262
 31
0.0
  0
MTEXT
  5
202
100
AcDbEntity
  8
33
 62
               7
100
AcDbMText
 10
2144.8433818041462
 20
1487.147703709609
 30
0.0
 40
2.0
 41
0.0
 71
               2
 72
               1
  1
R95
  7
ＭＳ ゴシック
 11
0.6609973445311582
 21
0.7503882398617114
 31
0.0
 73
               1
 44
0.7828267384257843
  0
LINE
  5
203
100
AcDbEntity
  8
33
370
              15
  6
Continuous
 62
               7
100
AcDbLine
 10
2161.9806189101159
 20
1480.8610175498275
 30
0.0
 11
2162.1521550103921
 21
1489.4320058556871
 31
0.0
  0
LINE
  5
204
100
AcDbEntity
  8
33
370
              15
  6
Continuous
 62
               7
100
AcDbLine
 10
2161.9806189101159
 20
1480.8610175498275
 30
0.0
 11
2161.5017399702424
 21
1482.8028401372296
 31
0.0
  0
LINE
  5
205
100
AcDbEntity
  8
33
370
              15
  6
Continuous
 62
               7
100
AcDbLine
 10
2161.9806189101159
 20
1480.8610175498275
 30
0.0
 11
2162.536808876549
 21
1482.7821247100969
 31
0.0
  0
LINE
  5
206
100
AcDbEntity
  8
33
370
              15
  6
Continuous
 62
               7
100
AcDbLine
 10
2162.1521550103921
 20
1489.4320058556871
 30
0.0
 11
2162.9887302654943
 21
1482.4605453965034
 31
0.0
  0
LINE
  5
207
100
AcDbEntity
  8
33
370
              15
  6
Continuous
 62
               7
100
AcDbLine
 10
2162.9887302654943
 20
1482.4605453965034
 30
0.0
 11
2163.5464471022287
 21
1493.33602371283
 31
0.0
  0
MTEXT
  5
208
100
AcDbEntity
  8
33
 62
               7
100
AcDbMText
 10
2159.4494903456211
 20
1486.3638054607113
 30
0.0
 40
2.0
 41
0.0
 71
               2
 72
               1
  1
R3600
  7
ＭＳ ゴシック
 11
0.0200095237931775
 21
0.9997997894366503
 31
0.0
 73
               1
 44
0.7828267384257843
  0
LINE
  5
209
100
AcDbEntity
  8
33
370
              15
  6
Continuous
 62
               7
100
AcDbLine
 10
2141.69641008809
 20
1503.4184637338467
 30
0.0
 11
2152.8644965282492
 21
1503.3135779220136
 31
0.0
  0
LINE
  5
20A
100
AcDbEntity
  8
33
370
              15
  6
Continuous
 62
               7
100
AcDbLine
 10
2141.69641008809
 20
1503.4184637338467
 30
0.0
 11
2143.6330377676895
 21
1503.9179366866767
 31
0.0
  0
LINE
  5
20B
100
AcDbEntity
  8
33
370
              15
  6
Continuous
 62
               7
100
AcDbLine
 10
2141.69641008809
 20
1503.4184637338467
 30
0.0
 11
2143.6233153327103
 21
1502.882706159701
 31
0.0
  0
LINE
  5
20C
100
AcDbEntity
  8
33
370
              15
  6
Continuous
 62
               7
100
AcDbLine
 10
2152.8644965282492
 20
1503.3135779220136
 30
0.0
 11
2143.9778364517188
 21
1502.5528521567073
 31
0.0
  0
LINE
  5
20D
100
AcDbEntity
  8
33
370
              15
  6
Continuous
 62
               7
100
AcDbLine
 10
2143.9778364517188
 20
1502.5528521567073
 30
0.0
 11
2153.5906438496781
 21
1502.2416461618095
 31
0.0
  0
MTEXT
  5
20E
100
AcDbEntity
  8
33
 62
               7
100
AcDbMText
 10
2148.4053693391743
 20
1505.8667463116219
 30
0.0
 40
2.0
 41
0.0
 71
               2
 72
               1
  1
R2800
  7
ＭＳ ゴシック
 11
0.999955901396971
 21
-0.0093912332188652
 31
0.0
 73
               1
 44
0.7828267384257843
  0
LINE
  5
20F
100
AcDbEntity
  8
33
370
              15
  6
Continuous
 62
               7
100
AcDbLine
 10
2153.5906438496781
 20
1502.2416461618095
 30
0.0
 11
2157.0995140665145
 21
1502.0360485852789
 31
0.0
  0
LINE
  5
210
100
AcDbEntity
  8
33
370
              15
  6
Continuous
 62
               7
100
AcDbLine
 10
2140.1840626953413
 20
1451.2889414424217
 30
0.0
 11
2141.1840626953413
 21
1451.2889414424217
 31
0.0
  0
LINE
  5
211
100
AcDbEntity
  8
33
370
              15
  6
Continuous
 62
               7
100
AcDbLine
 10
2141.6840626953413
 20
1450.7889414424217
 30
0.0
 11
2141.6840626953413
 21
1436.6501286544014
 31
0.0
  0
LINE
  5
212
100
AcDbEntity
  8
33
370
              15
  6
Continuous
 62
               7
100
AcDbLine
 10
2172.9340626953413
 20
1432.2889414424217
 30
0.0
 11
2191.0340626953412
 21
1432.2889414424217
 31
0.0
  0
LINE
  5
213
100
AcDbEntity
  8
33
370
              15
  6
Continuous
 62
               7
100
AcDbLine
 10
2196.6840626953413
 20
1435.3816417253915
 30
0.0
 11
2196.6840626953413
 21
1450.7889414424217
 31
0.0
  0
LINE
  5
214
100
AcDbEntity
  8
33
370
              15
  6
Continuous
 62
               7
100
AcDbLine
 10
2181.9840626953414
 20
1454.2826914424218
 30
0.0
 11
2181.9840626953414
 21
1428.2067985852789
 31
0.0
  0
LINE
  5
215
100
AcDbEntity
  8
33
370
              15
  6
Continuous
 62
               7
100
AcDbLine
 10
2197.1840626953413
 20
1451.2889414424217
 30
0.0
 11
2198.1840626953413
 21
1451.2889414424217
 31
0.0
  0
LINE
  5
216
100
AcDbEntity
  8
33
370
              15
  6
Continuous
 62
               7
100
AcDbLine
 10
2172.9340626953413
 20
1432.2889414424217
 30
0.0
 11
2172.9340626953413
 21
1431.5889414424216
 31
0.0
  0
LINE
  5
217
100
AcDbEntity
  8
33
370
              15
  6
Continuous
 62
               7
100
AcDbLine
 10
2172.9340626953413
 20
1431.5889414424216
 30
0.0
 11
2191.0340626953412
 21
1431.5889414424216
 31
0.0
  0
LINE
  5
218
100
AcDbEntity
  8
33
370
              15
  6
Continuous
 62
               7
100
AcDbLine
 10
2191.0340626953412
 20
1431.5889414424216
 30
0.0
 11
2191.0340626953412
 21
1432.2889414424217
 31
0.0
  0
LINE
  5
219
100
AcDbEntity
  8
33
370
              15
  6
Continuous
 62
               7
100
AcDbLine
 10
2191.0340626953412
 20
1432.2889414424217
 30
0.0
 11
2193.7869468928689
 21
1432.383406437443
 31
0.0
  0
ARC
  5
21A
100
AcDbEntity
  8
33
370
              15
  6
Continuous
 62
               7
100
AcDbCircle
 10
2193.6840626953413
 20
1435.3816417253915
 30
0.0
 40
3.0000000000000018
100
AcDbArc
 50
271.96532880735799
 51
0.0
  0
LINE
  5
21B
100
AcDbEntity
  8
33
370
              15
  6
Continuous
 62
               7
100
AcDbLine
 10
2144.5420420096266
 20
1433.6534921858206
 30
0.0
 11
2151.0576181349952
 21
1433.3446971087888
 31
0.0
  0
ARC
  5
21C
100
AcDbEntity
  8
33
370
              15
  6
Continuous
 62
               7
100
AcDbCircle
 10
2144.6840626953413
 20
1436.6501286544014
 30
0.0
 40
3.0
100
AcDbArc
 50
180.0
 51
267.28659055496678
  0
ARC
  5
21D
100
AcDbEntity
  8
33
370
              15
  6
Continuous
 62
               7
100
AcDbCircle
 10
2141.1840626953413
 20
1450.7889414424217
 30
0.0
 40
0.5
100
AcDbArc
 50
0.0
 51
90.0
  0
ARC
  5
21E
100
AcDbEntity
  8
33
370
              15
  6
Continuous
 62
               7
100
AcDbCircle
 10
2197.1840626953413
 20
1450.7889414424217
 30
0.0
 40
0.5
100
AcDbArc
 50
90.0
 51
180.0
  0
LINE
  5
21F
100
AcDbEntity
  8
33
370
              15
  6
Continuous
 62
               7
100
AcDbLine
 10
2197.1840626953413
 20
1451.2889414424217
 30
0.0
 11
2140.8250631736573
 21
1451.2889414424217
 31
0.0
  0
LINE
  5
220
100
AcDbEntity
  8
33
370
              15
  6
Continuous
 62
               7
100
AcDbLine
 10
2172.9340626953413
 20
1432.2889414424217
 30
0.0
 11
2151.0576181349952
 21
1433.3446971087888
 31
0.0
  0
LINE
  5
221
100
AcDbEntity
  8
33
370
              15
  6
Continuous
 62
               7
100
AcDbLine
 10
2140.1840626953413
 20
1451.1889414424218
 30
0.0
 11
2141.1840626953413
 21
1451.1889414424218
 31
0.0
  0
ARC
  5
222
100
AcDbEntity
  8
33
370
              15
  6
Continuous
 62
               7
100
AcDbCircle
 10
2141.1840626953413
 20
1450.7889414424217
 30
0.0
 40
0.4
100
AcDbArc
 50
0.0
 51
90.0
  0
LINE
  5
223
100
AcDbEntity
  8
33
370
              15
  6
Continuous
 62
               7
100
AcDbLine
 10
2141.5840626953413
 20
1450.7889414424217
 30
0.0
 11
2141.5840626953413
 21
1436.6501286544014
 31
0.0
  0
ARC
  5
224
100
AcDbEntity
  8
33
370
              15
  6
Continuous
 62
               7
100
AcDbCircle
 10
2144.6840626953413
 20
1436.6501286544014
 30
0.0
 40
3.1000000000000001
100
AcDbArc
 50
180.0
 51
267.28659055496695
  0
LINE
  5
225
100
AcDbEntity
  8
33
370
              15
  6
Continuous
 62
               7
100
AcDbLine
 10
2144.5373079867695
 20
1433.5536043035345
 30
0.0
 11
2151.0528409312656
 21
1433.2448112729896
 31
0.0
  0
LINE
  5
226
100
AcDbEntity
  8
33
370
              15
  6
Continuous
 62
               7
100
AcDbLine
 10
2151.0528409312656
 20
1433.2448112729896
 30
0.0
 11
2172.8340626953413
 21
1432.193651052032
 31
0.0
  0
LINE
  5
227
100
AcDbEntity
  8
33
370
              15
  6
Continuous
 62
               7
100
AcDbLine
 10
2172.8340626953413
 20
1432.193651052032
 30
0.0
 11
2172.8340626953413
 21
1431.4889414424217
 31
0.0
  0
LINE
  5
228
100
AcDbEntity
  8
33
370
              15
  6
Continuous
 62
               7
100
AcDbLine
 10
2172.8340626953413
 20
1431.4889414424217
 30
0.0
 11
2191.1340626953411
 21
1431.4889414424217
 31
0.0
  0
LINE
  5
229
100
AcDbEntity
  8
33
370
              15
  6
Continuous
 62
               7
100
AcDbLine
 10
2191.1340626953411
 20
1431.4889414424217
 30
0.0
 11
2191.1340626953411
 21
1432.1923140758465
 31
0.0
  0
LINE
  5
22A
100
AcDbEntity
  8
33
370
              15
  6
Continuous
 62
               7
100
AcDbLine
 10
2191.1340626953411
 20
1432.1923140758465
 30
0.0
 11
2193.7903763661197
 21
1432.2834652611782
 31
0.0
  0
ARC
  5
22B
100
AcDbEntity
  8
33
370
              15
  6
Continuous
 62
               7
100
AcDbCircle
 10
2193.6840626953413
 20
1435.3816417253915
 30
0.0
 40
3.1000000000000028
100
AcDbArc
 50
271.96532880735896
 51
0.0
  0
LINE
  5
22C
100
AcDbEntity
  8
33
370
              15
  6
Continuous
 62
               7
100
AcDbLine
 10
2196.7840626953412
 20
1435.3816417253915
 30
0.0
 11
2196.7840626953412
 21
1450.7889414424217
 31
0.0
  0
ARC
  5
22D
100
AcDbEntity
  8
33
370
              15
  6
Continuous
 62
               7
100
AcDbCircle
 10
2197.1840626953413
 20
1450.7889414424217
 30
0.0
 40
0.4
100
AcDbArc
 50
90.0
 51
180.0
  0
LINE
  5
22E
100
AcDbEntity
  8
33
370
              15
  6
Continuous
 62
               7
100
AcDbLine
 10
2197.1840626953413
 20
1451.1889414424218
 30
0.0
 11
2198.1840626953413
 21
1451.1889414424218
 31
0.0
  0
LINE
  5
22F
100
AcDbEntity
  8
33
370
              15
  6
Continuous
 62
               7
100
AcDbLine
 10
2140.1840626953413
 20
1451.2889414424217
 30
0.0
 11
2140.1840626953413
 21
1451.1889414424218
 31
0.0
  0
LINE
  5
230
100
AcDbEntity
  8
33
370
              15
  6
Continuous
 62
               7
100
AcDbLine
 10
2198.1840626953413
 20
1451.2889414424217
 30
0.0
 11
2198.1840626953413
 21
1451.1889414424218
 31
0.0
  0
LINE
  5
231
100
AcDbEntity
  8
33
370
              15
  6
Continuous
 62
               7
100
AcDbLine
 10
2196.2840626953412
 20
1446.2889414424217
 30
0.0
 11
2141.2840626953412
 21
1446.2889414424217
 31
0.0
  0
LINE
  5
232
100
AcDbEntity
  8
33
370
              15
  6
Continuous
 62
               7
100
AcDbLine
 10
2196.8089361681527
 20
1451.1195168326119
 30
0.0
 11
2198.7197012476372
 21
1449.4356798711297
 31
0.0
  0
LINE
  5
233
100
AcDbEntity
  8
33
370
              15
  6
Continuous
 62
               7
100
AcDbLine
 10
2196.8089361681527
 20
1451.1195168326119
 30
0.0
 11
2198.6005505983967
 21
1450.2306311631687
 31
0.0
  0
LINE
  5
234
100
AcDbEntity
  8
33
370
              15
  6
Continuous
 62
               7
100
AcDbLine
 10
2196.8089361681527
 20
1451.1195168326119
 30
0.0
 11
2197.916076943809
 21
1449.453912046692
 31
0.0
  0
MTEXT
  5
235
100
AcDbEntity
  8
33
 62
               7
100
AcDbMText
 10
2200.3551011577697
 20
1449.2774541819967
 30
0.0
 40
2.0
 41
0.0
 71
               2
 72
               1
  1
R5
  7
ＭＳ ゴシック
 11
0.7502530738890124
 21
-0.6611507582390631
 31
0.0
 73
               1
 44
0.7828267384257843
  0
LINE
  5
236
100
AcDbEntity
  8
33
370
              15
  6
Continuous
 62
               7
100
AcDbLine
 10
2137.988978352229
 20
1432.193651052032
 30
0.0
 11
2137.988978352229
 21
1433.5536043035345
 31
0.0
  0
LINE
  5
237
100
AcDbEntity
  8
33
370
              15
  6
Continuous
 62
               7
100
AcDbLine
 10
2172.3340626953413
 20
1432.193651052032
 30
0.0
 11
2137.488978352229
 21
1432.193651052032
 31
0.0
  0
LINE
  5
238
100
AcDbEntity
  8
33
370
              15
  6
Continuous
 62
               7
100
AcDbLine
 10
2144.0373079867695
 20
1433.5536043035345
 30
0.0
 11
2137.488978352229
 21
1433.5536043035345
 31
0.0
  0
LINE
  5
239
100
AcDbEntity
  8
33
370
              15
  6
Continuous
 62
               7
100
AcDbLine
 10
2137.988978352229
 20
1429.193651052032
 30
0.0
 11
2137.988978352229
 21
1432.193651052032
 31
0.0
  0
LINE
  5
23A
100
AcDbEntity
  8
33
370
              15
  6
Continuous
 62
               7
100
AcDbLine
 10
2137.988978352229
 20
1432.193651052032
 30
0.0
 11
2138.5066164424338
 21
1430.2617993994538
 31
0.0
  0
LINE
  5
23B
100
AcDbEntity
  8
33
370
              15
  6
Continuous
 62
               7
100
AcDbLine
 10
2137.988978352229
 20
1432.193651052032
 30
0.0
 11
2137.4713402620237
 21
1430.2617993994538
 31
0.0
  0
LINE
  5
23C
100
AcDbEntity
  8
33
370
              15
  6
Continuous
 62
               7
100
AcDbLine
 10
2137.988978352229
 20
1433.5536043035345
 30
0.0
 11
2137.988978352229
 21
1436.5536043035345
 31
0.0
  0
LINE
  5
23D
100
AcDbEntity
  8
33
370
              15
  6
Continuous
 62
               7
100
AcDbLine
 10
2137.988978352229
 20
1433.5536043035345
 30
0.0
 11
2137.4713402620237
 21
1435.4854559561127
 31
0.0
  0
LINE
  5
23E
100
AcDbEntity
  8
33
370
              15
  6
Continuous
 62
               7
100
AcDbLine
 10
2137.988978352229
 20
1433.5536043035345
 30
0.0
 11
2138.5066164424338
 21
1435.4854559561127
 31
0.0
  0
MTEXT
  5
23F
100
AcDbEntity
  8
33
 62
               7
100
AcDbMText
 10
2134.9158898512524
 20
1432.7607981318749
 30
0.0
 40
2.0
 41
0.0
 71
               2
 72
               1
  1
15±2_
  7
ＭＳ ゴシック
 11
0.0
 21
1.0
 31
0.0
 73
               1
 44
0.7828267384257843
  0
LINE
  5
240
100
AcDbEntity
  8
33
370
              15
  6
Continuous
 62
               7
100
AcDbLine
 10
2142.5497622612916
 20
1434.5418683153505
 30
0.0
 11
2146.0079783522287
 21
1437.957891529363
 31
0.0
  0
LINE
  5
241
100
AcDbEntity
  8
33
370
              15
  6
Continuous
 62
               7
100
AcDbLine
 10
2142.5497622612916
 20
1434.5418683153505
 30
0.0
 11
2143.5603742496432
 21
1436.2677487889057
 31
0.0
  0
LINE
  5
242
100
AcDbEntity
  8
33
370
              15
  6
Continuous
 62
               7
100
AcDbLine
 10
2142.5497622612916
 20
1434.5418683153505
 30
0.0
 11
2144.2879181533508
 21
1435.5312186551689
 31
0.0
  0
MTEXT
  5
243
100
AcDbEntity
  8
33
 62
               7
100
AcDbMText
 10
2144.0668099220825
 20
1439.5703258165559
 30
0.0
 40
2.0
 41
0.0
 71
               2
 72
               1
  1
R30
  7
ＭＳ ゴシック
 11
0.7114334590397016
 21
0.7027534655615761
 31
0.0
 73
               1
 44
0.7828267384257843
  0
LINE
  5
244
100
AcDbEntity
  8
33
370
              15
  6
Continuous
 62
               7
100
AcDbLine
 10
2196.6840626953413
 20
1473.7014972459931
 30
0.0
 11
2198.1840626953413
 21
1473.7014972459931
 31
0.0
  0
LINE
  5
245
100
AcDbEntity
  8
33
370
              15
  6
Continuous
 62
               7
100
AcDbLine
 10
2196.6840626953413
 20
1500.2889414424217
 30
0.0
 11
2196.6840626953413
 21
1473.2014972459931
 31
0.0
  0
LINE
  5
246
100
AcDbEntity
  8
33
370
              15
  6
Continuous
 62
               7
100
AcDbLine
 10
2198.1840626953413
 20
1500.2889414424217
 30
0.0
 11
2198.1840626953413
 21
1473.2014972459931
 31
0.0
  0
LINE
  5
247
100
AcDbEntity
  8
33
370
              15
  6
Continuous
 62
               7
100
AcDbLine
 10
2198.1840626953413
 20
1473.7014972459931
 30
0.0
 11
2202.1840626953413
 21
1473.7014972459931
 31
0.0
  0
LINE
  5
248
100
AcDbEntity
  8
33
370
              15
  6
Continuous
 62
               7
100
AcDbLine
 10
2198.1840626953413
 20
1473.7014972459931
 30
0.0
 11
2200.1159143479194
 21
1474.2191353361982
 31
0.0
  0
LINE
  5
249
100
AcDbEntity
  8
33
370
              15
  6
Continuous
 62
               7
100
AcDbLine
 10
2198.1840626953413
 20
1473.7014972459931
 30
0.0
 11
2200.1159143479194
 21
1473.183859155788
 31
0.0
  0
MTEXT
  5
24A
100
AcDbEntity
  8
33
 62
               7
100
AcDbMText
 10
2200.7234063303954
 20
1476.3105112666406
 30
0.0
 40
2.0
 41
0.0
 71
               2
 72
               1
  1
15±1_
  7
ＭＳ ゴシック
 11
1.0
 21
0.0000000001745329
 31
0.0
 73
               1
 44
0.7828267384257843
  0
LINE
  5
24B
100
AcDbEntity
  8
33
370
              15
  6
Continuous
 62
               7
100
AcDbLine
 10
2141.6840626953413
 20
1473.7014972459931
 30
0.0
 11
2196.6840626953413
 21
1473.7014972459931
 31
0.0
  0
LINE
  5
24C
100
AcDbEntity
  8
33
370
              15
  6
Continuous
 62
               7
100
AcDbLine
 10
2141.6840626953413
 20
1473.7014972459931
 30
0.0
 11
2143.6159143479194
 21
1474.2191353361982
 31
0.0
  0
LINE
  5
24D
100
AcDbEntity
  8
33
370
              15
  6
Continuous
 62
               7
100
AcDbLine
 10
2141.6840626953413
 20
1473.7014972459931
 30
0.0
 11
2143.6159143479194
 21
1473.183859155788
 31
0.0
  0
LINE
  5
24E
100
AcDbEntity
  8
33
370
              15
  6
Continuous
 62
               7
100
AcDbLine
 10
2196.6840626953413
 20
1473.7014972459931
 30
0.0
 11
2194.7522110427631
 21
1473.183859155788
 31
0.0
  0
LINE
  5
24F
100
AcDbEntity
  8
33
370
              15
  6
Continuous
 62
               7
100
AcDbLine
 10
2196.6840626953413
 20
1473.7014972459931
 30
0.0
 11
2194.7522110427631
 21
1474.2191353361982
 31
0.0
  0
LINE
  5
250
100
AcDbEntity
  8
33
370
              15
  6
Continuous
 62
               7
100
AcDbLine
 10
2141.6840626953413
 20
1500.2889414424217
 30
0.0
 11
2141.6840626953413
 21
1473.2014972459931
 31
0.0
  0
MTEXT
  5
251
100
AcDbEntity
  8
33
 62
               7
100
AcDbMText
 10
2169.1840630686766
 20
1476.2014963740623
 30
0.0
 40
2.0
 41
0.0
 71
               2
 72
               1
  1
550±2_
  7
ＭＳ ゴシック
 11
1.0
 21
0.0000000001745329
 31
0.0
 73
               1
 44
0.7828267384257843
  0
LINE
  5
252
100
AcDbEntity
  8
33
370
              15
  6
Continuous
 62
               7
100
AcDbLine
 10
2140.1840626953413
 20
1473.7014972459931
 30
0.0
 11
2141.6840626953413
 21
1473.7014972459931
 31
0.0
  0
LINE
  5
253
100
AcDbEntity
  8
33
370
              15
  6
Continuous
 62
               7
100
AcDbLine
 10
2140.1840626953413
 20
1500.2889414424217
 30
0.0
 11
2140.1840626953413
 21
1473.2014972459931
 31
0.0
  0
LINE
  5
254
100
AcDbEntity
  8
33
370
              15
  6
Continuous
 62
               7
100
AcDbLine
 10
2136.1840626953413
 20
1473.7014972459931
 30
0.0
 11
2140.1840626953413
 21
1473.7014972459931
 31
0.0
  0
LINE
  5
255
100
AcDbEntity
  8
33
370
              15
  6
Continuous
 62
               7
100
AcDbLine
 10
2140.1840626953413
 20
1473.7014972459931
 30
0.0
 11
2138.2522110427631
 21
1473.183859155788
 31
0.0
  0
LINE
  5
256
100
AcDbEntity
  8
33
370
              15
  6
Continuous
 62
               7
100
AcDbLine
 10
2140.1840626953413
 20
1473.7014972459931
 30
0.0
 11
2138.2522110427631
 21
1474.2191353361982
 31
0.0
  0
MTEXT
  5
257
100
AcDbEntity
  8
33
 62
               7
100
AcDbMText
 10
2137.2117821848879
 20
1476.212861120156
 30
0.0
 40
2.0
 41
0.0
 71
               2
 72
               1
  1
15±1_
  7
ＭＳ ゴシック
 11
1.0
 21
0.0000000001745329
 31
0.0
 73
               1
 44
0.7828267384257843
  0
LINE
  5
258
100
AcDbEntity
  8
33
370
              15
  6
Continuous
 62
               7
100
AcDbLine
 10
2140.1840626953413
 20
1468.3321573225237
 30
0.0
 11
2198.1840626953413
 21
1468.3321573225237
 31
0.0
  0
LINE
  5
259
100
AcDbEntity
  8
33
370
              15
  6
Continuous
 62
               7
100
AcDbLine
 10
2140.1840626953413
 20
1468.3321573225237
 30
0.0
 11
2142.1159143479194
 21
1468.8497954127288
 31
0.0
  0
LINE
  5
25A
100
AcDbEntity
  8
33
370
              15
  6
Continuous
 62
               7
100
AcDbLine
 10
2140.1840626953413
 20
1468.3321573225237
 30
0.0
 11
2142.1159143479194
 21
1467.8145192323186
 31
0.0
  0
LINE
  5
25B
100
AcDbEntity
  8
33
370
              15
  6
Continuous
 62
               7
100
AcDbLine
 10
2198.1840626953413
 20
1468.3321573225237
 30
0.0
 11
2196.2522110427631
 21
1467.8145192323186
 31
0.0
  0
LINE
  5
25C
100
AcDbEntity
  8
33
370
              15
  6
Continuous
 62
               7
100
AcDbLine
 10
2198.1840626953413
 20
1468.3321573225237
 30
0.0
 11
2196.2522110427631
 21
1468.8497954127288
 31
0.0
  0
LINE
  5
25D
100
AcDbEntity
  8
33
370
              15
  6
Continuous
 62
               7
100
AcDbLine
 10
2140.1840626953413
 20
1500.2889414424217
 30
0.0
 11
2140.1840626953413
 21
1467.8321573225237
 31
0.0
  0
LINE
  5
25E
100
AcDbEntity
  8
33
370
              15
  6
Continuous
 62
               7
100
AcDbLine
 10
2198.1840626953413
 20
1500.2889414424217
 30
0.0
 11
2198.1840626953413
 21
1467.8321573225237
 31
0.0
  0
MTEXT
  5
25F
100
AcDbEntity
  8
33
 62
               7
100
AcDbMText
 10
2169.1840630686766
 20
1470.8321543330467
 30
0.0
 40
2.0
 41
0.0
 71
               2
 72
               1
  1
580±2_
  7
ＭＳ ゴシック
 11
1.0
 21
0.0000000001745329
 31
0.0
 73
               1
 44
0.7828267384257843
  0
LINE
  5
260
100
AcDbEntity
  8
33
370
              15
  6
Continuous
 62
               7
100
AcDbLine
 10
2132.9739622489124
 20
1479.2889414424217
 30
0.0
 11
2132.9739622489124
 21
1480.7889414424217
 31
0.0
  0
LINE
  5
261
100
AcDbEntity
  8
33
370
              15
  6
Continuous
 62
               7
100
AcDbLine
 10
2168.6840626953413
 20
1479.2889414424217
 30
0.0
 11
2132.4739622489124
 21
1479.2889414424217
 31
0.0
  0
LINE
  5
262
100
AcDbEntity
  8
33
370
              15
  6
Continuous
 62
               7
100
AcDbLine
 10
2168.6840626953413
 20
1480.7889414424217
 30
0.0
 11
2132.4739622489124
 21
1480.7889414424217
 31
0.0
  0
LINE
  5
263
100
AcDbEntity
  8
33
370
              15
  6
Continuous
 62
               7
100
AcDbLine
 10
2132.9739622489124
 20
1475.2889414424217
 30
0.0
 11
2132.9739622489124
 21
1479.2889414424217
 31
0.0
  0
LINE
  5
264
100
AcDbEntity
  8
33
370
              15
  6
Continuous
 62
               7
100
AcDbLine
 10
2132.9739622489124
 20
1479.2889414424217
 30
0.0
 11
2133.4916003391177
 21
1477.3570897898435
 31
0.0
  0
LINE
  5
265
100
AcDbEntity
  8
33
370
              15
  6
Continuous
 62
               7
100
AcDbLine
 10
2132.9739622489124
 20
1479.2889414424217
 30
0.0
 11
2132.4563241587075
 21
1477.3570897898435
 31
0.0
  0
MTEXT
  5
266
100
AcDbEntity
  8
33
 62
               7
100
AcDbMText
 10
2130.4361687819164
 20
1476.305036413125
 30
0.0
 40
2.0
 41
0.0
 71
               2
 72
               1
  1
15±1_
  7
ＭＳ ゴシック
 11
0.0
 21
1.0
 31
0.0
 73
               1
 44
0.7828267384257843
  0
LINE
  5
267
100
AcDbEntity
  8
33
370
              15
  6
Continuous
 62
               7
100
AcDbLine
 10
2132.9739622489124
 20
1480.7889414424217
 30
0.0
 11
2132.9739622489124
 21
1520.7889414424217
 31
0.0
  0
LINE
  5
268
100
AcDbEntity
  8
33
370
              15
  6
Continuous
 62
               7
100
AcDbLine
 10
2132.9739622489124
 20
1480.7889414424217
 30
0.0
 11
2132.4563241587075
 21
1482.7207930949999
 31
0.0
  0
LINE
  5
269
100
AcDbEntity
  8
33
370
              15
  6
Continuous
 62
               7
100
AcDbLine
 10
2132.9739622489124
 20
1480.7889414424217
 30
0.0
 11
2133.4916003391177
 21
1482.7207930949999
 31
0.0
  0
LINE
  5
26A
100
AcDbEntity
  8
33
370
              15
  6
Continuous
 62
               7
100
AcDbLine
 10
2132.9739622489124
 20
1520.7889414424217
 30
0.0
 11
2133.4916003391177
 21
1518.8570897898435
 31
0.0
  0
LINE
  5
26B
100
AcDbEntity
  8
33
370
              15
  6
Continuous
 62
               7
100
AcDbLine
 10
2132.9739622489124
 20
1520.7889414424217
 30
0.0
 11
2132.4563241587075
 21
1518.8570897898435
 31
0.0
  0
LINE
  5
26C
100
AcDbEntity
  8
33
370
              15
  6
Continuous
 62
               7
100
AcDbLine
 10
2168.6840626953413
 20
1520.7889414424217
 30
0.0
 11
2132.4739622489124
 21
1520.7889414424217
 31
0.0
  0
MTEXT
  5
26D
100
AcDbEntity
  8
33
 62
               7
100
AcDbMText
 10
2130.4739617506666
 20
1500.7889414424217
 30
0.0
 40
2.0
 41
0.0
 71
               2
 72
               1
  1
400±2_
  7
ＭＳ ゴシック
 11
0.0
 21
1.0
 31
0.0
 73
               1
 44
0.7828267384257843
  0
LINE
  5
26E
100
AcDbEntity
  8
33
370
              15
  6
Continuous
 62
               7
100
AcDbLine
 10
2132.9739622489124
 20
1520.7889414424217
 30
0.0
 11
2132.9739622489124
 21
1522.2889414424217
 31
0.0
  0
LINE
  5
26F
100
AcDbEntity
  8
33
370
              15
  6
Continuous
 62
               7
100
AcDbLine
 10
2168.6840626953413
 20
1522.2889414424217
 30
0.0
 11
2132.4739622489124
 21
1522.2889414424217
 31
0.0
  0
LINE
  5
270
100
AcDbEntity
  8
33
370
              15
  6
Continuous
 62
               7
100
AcDbLine
 10
2132.9739622489124
 20
1522.2889414424217
 30
0.0
 11
2132.9739622489124
 21
1526.2889414424217
 31
0.0
  0
LINE
  5
271
100
AcDbEntity
  8
33
370
              15
  6
Continuous
 62
               7
100
AcDbLine
 10
2132.9739622489124
 20
1522.2889414424217
 30
0.0
 11
2132.4563241587075
 21
1524.2207930949999
 31
0.0
  0
LINE
  5
272
100
AcDbEntity
  8
33
370
              15
  6
Continuous
 62
               7
100
AcDbLine
 10
2132.9739622489124
 20
1522.2889414424217
 30
0.0
 11
2133.4916003391177
 21
1524.2207930949999
 31
0.0
  0
MTEXT
  5
273
100
AcDbEntity
  8
33
 62
               7
100
AcDbMText
 10
2130.3228539625807
 20
1524.8904307002342
 30
0.0
 40
2.0
 41
0.0
 71
               2
 72
               1
  1
15±1_
  7
ＭＳ ゴシック
 11
0.0
 21
1.0
 31
0.0
 73
               1
 44
0.7828267384257843
  0
LINE
  5
274
100
AcDbEntity
  8
33
370
              15
  6
Continuous
 62
               7
100
AcDbLine
 10
2126.1590308075861
 20
1479.2889414424217
 30
0.0
 11
2126.1590308075861
 21
1522.2889414424217
 31
0.0
  0
LINE
  5
275
100
AcDbEntity
  8
33
370
              15
  6
Continuous
 62
               7
100
AcDbLine
 10
2126.1590308075861
 20
1479.2889414424217
 30
0.0
 11
2125.6413927173812
 21
1481.2207930949999
 31
0.0
  0
LINE
  5
276
100
AcDbEntity
  8
33
370
              15
  6
Continuous
 62
               7
100
AcDbLine
 10
2126.1590308075861
 20
1479.2889414424217
 30
0.0
 11
2126.6766688977909
 21
1481.2207930949999
 31
0.0
  0
LINE
  5
277
100
AcDbEntity
  8
33
370
              15
  6
Continuous
 62
               7
100
AcDbLine
 10
2126.1590308075861
 20
1522.2889414424217
 30
0.0
 11
2126.6766688977909
 21
1520.3570897898435
 31
0.0
  0
LINE
  5
278
100
AcDbEntity
  8
33
370
              15
  6
Continuous
 62
               7
100
AcDbLine
 10
2126.1590308075861
 20
1522.2889414424217
 30
0.0
 11
2125.6413927173812
 21
1520.3570897898435
 31
0.0
  0
LINE
  5
279
100
AcDbEntity
  8
33
370
              15
  6
Continuous
 62
               7
100
AcDbLine
 10
2168.6840626953413
 20
1479.2889414424217
 30
0.0
 11
2125.6590308075861
 21
1479.2889414424217
 31
0.0
  0
LINE
  5
27A
100
AcDbEntity
  8
33
370
              15
  6
Continuous
 62
               7
100
AcDbLine
 10
2168.6840626953413
 20
1522.2889414424217
 30
0.0
 11
2125.6590308075861
 21
1522.2889414424217
 31
0.0
  0
MTEXT
  5
27B
100
AcDbEntity
  8
33
 62
               7
100
AcDbMText
 10
2123.6590310255688
 20
1500.7889414424217
 30
0.0
 40
2.0
 41
0.0
 71
               2
 72
               1
  1
430±2_
  7
ＭＳ ゴシック
 11
0.0
 21
1.0
 31
0.0
 73
               1
 44
0.7828267384257843
  0
LINE
  5
27C
100
AcDbEntity
  8
33
370
              15
  6
Continuous
 62
               7
100
AcDbLine
 10
2169.1840626953413
 20
1524.2889414424217
 30
0.0
 11
2165.1840626953413
 21
1524.2889414424217
 31
0.0
  0
LINE
  5
27D
100
AcDbEntity
  8
33
370
              15
  6
Continuous
 62
               7
100
AcDbLine
 10
2165.1840626953413
 20
1524.2889414424217
 30
0.0
 11
2167.1840626953413
 21
1524.9889414424217
 31
0.0
  0
LINE
  5
27E
100
AcDbEntity
  8
33
370
              15
  6
Continuous
 62
               7
100
AcDbLine
 10
2167.1840626953413
 20
1524.9889414424217
 30
0.0
 11
2167.1840626953413
 21
1523.4889414424217
 31
0.0
  0
MTEXT
  5
27F
100
AcDbEntity
  8
33
 62
               7
100
AcDbMText
 10
2162.5053521315258
 20
1524.2106699580468
 30
0.0
 40
2.0
 41
0.0
 71
               2
 72
               1
  1
A
  7
ＭＳ ゴシック
 11
0.0
 21
1.0
 31
0.0
 73
               1
 44
0.7828267384257843
  0
LINE
  5
280
100
AcDbEntity
  8
33
370
              15
  6
Continuous
 62
               7
100
AcDbLine
 10
2169.1840626953413
 20
1518.5902628709932
 30
0.0
 11
2165.1840626953413
 21
1518.5902628709932
 31
0.0
  0
LINE
  5
281
100
AcDbEntity
  8
33
370
              15
  6
Continuous
 62
               7
100
AcDbLine
 10
2165.1840626953413
 20
1518.5902628709932
 30
0.0
 11
2167.1840626953413
 21
1517.8902628709932
 31
0.0
  0
LINE
  5
282
100
AcDbEntity
  8
33
370
              15
  6
Continuous
 62
               7
100
AcDbLine
 10
2167.1840626953413
 20
1517.8902628709932
 30
0.0
 11
2167.1840626953413
 21
1519.3902628709932
 31
0.0
  0
MTEXT
  5
283
100
AcDbEntity
  8
33
 62
               7
100
AcDbMText
 10
2162.5053521315258
 20
1518.389930211953
 30
0.0
 40
2.0
 41
0.0
 71
               2
 72
               1
  1
A
  7
ＭＳ ゴシック
 11
0.0
 21
1.0
 31
0.0
 73
               1
 44
0.7828267384257843
  0
LINE
  5
284
100
AcDbEntity
  8
33
370
              15
  6
Continuous
 62
               7
100
AcDbLine
 10
2200.1840626953413
 20
1500.7889414424217
 30
0.0
 11
2200.1840626953413
 21
1504.7889414424217
 31
0.0
  0
LINE
  5
285
100
AcDbEntity
  8
33
370
              15
  6
Continuous
 62
               7
100
AcDbLine
 10
2200.1840626953413
 20
1504.7889414424217
 30
0.0
 11
2200.8840626953411
 21
1502.7889414424217
 31
0.0
  0
LINE
  5
286
100
AcDbEntity
  8
33
370
              15
  6
Continuous
 62
               7
100
AcDbLine
 10
2200.8840626953411
 20
1502.7889414424217
 30
0.0
 11
2199.3840626953411
 21
1502.7889414424217
 31
0.0
  0
MTEXT
  5
287
100
AcDbEntity
  8
33
 62
               7
100
AcDbMText
 10
2200.1057915846509
 20
1507.4676523799217
 30
0.0
 40
2.0
 41
0.0
 71
               2
 72
               1
  1
B
  7
ＭＳ ゴシック
 73
               1
 44
0.7828267384257843
  0
LINE
  5
288
100
AcDbEntity
  8
33
370
              15
  6
Continuous
 62
               7
100
AcDbLine
 10
2194.4853841239128
 20
1500.7889414424217
 30
0.0
 11
2194.4853841239128
 21
1504.7889414424217
 31
0.0
  0
LINE
  5
289
100
AcDbEntity
  8
33
370
              15
  6
Continuous
 62
               7
100
AcDbLine
 10
2194.4853841239128
 20
1504.7889414424217
 30
0.0
 11
2193.7853841239125
 21
1502.7889414424217
 31
0.0
  0
LINE
  5
28A
100
AcDbEntity
  8
33
370
              15
  6
Continuous
 62
               7
100
AcDbLine
 10
2193.7853841239125
 20
1502.7889414424217
 30
0.0
 11
2195.2853841239125
 21
1502.7889414424217
 31
0.0
  0
MTEXT
  5
28B
100
AcDbEntity
  8
33
 62
               7
100
AcDbMText
 10
2194.2850518385571
 20
1507.4676523799217
 30
0.0
 40
2.0
 41
0.0
 71
               2
 72
               1
  1
B
  7
ＭＳ ゴシック
 73
               1
 44
0.7828267384257843
  0
LINE
  5
28C
100
AcDbEntity
  8
33
370
              15
  6
Continuous
 62
               7
100
AcDbLine
 10
2164.5053517578413
 20
1525.5810013914013
 30
0.0
 11
2164.5053517578413
 21
1523.1344133811972
 31
0.0
  0
LINE
  5
28D
100
AcDbEntity
  8
33
370
              15
  6
Continuous
 62
               7
100
AcDbLine
 10
2164.5053517578413
 20
1517.2982029220136
 30
0.0
 11
2164.5053517578413
 21
1519.7447909322175
 31
0.0
  0
LINE
  5
28E
100
AcDbEntity
  8
33
370
              15
  6
Continuous
 62
               7
100
AcDbLine
 10
2201.4761226443211
 20
1505.4676523799217
 30
0.0
 11
2199.0295346341168
 21
1505.4676523799217
 31
0.0
  0
LINE
  5
28F
100
AcDbEntity
  8
33
370
              15
  6
Continuous
 62
               7
100
AcDbLine
 10
2193.193324174933
 20
1505.4676523799217
 30
0.0
 11
2195.6399121851373
 21
1505.4676523799217
 31
0.0
  0
LINE
  5
290
100
AcDbEntity
  8
33
370
              15
  6
Continuous
 62
               7
100
AcDbLine
 10
2194.0972283522287
 20
1509.4019516465034
 30
0.0
 11
2194.0972283522287
 21
1497.5688840444625
 31
0.0
  0
MTEXT
  5
291
100
AcDbEntity
  8
17
 62
               7
100
AcDbMText
 10
2151.0435668932914
 20
1411.3601943907972
 30
0.0
 40
3.0
 41
0.0
 71
               5
 72
               1
  1
1) 材質はＳＵＳ３０４とする。
  7
ＭＳ ゴシック
 73
               1
 44
0.7828267384257842
  0
MTEXT
  5
292
100
AcDbEntity
  8
17
 62
               7
100
AcDbMText
 10
2144.2212335362224
 20
1406.2926315245863
 30
0.0
 40
3.0
 41
0.0
 71
               5
 72
               1
  1
2) 板厚はｔ0.7とする。
  7
ＭＳ ゴシック
 73
               1
 44
0.7828267384257842
  0
MTEXT
  5
293
100
AcDbEntity
  8
17
 62
               7
100
AcDbMText
 10
2162.7390012728692
 20
1401.2250686583752
 30
0.0
 40
3.0
 41
0.0
 71
               5
 72
               1
  1
3) 表面仕様はBA材をプレスしたままとする。
  7
ＭＳ ゴシック
 73
               1
 44
0.7828267384257842
  0
MTEXT
  5
294
100
AcDbEntity
  8
17
 62
               7
100
AcDbMText
 10
2280.5283323275567
 20
1402.5995973201689
 30
0.0
 40
4.8865234375000011
 41
0.0
 71
               5
 72
               1
  1
550{\fArial|b0|i0|c0|p0;\H0.9306x;\lG}ボｰﾙ
  7
ＭＳ ゴシック
 73
               1
 44
0.9002507491896518
  0
MTEXT
  5
295
100
AcDbEntity
  8
実形
100
AcDbMText
 10
2265.465955669581
 20
1386.5288941496842
 30
0.0
 40
2.2737630208333335
 41
68.40000000000002
 71
               1
 72
               1
  1
{\C7;\l }{\C7;\H1.333x;\le-KITCHEN}{\C7;\H0.7697x;\l }{\C7;\H0.6667x;\lU-ARCHITECTURE WORKS}
  7
Arial
 73
               1
 44
0.4139679692283811
  0
POLYLINE
  5
296
100
AcDbEntity
  8
0
370
               5
  6
Continuous
 62
               7
100
AcDb2dPolyline
 66
               1
 10
0.0
 20
0.0
 30
0.0
 70
               1
 75
               5
  0
VERTEX
  5
297
100
AcDbEntity
  8
0
370
               5
  6
Continuous
 62
               7
100
AcDbVertex
100
AcDb2dVertex
 10
2241.9084755386084
 20
1389.3072101219063
 30
0.0
  0
VERTEX
  5
298
100
AcDbEntity
  8
0
370
               5
  6
Continuous
 62
               7
100
AcDbVertex
100
AcDb2dVertex
 10
2343.3084755386085
 20
1389.3072101219063
 30
0.0
  0
VERTEX
  5
299
100
AcDbEntity
  8
0
370
               5
  6
Continuous
 62
               7
100
AcDbVertex
100
AcDb2dVertex
 10
2343.3084755386085
 20
1380.3072101219068
 30
0.0
  0
VERTEX
  5
29A
100
AcDbEntity
  8
0
370
               5
  6
Continuous
 62
               7
100
AcDbVertex
100
AcDb2dVertex
 10
2241.9084755386084
 20
1380.3072101219068
 30
0.0
  0
SEQEND
  5
29B
100
AcDbEntity
  8
0
370
               5
  6
Continuous
 62
               7
  0
POLYLINE
  5
29C
100
AcDbEntity
  8
0
370
               5
  6
Continuous
 62
               7
100
AcDb2dPolyline
 66
               1
 10
0.0
 20
0.0
 30
0.0
 70
               1
 75
               5
  0
VERTEX
  5
29D
100
AcDbEntity
  8
0
370
               5
  6
Continuous
 62
               7
100
AcDbVertex
100
AcDb2dVertex
 10
2241.9084755386084
 20
1397.8072101219063
 30
0.0
  0
VERTEX
  5
29E
100
AcDbEntity
  8
0
370
               5
  6
Continuous
 62
               7
100
AcDbVertex
100
AcDb2dVertex
 10
2343.3084755386085
 20
1397.8072101219063
 30
0.0
  0
VERTEX
  5
29F
100
AcDbEntity
  8
0
370
               5
  6
Continuous
 62
               7
100
AcDbVertex
100
AcDb2dVertex
 10
2343.3084755386085
 20
1389.3072101219063
 30
0.0
  0
VERTEX
  5
2A0
100
AcDbEntity
  8
0
370
               5
  6
Continuous
 62
               7
100
AcDbVertex
100
AcDb2dVertex
 10
2241.9084755386084
 20
1389.3072101219063
 30
0.0
  0
SEQEND
  5
2A1
100
AcDbEntity
  8
0
370
               5
  6
Continuous
 62
               7
  0
POLYLINE
  5
2A2
100
AcDbEntity
  8
0
370
               5
  6
Continuous
 62
               7
100
AcDb2dPolyline
 66
               1
 10
0.0
 20
0.0
 30
0.0
 70
               1
 75
               5
  0
VERTEX
  5
2A3
100
AcDbEntity
  8
0
370
               5
  6
Continuous
 62
               7
100
AcDbVertex
100
AcDb2dVertex
 10
2241.9084755386084
 20
1408.3072101219061
 30
0.0
  0
VERTEX
  5
2A4
100
AcDbEntity
  8
0
370
               5
  6
Continuous
 62
               7
100
AcDbVertex
100
AcDb2dVertex
 10
2343.3084755386085
 20
1408.3072101219061
 30
0.0
  0
VERTEX
  5
2A5
100
AcDbEntity
  8
0
370
               5
  6
Continuous
 62
               7
100
AcDbVertex
100
AcDb2dVertex
 10
2343.3084755386085
 20
1397.8072101219063
 30
0.0
  0
VERTEX
  5
2A6
100
AcDbEntity
  8
0
370
               5
  6
Continuous
 62
               7
100
AcDbVertex
100
AcDb2dVertex
 10
2241.9084755386084
 20
1397.8072101219063
 30
0.0
  0
SEQEND
  5
2A7
100
AcDbEntity
  8
0
370
               5
  6
Continuous
 62
               7
  0
MTEXT
  5
2A8
100
AcDbEntity
  8
0
 62
               7
100
AcDbMText
 10
2265.465955669581
 20
1394.9108394294983
 30
0.0
 40
3.2576822916666668
 41
0.0
 71
               1
 72
               1
  1
尺度　　１：１０
  7
ＭＳ ゴシック
 73
               1
 44
0.7828267384257843
  0
POLYLINE
  5
2A9
100
AcDbEntity
  8
0
370
               5
  6
Continuous
 62
               7
100
AcDb2dPolyline
 66
               1
 10
0.0
 20
0.0
 30
0.0
 70
               1
 75
               5
  0
VERTEX
  5
2AA
100
AcDbEntity
  8
0
370
               5
  6
Continuous
 62
               7
100
AcDbVertex
100
AcDb2dVertex
 10
2081.4084755386057
 20
1559.80721012191
 30
0.0
  0
VERTEX
  5
2AB
100
AcDbEntity
  8
0
370
               5
  6
Continuous
 62
               7
100
AcDbVertex
100
AcDb2dVertex
 10
2343.3084755386085
 20
1559.80721012191
 30
0.0
  0
VERTEX
  5
2AC
100
AcDbEntity
  8
0
370
               5
  6
Continuous
 62
               7
100
AcDbVertex
100
AcDb2dVertex
 10
2343.3084755386085
 20
1380.3072101219068
 30
0.0
  0
VERTEX
  5
2AD
100
AcDbEntity
  8
0
370
               5
  6
Continuous
 62
               7
100
AcDbVertex
100
AcDb2dVertex
 10
2081.4084755386057
 20
1380.3072101219068
 30
0.0
  0
SEQEND
  5
2AE
100
AcDbEntity
  8
0
370
               5
  6
Continuous
 62
               7
  0
LINE
  5
2AF
100
AcDbEntity
  8
0
370
               5
  6
Continuous
 62
               7
100
AcDbLine
 10
2256.2691033522287
 20
1439.0349235852789
 30
0.0
 11
2257.7691033522287
 21
1439.0349235852789
 31
0.0
  0
ENDSEC
  0
SECTION
  2
OBJECTS
  0
DICTIONARY
  5
19
100
AcDbDictionary
280
               0
281
               1
  3
ACAD_GROUP
350
1A
  3
ACAD_MLINESTYLE
350
1B
  3
ACAD_LAYOUT
350
1E
  3
ACAD_PLOTSETTINGS
350
22
  3
ACAD_PLOTSTYLENAME
350
1F
  3
ACAD_WIPEOUT_VARS
350
23
  0
DICTIONARY
  5
1A
102
{ACAD_REACTORS
330
19
102
}
100
AcDbDictionary
280
               0
281
               1
  0
DICTIONARY
  5
1B
102
{ACAD_REACTORS
330
19
102
}
100
AcDbDictionary
280
               0
281
               1
  3
Standard
350
1C
  0
MLINESTYLE
  5
1C
102
{ACAD_REACTORS
330
1B
102
}
100
AcDbMlineStyle
  2
Standard
 70
               0
  3

 62
               0
 51
90.0
 52
90.0
 71
               2
 49
0.5
 62
             256
  6
ByLayer
 49
-0.5
 62
             256
  6
ByLayer
  0
ACDBDICTIONARYWDFLT
  5
1F
102
{ACAD_REACTORS
330
19
102
}
100
AcDbDictionary
281
               1
  3
Normal
350
1D
100
AcDbDictionaryWithDefault
340
1D
  0
ACDBPLACEHOLDER
  5
1D
102
{ACAD_REACTORS
330
1F
102
}
  0
LAYOUT
  5
20
102
{ACAD_REACTORS
330
1E
102
}
100
AcDbPlotSettings
  1

  2

  4

  6

 40
0.0
 41
0.0
 42
0.0
 43
0.0
 44
0.0
 45
0.0
 46
0.0
 47
0.0
 48
0.0
 49
0.0
140
0.0
141
0.0
142
1.0
143
1.0
 70
            1024
 72
               0
 73
               0
 74
               0
  7

 75
               0
147
1.0
148
0.0
149
0.0
100
AcDbLayout
  1
Model
 70
               0
 71
               0
 10
0.0
 20
0.0
 11
0.0
 21
0.0
 12
0.0
 22
0.0
 32
0.0
 14
0.0
 24
0.0
 34
0.0
 15
0.0
 25
0.0
 35
0.0
146
0.0
 13
0.0
 23
0.0
 33
0.0
 16
0.0
 26
0.0
 36
0.0
 17
0.0
 27
0.0
 37
0.0
 76
               0
330
A
331
0
345
0
346
0
  0
LAYOUT
  5
21
102
{ACAD_REACTORS
330
1E
102
}
100
AcDbPlotSettings
  1

  2

  4

  6

 40
0.0
 41
0.0
 42
0.0
 43
0.0
 44
0.0
 45
0.0
 46
0.0
 47
0.0
 48
0.0
 49
0.0
140
0.0
141
0.0
142
1.0
143
1.0
 70
               0
 72
               0
 73
               0
 74
               0
  7

 75
               0
147
1.0
148
0.0
149
0.0
100
AcDbLayout
  1
Layout1
 70
               0
 71
               0
 10
0.0
 20
0.0
 11
0.0
 21
0.0
 12
0.0
 22
0.0
 32
0.0
 14
0.0
 24
0.0
 34
0.0
 15
0.0
 25
0.0
 35
0.0
146
0.0
 13
0.0
 23
0.0
 33
0.0
 16
0.0
 26
0.0
 36
0.0
 17
0.0
 27
0.0
 37
0.0
 76
               0
330
B
331
0
345
0
346
0
  0
DICTIONARY
  5
1E
102
{ACAD_REACTORS
330
19
102
}
100
AcDbDictionary
280
               0
281
               1
  3
Layout1
350
21
  3
Model
350
20
  0
DICTIONARY
  5
22
102
{ACAD_REACTORS
330
19
102
}
100
AcDbDictionary
280
               0
281
               1
  0
WIPEOUTVARIABLES
  5
23
100
AcDbWipeoutVariables
 70
               1
  0
ENDSEC
  0
EOF
