  0
SECTION
  2
HEADER
  9
$ACADVER
  1
AC1015
  9
$ACADMAINTVER
 70
    20
  9
$DWGCODEPAGE
  3
ANSI_932
  9
$INSBASE
 10
0.0
 20
0.0
 30
0.0
  9
$EXTMIN
 10
-16397.43261106897
 20
-3164.746155407185
 30
-0.0000000000000129
  9
$EXTMAX
 10
-13617.27761884599
 20
-1194.614298217783
 30
0.0000000000000024
  9
$LIMMIN
 10
-16435.47104444842
 20
-3166.950630060178
  9
$LIMMAX
 10
-13546.84262465292
 20
-1187.880099811149
  9
$ORTHOMODE
 70
     0
  9
$REGENMODE
 70
     1
  9
$FILLMODE
 70
     1
  9
$QTEXTMODE
 70
     0
  9
$MIRRTEXT
 70
     0
  9
$LTSCALE
 40
150.0
  9
$ATTMODE
 70
     1
  9
$TEXTSIZE
 40
1.0
  9
$TRACEWID
 40
0.05
  9
$TEXTSTYLE
  7
STANDARD
  9
$CLAYER
  8
0
  9
$CELTYPE
  6
CONTINUOUS
  9
$CECOLOR
 62
   256
  9
$CELTSCALE
 40
1.0
  9
$DISPSILH
 70
     0
  9
$DIMSCALE
 40
1.0
  9
$DIMASZ
 40
0.18
  9
$DIMEXO
 40
0.0625
  9
$DIMDLI
 40
0.38
  9
$DIMRND
 40
0.0
  9
$DIMDLE
 40
0.0
  9
$DIMEXE
 40
0.18
  9
$DIMTP
 40
0.0
  9
$DIMTM
 40
0.0
  9
$DIMTXT
 40
0.18
  9
$DIMCEN
 40
0.09
  9
$DIMTSZ
 40
0.0
  9
$DIMTOL
 70
     0
  9
$DIMLIM
 70
     0
  9
$DIMTIH
 70
     1
  9
$DIMTOH
 70
     1
  9
$DIMSE1
 70
     0
  9
$DIMSE2
 70
     0
  9
$DIMTAD
 70
     0
  9
$DIMZIN
 70
     0
  9
$DIMBLK
  1

  9
$DIMASO
 70
     1
  9
$DIMSHO
 70
     1
  9
$DIMPOST
  1

  9
$DIMAPOST
  1

  9
$DIMALT
 70
     0
  9
$DIMALTD
 70
     2
  9
$DIMALTF
 40
25.4
  9
$DIMLFAC
 40
1.0
  9
$DIMTOFL
 70
     0
  9
$DIMTVP
 40
0.0
  9
$DIMTIX
 70
     0
  9
$DIMSOXD
 70
     0
  9
$DIMSAH
 70
     0
  9
$DIMBLK1
  1

  9
$DIMBLK2
  1

  9
$DIMSTYLE
  2
Standard
  9
$DIMCLRD
 70
     0
  9
$DIMCLRE
 70
     0
  9
$DIMCLRT
 70
     0
  9
$DIMTFAC
 40
1.0
  9
$DIMGAP
 40
0.09
  9
$DIMJUST
 70
     0
  9
$DIMSD1
 70
     0
  9
$DIMSD2
 70
     0
  9
$DIMTOLJ
 70
     1
  9
$DIMTZIN
 70
     0
  9
$DIMALTZ
 70
     0
  9
$DIMALTTZ
 70
     0
  9
$DIMUPT
 70
     0
  9
$DIMDEC
 70
     4
  9
$DIMTDEC
 70
     4
  9
$DIMALTU
 70
     2
  9
$DIMALTTD
 70
     2
  9
$DIMTXSTY
  7
STANDARD
  9
$DIMAUNIT
 70
     0
  9
$DIMADEC
 70
     0
  9
$DIMALTRND
 40
0.0
  9
$DIMAZIN
 70
     0
  9
$DIMDSEP
 70
    46
  9
$DIMATFIT
 70
     3
  9
$DIMFRAC
 70
     0
  9
$DIMLDRBLK
  1

  9
$DIMLUNIT
 70
     2
  9
$DIMLWD
 70
    -2
  9
$DIMLWE
 70
    -2
  9
$DIMTMOVE
 70
     0
  9
$LUNITS
 70
     2
  9
$LUPREC
 70
     4
  9
$SKETCHINC
 40
0.1
  9
$FILLETRAD
 40
0.0
  9
$AUNITS
 70
     0
  9
$AUPREC
 70
     0
  9
$MENU
  1
.
  9
$ELEVATION
 40
0.0
  9
$PELEVATION
 40
0.0
  9
$THICKNESS
 40
0.0
  9
$LIMCHECK
 70
     0
  9
$CHAMFERA
 40
0.0
  9
$CHAMFERB
 40
0.0
  9
$CHAMFERC
 40
0.0
  9
$CHAMFERD
 40
0.0
  9
$SKPOLY
 70
     0
  9
$TDCREATE
 40
2453840.601969572
  9
$TDUCREATE
 40
2453840.226969572
  9
$TDUPDATE
 40
2453853.601196112
  9
$TDUUPDATE
 40
2453853.226196111
  9
$TDINDWG
 40
0.0455347569
  9
$TDUSRTIMER
 40
0.0455342245
  9
$USRTIMER
 70
     1
  9
$ANGBASE
 50
0.0
  9
$ANGDIR
 70
     0
  9
$PDMODE
 70
     0
  9
$PDSIZE
 40
0.0
  9
$PLINEWID
 40
0.0
  9
$SPLFRAME
 70
     0
  9
$SPLINETYPE
 70
     6
  9
$SPLINESEGS
 70
     8
  9
$HANDSEED
  5
494
  9
$SURFTAB1
 70
     6
  9
$SURFTAB2
 70
     6
  9
$SURFTYPE
 70
     6
  9
$SURFU
 70
     6
  9
$SURFV
 70
     6
  9
$UCSBASE
  2

  9
$UCSNAME
  2

  9
$UCSORG
 10
0.0
 20
0.0
 30
0.0
  9
$UCSXDIR
 10
1.0
 20
0.0
 30
0.0
  9
$UCSYDIR
 10
0.0
 20
1.0
 30
0.0
  9
$UCSORTHOREF
  2

  9
$UCSORTHOVIEW
 70
     0
  9
$UCSORGTOP
 10
0.0
 20
0.0
 30
0.0
  9
$UCSORGBOTTOM
 10
0.0
 20
0.0
 30
0.0
  9
$UCSORGLEFT
 10
0.0
 20
0.0
 30
0.0
  9
$UCSORGRIGHT
 10
0.0
 20
0.0
 30
0.0
  9
$UCSORGFRONT
 10
0.0
 20
0.0
 30
0.0
  9
$UCSORGBACK
 10
0.0
 20
0.0
 30
0.0
  9
$PUCSBASE
  2

  9
$PUCSNAME
  2

  9
$PUCSORG
 10
0.0
 20
0.0
 30
0.0
  9
$PUCSXDIR
 10
1.0
 20
0.0
 30
0.0
  9
$PUCSYDIR
 10
0.0
 20
1.0
 30
0.0
  9
$PUCSORTHOREF
  2

  9
$PUCSORTHOVIEW
 70
     0
  9
$PUCSORGTOP
 10
0.0
 20
0.0
 30
0.0
  9
$PUCSORGBOTTOM
 10
0.0
 20
0.0
 30
0.0
  9
$PUCSORGLEFT
 10
0.0
 20
0.0
 30
0.0
  9
$PUCSORGRIGHT
 10
0.0
 20
0.0
 30
0.0
  9
$PUCSORGFRONT
 10
0.0
 20
0.0
 30
0.0
  9
$PUCSORGBACK
 10
0.0
 20
0.0
 30
0.0
  9
$USERI1
 70
     0
  9
$USERI2
 70
     0
  9
$USERI3
 70
     0
  9
$USERI4
 70
     0
  9
$USERI5
 70
     0
  9
$USERR1
 40
0.0
  9
$USERR2
 40
0.0
  9
$USERR3
 40
0.0
  9
$USERR4
 40
0.0
  9
$USERR5
 40
0.0
  9
$WORLDVIEW
 70
     1
  9
$SHADEDGE
 70
     3
  9
$SHADEDIF
 70
    70
  9
$TILEMODE
 70
     1
  9
$MAXACTVP
 70
    64
  9
$PINSBASE
 10
0.0
 20
0.0
 30
0.0
  9
$PLIMCHECK
 70
     0
  9
$PEXTMIN
 10
1.000000000000000E+20
 20
1.000000000000000E+20
 30
1.000000000000000E+20
  9
$PEXTMAX
 10
-1.000000000000000E+20
 20
-1.000000000000000E+20
 30
-1.000000000000000E+20
  9
$PLIMMIN
 10
0.0
 20
0.0
  9
$PLIMMAX
 10
12.0
 20
9.0
  9
$UNITMODE
 70
     0
  9
$VISRETAIN
 70
     1
  9
$PLINEGEN
 70
     0
  9
$PSLTSCALE
 70
     1
  9
$TREEDEPTH
 70
  3020
  9
$CMLSTYLE
  2
Standard
  9
$CMLJUST
 70
     0
  9
$CMLSCALE
 40
1.0
  9
$PROXYGRAPHICS
 70
     1
  9
$MEASUREMENT
 70
     0
  9
$CELWEIGHT
370
    -1
  9
$ENDCAPS
280
     0
  9
$JOINSTYLE
280
     0
  9
$LWDISPLAY
290
     0
  9
$INSUNITS
 70
     0
  9
$HYPERLINKBASE
  1

  9
$STYLESHEET
  1

  9
$XEDIT
290
     1
  9
$CEPSNTYPE
380
     0
  9
$PSTYLEMODE
290
     1
  9
$FINGERPRINTGUID
  2
{43281624-5D5A-40D5-899B-F84731C0887D}
  9
$VERSIONGUID
  2
{9E0F569C-4757-4FA7-BBBC-FBD666D72CB4}
  9
$EXTNAMES
290
     1
  9
$PSVPSCALE
 40
0.0
  9
$OLESTARTUP
290
     0
  0
ENDSEC
  0
SECTION
  2
CLASSES
  0
CLASS
  1
ACDBDICTIONARYWDFLT
  2
AcDbDictionaryWithDefault
  3
ObjectDBX Classes
 90
        0
280
     0
281
     0
  0
CLASS
  1
DICTIONARYVAR
  2
AcDbDictionaryVar
  3
ObjectDBX Classes
 90
        0
280
     0
281
     0
  0
CLASS
  1
ACDBPLACEHOLDER
  2
AcDbPlaceHolder
  3
ObjectDBX Classes
 90
        0
280
     0
281
     0
  0
CLASS
  1
LAYOUT
  2
AcDbLayout
  3
ObjectDBX Classes
 90
        0
280
     0
281
     0
  0
ENDSEC
  0
SECTION
  2
TABLES
  0
TABLE
  2
VPORT
  5
8
330
0
100
AcDbSymbolTable
 70
     7
  0
VPORT
  5
489
330
8
100
AcDbSymbolTableRecord
100
AcDbViewportTableRecord
  2
*Active
 70
     0
 10
0.0
 20
0.0
 11
1.0
 21
1.0
 12
-15007.35511495748
 22
-2179.680226812484
 13
0.0
 23
0.0
 14
1.0
 24
1.0
 15
0.0
 25
0.0
 16
0.0
 26
0.0
 36
1.0
 17
0.0
 27
0.0
 37
0.0
 40
1997.622069150184
 41
2.158508158508158
 42
50.0
 43
0.0
 44
0.0
 50
0.0
 51
0.0
 71
     0
 72
   100
 73
     1
 74
     1
 75
     0
 76
     0
 77
     0
 78
     0
281
     0
 65
     1
110
0.0
120
0.0
130
0.0
111
1.0
121
0.0
131
0.0
112
0.0
122
1.0
132
0.0
 79
     0
146
0.0
  0
ENDTAB
  0
TABLE
  2
LTYPE
  5
5
330
0
100
AcDbSymbolTable
 70
     7
  0
LTYPE
  5
13
330
5
100
AcDbSymbolTableRecord
100
AcDbLinetypeTableRecord
  2
ByBlock
 70
     0
  3

 72
    65
 73
     0
 40
0.0
  0
LTYPE
  5
14
330
5
100
AcDbSymbolTableRecord
100
AcDbLinetypeTableRecord
  2
ByLayer
 70
     0
  3

 72
    65
 73
     0
 40
0.0
  0
LTYPE
  5
15
330
5
100
AcDbSymbolTableRecord
100
AcDbLinetypeTableRecord
  2
CONTINUOUS
 70
     0
  3
Solid line
 72
    65
 73
     0
 40
0.0
  0
LTYPE
  5
24
330
5
100
AcDbSymbolTableRecord
100
AcDbLinetypeTableRecord
  2
DASHED
 70
     0
  3
__ __ __ __ __ __ __ __ __ __ __ __ __ __ __
 72
    65
 73
     2
 40
0.75
 49
0.5
 74
     0
 49
-0.25
 74
     0
  0
LTYPE
  5
25
330
5
100
AcDbSymbolTableRecord
100
AcDbLinetypeTableRecord
  2
HIDDEN
 70
     0
  3
_ _ _ _ _ _ _ _ _ _ _ _ _ _ _ _ _ _ _ _ _ _ _
 72
    65
 73
     2
 40
0.375
 49
0.25
 74
     0
 49
-0.125
 74
     0
  0
LTYPE
  5
26
330
5
100
AcDbSymbolTableRecord
100
AcDbLinetypeTableRecord
  2
DOT
 70
     0
  3
...............................................
 72
    65
 73
     2
 40
0.25
 49
0.0
 74
     0
 49
-0.25
 74
     0
  0
LTYPE
  5
27
330
5
100
AcDbSymbolTableRecord
100
AcDbLinetypeTableRecord
  2
DASHDOT
 70
     0
  3
__ . __ . __ . __ . __ . __ . __ . __ . __ . __
 72
    65
 73
     4
 40
1.0
 49
0.5
 74
     0
 49
-0.25
 74
     0
 49
0.0
 74
     0
 49
-0.25
 74
     0
  0
LTYPE
  5
28
330
5
100
AcDbSymbolTableRecord
100
AcDbLinetypeTableRecord
  2
DIVIDE
 70
     0
  3
__ . . __ . . __ . . __ . . __ . . __ . . __
 72
    65
 73
     6
 40
1.25
 49
0.5
 74
     0
 49
-0.25
 74
     0
 49
0.0
 74
     0
 49
-0.25
 74
     0
 49
0.0
 74
     0
 49
-0.25
 74
     0
  0
LTYPE
  5
2FE
330
5
100
AcDbSymbolTableRecord
100
AcDbLinetypeTableRecord
  2
CENTER2
 70
     0
  3
Center (.5x) ___ _ ___ _ ___ _ ___ _ ___ _ ___
 72
    65
 73
     4
 40
28.575
 49
19.05
 74
     0
 49
-3.174999999999998
 74
     0
 49
3.174999999999998
 74
     0
 49
-3.174999999999998
 74
     0
  0
ENDTAB
  0
TABLE
  2
LAYER
  5
2
330
0
100
AcDbSymbolTable
 70
     7
  0
LAYER
  5
10
330
2
100
AcDbSymbolTableRecord
100
AcDbLayerTableRecord
  2
0
 70
     0
 62
     7
  6
CONTINUOUS
370
    -3
390
F
  0
LAYER
  5
29
330
2
100
AcDbSymbolTableRecord
100
AcDbLayerTableRecord
  2
1
 70
     0
 62
     7
  6
CONTINUOUS
370
    -3
390
F
  0
LAYER
  5
2A
330
2
100
AcDbSymbolTableRecord
100
AcDbLayerTableRecord
  2
17
 70
     0
 62
     7
  6
CONTINUOUS
370
    -3
390
F
  0
LAYER
  5
2B
330
2
100
AcDbSymbolTableRecord
100
AcDbLayerTableRecord
  2
33
 70
     0
 62
     7
  6
CONTINUOUS
370
    -3
390
F
  0
LAYER
  5
2FF
330
2
100
AcDbSymbolTableRecord
100
AcDbLayerTableRecord
  2
一般
 70
     0
 62
     7
  6
CONTINUOUS
370
     5
390
F
  0
LAYER
  5
300
330
2
100
AcDbSymbolTableRecord
100
AcDbLayerTableRecord
  2
実形
 70
     0
 62
     7
  6
CONTINUOUS
370
    18
390
F
  0
LAYER
  5
301
330
2
100
AcDbSymbolTableRecord
100
AcDbLayerTableRecord
  2
Cen
 70
     0
 62
     7
  6
CENTER2
370
    15
390
F
  0
ENDTAB
  0
TABLE
  2
STYLE
  5
3
330
0
100
AcDbSymbolTable
 70
     3
  0
STYLE
  5
11
330
3
100
AcDbSymbolTableRecord
100
AcDbTextStyleTableRecord
  2
STANDARD
 70
     0
 40
1.0
 41
1.0
 50
0.0
 71
     0
 42
1.0
  3
TXT
  4

  0
STYLE
  5
2C
330
3
100
AcDbSymbolTableRecord
100
AcDbTextStyleTableRecord
  2
BIGFONT
 70
     0
 40
1.0
 41
1.0
 50
0.0
 71
     0
 42
1.0
  3
TXT
  4
BIGFONT
  0
STYLE
  5
302
330
3
100
AcDbSymbolTableRecord
100
AcDbTextStyleTableRecord
  2
ＭＳ ゴシック
 70
     0
 40
0.0
 41
1.0
 50
0.0
 71
     0
 42
0.0
  3
MS Gothic.ttf
  4

1001
ACAD
1000
ＭＳ ゴシック
1071
        0
  0
ENDTAB
  0
TABLE
  2
VIEW
  5
6
330
0
100
AcDbSymbolTable
 70
     0
  0
ENDTAB
  0
TABLE
  2
UCS
  5
7
330
0
100
AcDbSymbolTable
 70
     0
  0
ENDTAB
  0
TABLE
  2
APPID
  5
9
330
0
100
AcDbSymbolTable
 70
     1
  0
APPID
  5
12
330
9
100
AcDbSymbolTableRecord
100
AcDbRegAppTableRecord
  2
ACAD
 70
     0
  0
ENDTAB
  0
TABLE
  2
DIMSTYLE
  5
A
330
0
100
AcDbSymbolTable
 70
     2
100
AcDbDimStyleTable
 71
     0
  0
DIMSTYLE
105
2FC
330
A
100
AcDbSymbolTableRecord
100
AcDbDimStyleTableRecord
  2
Standard
 70
     0
340
11
  0
DIMSTYLE
105
40E
330
A
100
AcDbSymbolTableRecord
100
AcDbDimStyleTableRecord
  2
ISO-25
 70
     0
 41
35.0
 42
65.0
 43
3.75
 44
0.0
 73
     0
 74
     0
 77
     1
 78
     8
140
25.0
141
2.5
143
0.03937007874016
147
6.25
171
     3
172
     1
271
     2
272
     2
274
     3
283
     0
284
     8
340
11
341
408
342
404
371
    15
372
    15
  0
ENDTAB
  0
TABLE
  2
BLOCK_RECORD
  5
1
330
0
100
AcDbSymbolTable
 70
     2
  0
BLOCK_RECORD
  5
20
330
1
100
AcDbSymbolTableRecord
100
AcDbBlockTableRecord
  2
*Model_Space
340
23
  0
BLOCK_RECORD
  5
1C
330
1
100
AcDbSymbolTableRecord
100
AcDbBlockTableRecord
  2
*Paper_Space
340
1F
  0
BLOCK_RECORD
  5
404
330
1
100
AcDbSymbolTableRecord
100
AcDbBlockTableRecord
  2
_DotSmall
340
0
  0
BLOCK_RECORD
  5
408
330
1
100
AcDbSymbolTableRecord
100
AcDbBlockTableRecord
  2
_Open30
340
0
  0
ENDTAB
  0
ENDSEC
  0
SECTION
  2
BLOCKS
  0
BLOCK
  5
21
330
20
100
AcDbEntity
  8
0
100
AcDbBlockBegin
  2
*Model_Space
 70
     0
 10
0.0
 20
0.0
 30
0.0
  3
*Model_Space
  1

  0
ENDBLK
  5
22
330
20
100
AcDbEntity
  8
0
100
AcDbBlockEnd
  0
BLOCK
  5
1D
330
1C
100
AcDbEntity
 67
     1
  8
0
100
AcDbBlockBegin
  2
*Paper_Space
 70
     0
 10
0.0
 20
0.0
 30
0.0
  3
*Paper_Space
  1

  0
ENDBLK
  5
1E
330
1C
100
AcDbEntity
 67
     1
  8
0
100
AcDbBlockEnd
  0
BLOCK
  5
405
330
404
100
AcDbEntity
  8
0
100
AcDbBlockBegin
  2
_DotSmall
 70
     0
 10
0.0
 20
0.0
 30
0.0
  3
_DotSmall
  1

  0
LWPOLYLINE
  5
406
330
404
100
AcDbEntity
  8
0
 62
     0
100
AcDbPolyline
 90
        2
 70
     1
 43
0.5
 10
-0.0625
 20
0.0
 42
1.0
 10
0.0625
 20
0.0
 42
1.0
  0
ENDBLK
  5
407
330
404
100
AcDbEntity
  8
0
100
AcDbBlockEnd
  0
BLOCK
  5
409
330
408
100
AcDbEntity
  8
0
100
AcDbBlockBegin
  2
_Open30
 70
     0
 10
0.0
 20
0.0
 30
0.0
  3
_Open30
  1

  0
LINE
  5
40A
330
408
100
AcDbEntity
  8
0
 62
     0
370
    -2
100
AcDbLine
 10
-1.0
 20
0.26794919
 30
0.0
 11
0.0
 21
0.0
 31
0.0
  0
LINE
  5
40B
330
408
100
AcDbEntity
  8
0
 62
     0
370
    -2
100
AcDbLine
 10
0.0
 20
0.0
 30
0.0
 11
-1.0
 21
-0.26794919
 31
0.0
  0
LINE
  5
40C
330
408
100
AcDbEntity
  8
0
 62
     0
370
    -2
100
AcDbLine
 10
0.0
 20
0.0
 30
0.0
 11
-1.0
 21
0.0
 31
0.0
  0
ENDBLK
  5
40D
330
408
100
AcDbEntity
  8
0
100
AcDbBlockEnd
  0
ENDSEC
  0
SECTION
  2
ENTITIES
  0
LINE
  5
7A
330
20
100
AcDbEntity
  8
17
  6
Continuous
 62
     7
100
AcDbLine
 10
-14069.48774298625
 20
-2285.50406250909
 30
0.0
 11
-14119.48774298625
 21
-2285.50406250909
 31
0.0
  0
LINE
  5
7B
330
20
100
AcDbEntity
  8
17
  6
Continuous
 62
     7
100
AcDbLine
 10
-14144.48774298625
 20
-2310.50406250909
 30
0.0
 11
-14144.48774298625
 21
-2485.50406250909
 31
0.0
  0
ARC
  5
7C
330
20
100
AcDbEntity
  8
17
  6
Continuous
 62
     7
100
AcDbCircle
 10
-14119.48774298625
 20
-2310.50406250909
 30
0.0
 40
25.0
100
AcDbArc
 50
90.0
 51
180.0
  0
LINE
  5
7D
330
20
100
AcDbEntity
  8
17
  6
Continuous
 62
     7
100
AcDbLine
 10
-14069.48774298625
 20
-2290.50406250909
 30
0.0
 11
-14119.48774298625
 21
-2290.50406250909
 31
0.0
  0
ARC
  5
7E
330
20
100
AcDbEntity
  8
17
  6
Continuous
 62
     7
100
AcDbCircle
 10
-14119.48774298625
 20
-2310.50406250909
 30
0.0
 40
20.0
100
AcDbArc
 50
90.0
 51
180.0
  0
LINE
  5
7F
330
20
100
AcDbEntity
  8
17
  6
Continuous
 62
     7
100
AcDbLine
 10
-14139.48774298625
 20
-2310.50406250909
 30
0.0
 11
-14139.48774298625
 21
-2485.50406250909
 31
0.0
  0
LINE
  5
80
330
20
100
AcDbEntity
  8
17
  6
Continuous
 62
     7
100
AcDbLine
 10
-14069.48774298625
 20
-2285.50406250909
 30
0.0
 11
-14069.48774298625
 21
-2290.50406250909
 31
0.0
  0
LINE
  5
81
330
20
100
AcDbEntity
  8
17
  6
Continuous
 62
     7
100
AcDbLine
 10
-14305.87234120054
 20
-2285.50406250909
 30
0.0
 11
-14120.02635905768
 21
-2285.50406250909
 31
0.0
  0
LINE
  5
82
330
20
100
AcDbEntity
  8
17
  6
Continuous
 62
     7
100
AcDbLine
 10
-14305.87234120054
 20
-2285.50406250909
 30
0.0
 11
-14305.44545110186
 21
-2287.060346381943
 31
0.0
  0
LINE
  5
83
330
20
100
AcDbEntity
  8
17
  6
Continuous
 62
     7
100
AcDbLine
 10
-14305.44545110186
 20
-2287.060346381943
 30
0.0
 11
-14305.02112567706
 21
-2288.616787841565
 31
0.0
  0
LINE
  5
84
330
20
100
AcDbEntity
  8
17
  6
Continuous
 62
     7
100
AcDbLine
 10
-14305.02112567706
 20
-2288.616787841565
 30
0.0
 11
-14304.60192960001
 21
-2290.173544474719
 31
0.0
  0
LINE
  5
85
330
20
100
AcDbEntity
  8
17
  6
Continuous
 62
     7
100
AcDbLine
 10
-14304.60192960001
 20
-2290.173544474719
 30
0.0
 11
-14304.19042754461
 21
-2291.730773868175
 31
0.0
  0
LINE
  5
86
330
20
100
AcDbEntity
  8
17
  6
Continuous
 62
     7
100
AcDbLine
 10
-14304.19042754461
 20
-2291.730773868175
 30
0.0
 11
-14303.78918418472
 21
-2293.288633608698
 31
0.0
  0
LINE
  5
87
330
20
100
AcDbEntity
  8
17
  6
Continuous
 62
     7
100
AcDbLine
 10
-14303.78918418472
 20
-2293.288633608698
 30
0.0
 11
-14303.40076419423
 21
-2294.847281283056
 31
0.0
  0
LINE
  5
88
330
20
100
AcDbEntity
  8
17
  6
Continuous
 62
     7
100
AcDbLine
 10
-14303.40076419423
 20
-2294.847281283056
 30
0.0
 11
-14303.02773224702
 21
-2296.406874478016
 31
0.0
  0
LINE
  5
89
330
20
100
AcDbEntity
  8
17
  6
Continuous
 62
     7
100
AcDbLine
 10
-14303.02773224702
 20
-2296.406874478016
 30
0.0
 11
-14302.67265301695
 21
-2297.967570780345
 31
0.0
  0
LINE
  5
8A
330
20
100
AcDbEntity
  8
17
  6
Continuous
 62
     7
100
AcDbLine
 10
-14302.67265301695
 20
-2297.967570780345
 30
0.0
 11
-14302.33809117792
 21
-2299.52952777681
 31
0.0
  0
LINE
  5
8B
330
20
100
AcDbEntity
  8
17
  6
Continuous
 62
     7
100
AcDbLine
 10
-14302.33809117792
 20
-2299.52952777681
 30
0.0
 11
-14302.02661140381
 21
-2301.092903054177
 31
0.0
  0
LINE
  5
8C
330
20
100
AcDbEntity
  8
17
  6
Continuous
 62
     7
100
AcDbLine
 10
-14302.02661140381
 20
-2301.092903054177
 30
0.0
 11
-14301.74077836848
 21
-2302.657854199214
 31
0.0
  0
LINE
  5
8D
330
20
100
AcDbEntity
  8
17
  6
Continuous
 62
     7
100
AcDbLine
 10
-14301.74077836848
 20
-2302.657854199214
 30
0.0
 11
-14301.48315674583
 21
-2304.224538798688
 31
0.0
  0
LINE
  5
8E
330
20
100
AcDbEntity
  8
17
  6
Continuous
 62
     7
100
AcDbLine
 10
-14301.48315674583
 20
-2304.224538798688
 30
0.0
 11
-14301.25631120972
 21
-2305.793114439365
 31
0.0
  0
LINE
  5
8F
330
20
100
AcDbEntity
  8
17
  6
Continuous
 62
     7
100
AcDbLine
 10
-14301.25631120972
 20
-2305.793114439365
 30
0.0
 11
-14301.06280643405
 21
-2307.363738708013
 31
0.0
  0
LINE
  5
90
330
20
100
AcDbEntity
  8
17
  6
Continuous
 62
     7
100
AcDbLine
 10
-14301.06280643405
 20
-2307.363738708013
 30
0.0
 11
-14300.90520709268
 21
-2308.936569191398
 31
0.0
  0
LINE
  5
91
330
20
100
AcDbEntity
  8
17
  6
Continuous
 62
     7
100
AcDbLine
 10
-14300.90520709268
 20
-2308.936569191398
 30
0.0
 11
-14300.78607785951
 21
-2310.511763476289
 31
0.0
  0
LINE
  5
92
330
20
100
AcDbEntity
  8
17
  6
Continuous
 62
     7
100
AcDbLine
 10
-14300.78607785951
 20
-2310.511763476289
 30
0.0
 11
-14300.70798340839
 21
-2312.08947914945
 31
0.0
  0
LINE
  5
93
330
20
100
AcDbEntity
  8
17
  6
Continuous
 62
     7
100
AcDbLine
 10
-14300.70798340839
 20
-2312.08947914945
 30
0.0
 11
-14300.67348841323
 21
-2313.669873797648
 31
0.0
  0
LINE
  5
94
330
20
100
AcDbEntity
  8
17
  6
Continuous
 62
     7
100
AcDbLine
 10
-14300.67348841323
 20
-2313.669873797648
 30
0.0
 11
-14300.68515754789
 21
-2315.253105007655
 31
0.0
  0
LINE
  5
95
330
20
100
AcDbEntity
  8
17
  6
Continuous
 62
     7
100
AcDbLine
 10
-14300.68515754789
 20
-2315.253105007655
 30
0.0
 11
-14300.74555548625
 21
-2316.839330366233
 31
0.0
  0
LINE
  5
96
330
20
100
AcDbEntity
  8
17
  6
Continuous
 62
     7
100
AcDbLine
 10
-14300.74555548625
 20
-2316.839330366233
 30
0.0
 11
-14300.88113958094
 21
-2318.717644325466
 31
0.0
  0
LINE
  5
97
330
20
100
AcDbEntity
  8
17
  6
Continuous
 62
     7
100
AcDbLine
 10
-14300.88113958094
 20
-2318.717644325466
 30
0.0
 11
-14301.07993371976
 21
-2320.599432100524
 31
0.0
  0
LINE
  5
98
330
20
100
AcDbEntity
  8
17
  6
Continuous
 62
     7
100
AcDbLine
 10
-14301.07993371976
 20
-2320.599432100524
 30
0.0
 11
-14301.3335214075
 21
-2322.483766403896
 31
0.0
  0
LINE
  5
99
330
20
100
AcDbEntity
  8
17
  6
Continuous
 62
     7
100
AcDbLine
 10
-14301.3335214075
 20
-2322.483766403896
 30
0.0
 11
-14301.63348614891
 21
-2324.369719948073
 31
0.0
  0
LINE
  5
9A
330
20
100
AcDbEntity
  8
17
  6
Continuous
 62
     7
100
AcDbLine
 10
-14301.63348614891
 20
-2324.369719948073
 30
0.0
 11
-14301.97141144876
 21
-2326.256365445541
 31
0.0
  0
LINE
  5
9B
330
20
100
AcDbEntity
  8
17
  6
Continuous
 62
     7
100
AcDbLine
 10
-14301.97141144876
 20
-2326.256365445541
 30
0.0
 11
-14302.33888081181
 21
-2328.142775608789
 31
0.0
  0
LINE
  5
9C
330
20
100
AcDbEntity
  8
17
  6
Continuous
 62
     7
100
AcDbLine
 10
-14302.33888081181
 20
-2328.142775608789
 30
0.0
 11
-14302.72747774284
 21
-2330.028023150306
 31
0.0
  0
LINE
  5
9D
330
20
100
AcDbEntity
  8
17
  6
Continuous
 62
     7
100
AcDbLine
 10
-14302.72747774284
 20
-2330.028023150306
 30
0.0
 11
-14303.12878574661
 21
-2331.911180782581
 31
0.0
  0
LINE
  5
9E
330
20
100
AcDbEntity
  8
17
  6
Continuous
 62
     7
100
AcDbLine
 10
-14303.12878574661
 20
-2331.911180782581
 30
0.0
 11
-14303.53438832788
 21
-2333.791321218102
 31
0.0
  0
LINE
  5
9F
330
20
100
AcDbEntity
  8
17
  6
Continuous
 62
     7
100
AcDbLine
 10
-14303.53438832788
 20
-2333.791321218102
 30
0.0
 11
-14303.93586899143
 21
-2335.667517169358
 31
0.0
  0
LINE
  5
A0
330
20
100
AcDbEntity
  8
17
  6
Continuous
 62
     7
100
AcDbLine
 10
-14303.93586899143
 20
-2335.667517169358
 30
0.0
 11
-14304.32481124202
 21
-2337.538841348836
 31
0.0
  0
LINE
  5
A1
330
20
100
AcDbEntity
  8
17
  6
Continuous
 62
     7
100
AcDbLine
 10
-14304.32481124202
 20
-2337.538841348836
 30
0.0
 11
-14304.69279858441
 21
-2339.404366469026
 31
0.0
  0
LINE
  5
A2
330
20
100
AcDbEntity
  8
17
  6
Continuous
 62
     7
100
AcDbLine
 10
-14304.69279858441
 20
-2339.404366469026
 30
0.0
 11
-14305.03141452338
 21
-2341.263165242418
 31
0.0
  0
LINE
  5
A3
330
20
100
AcDbEntity
  8
17
  6
Continuous
 62
     7
100
AcDbLine
 10
-14305.03141452338
 20
-2341.263165242418
 30
0.0
 11
-14305.33224256368
 21
-2343.114310381498
 31
0.0
  0
LINE
  5
A4
330
20
100
AcDbEntity
  8
17
  6
Continuous
 62
     7
100
AcDbLine
 10
-14305.33224256368
 20
-2343.114310381498
 30
0.0
 11
-14305.58686621009
 21
-2344.956874598755
 31
0.0
  0
LINE
  5
A5
330
20
100
AcDbEntity
  8
17
  6
Continuous
 62
     7
100
AcDbLine
 10
-14305.58686621009
 20
-2344.956874598755
 30
0.0
 11
-14305.78686896737
 21
-2346.789930606679
 31
0.0
  0
LINE
  5
A6
330
20
100
AcDbEntity
  8
17
  6
Continuous
 62
     7
100
AcDbLine
 10
-14305.78686896737
 20
-2346.789930606679
 30
0.0
 11
-14305.92383434029
 21
-2348.612551117756
 31
0.0
  0
LINE
  5
A7
330
20
100
AcDbEntity
  8
17
  6
Continuous
 62
     7
100
AcDbLine
 10
-14305.92383434029
 20
-2348.612551117756
 30
0.0
 11
-14305.98934583361
 21
-2350.423808844478
 31
0.0
  0
LINE
  5
A8
330
20
100
AcDbEntity
  8
17
  6
Continuous
 62
     7
100
AcDbLine
 10
-14305.98934583361
 20
-2350.423808844478
 30
0.0
 11
-14305.97498695211
 21
-2352.22277649933
 31
0.0
  0
LINE
  5
A9
330
20
100
AcDbEntity
  8
17
  6
Continuous
 62
     7
100
AcDbLine
 10
-14305.97498695211
 20
-2352.22277649933
 30
0.0
 11
-14305.87234120054
 21
-2354.008526794804
 31
0.0
  0
LINE
  5
AA
330
20
100
AcDbEntity
  8
17
  6
Continuous
 62
     7
100
AcDbLine
 10
-14305.87234120054
 20
-2354.008526794804
 30
0.0
 11
-14305.65800132608
 21
-2355.90278082708
 31
0.0
  0
LINE
  5
AB
330
20
100
AcDbEntity
  8
17
  6
Continuous
 62
     7
100
AcDbLine
 10
-14305.65800132608
 20
-2355.90278082708
 30
0.0
 11
-14305.33860797077
 21
-2357.781668854392
 31
0.0
  0
LINE
  5
AC
330
20
100
AcDbEntity
  8
17
  6
Continuous
 62
     7
100
AcDbLine
 10
-14305.33860797077
 20
-2357.781668854392
 30
0.0
 11
-14304.91969026517
 21
-2359.645999613841
 31
0.0
  0
LINE
  5
AD
330
20
100
AcDbEntity
  8
17
  6
Continuous
 62
     7
100
AcDbLine
 10
-14304.91969026517
 20
-2359.645999613841
 30
0.0
 11
-14304.40677733987
 21
-2361.496581842532
 31
0.0
  0
LINE
  5
AE
330
20
100
AcDbEntity
  8
17
  6
Continuous
 62
     7
100
AcDbLine
 10
-14304.40677733987
 20
-2361.496581842532
 30
0.0
 11
-14303.80539832543
 21
-2363.334224277566
 31
0.0
  0
LINE
  5
AF
330
20
100
AcDbEntity
  8
17
  6
Continuous
 62
     7
100
AcDbLine
 10
-14303.80539832543
 20
-2363.334224277566
 30
0.0
 11
-14303.12108235242
 21
-2365.159735656049
 31
0.0
  0
LINE
  5
B0
330
20
100
AcDbEntity
  8
17
  6
Continuous
 62
     7
100
AcDbLine
 10
-14303.12108235242
 20
-2365.159735656049
 30
0.0
 11
-14302.35935855141
 21
-2366.973924715084
 31
0.0
  0
LINE
  5
B1
330
20
100
AcDbEntity
  8
17
  6
Continuous
 62
     7
100
AcDbLine
 10
-14302.35935855141
 20
-2366.973924715084
 30
0.0
 11
-14301.52575605298
 21
-2368.777600191774
 31
0.0
  0
LINE
  5
B2
330
20
100
AcDbEntity
  8
17
  6
Continuous
 62
     7
100
AcDbLine
 10
-14301.52575605298
 20
-2368.777600191774
 30
0.0
 11
-14300.6258039877
 21
-2370.571570823222
 31
0.0
  0
LINE
  5
B3
330
20
100
AcDbEntity
  8
17
  6
Continuous
 62
     7
100
AcDbLine
 10
-14300.6258039877
 20
-2370.571570823222
 30
0.0
 11
-14299.66503148613
 21
-2372.356645346532
 31
0.0
  0
LINE
  5
B4
330
20
100
AcDbEntity
  8
17
  6
Continuous
 62
     7
100
AcDbLine
 10
-14299.66503148613
 20
-2372.356645346532
 30
0.0
 11
-14298.64896767885
 21
-2374.133632498808
 31
0.0
  0
LINE
  5
B5
330
20
100
AcDbEntity
  8
17
  6
Continuous
 62
     7
100
AcDbLine
 10
-14298.64896767885
 20
-2374.133632498808
 30
0.0
 11
-14297.58314169643
 21
-2375.903341017152
 31
0.0
  0
LINE
  5
B6
330
20
100
AcDbEntity
  8
17
  6
Continuous
 62
     7
100
AcDbLine
 10
-14297.58314169643
 20
-2375.903341017152
 30
0.0
 11
-14296.47308266944
 21
-2377.666579638669
 31
0.0
  0
LINE
  5
B7
330
20
100
AcDbEntity
  8
17
  6
Continuous
 62
     7
100
AcDbLine
 10
-14296.47308266944
 20
-2377.666579638669
 30
0.0
 11
-14295.32431972845
 21
-2379.424157100462
 31
0.0
  0
LINE
  5
B8
330
20
100
AcDbEntity
  8
17
  6
Continuous
 62
     7
100
AcDbLine
 10
-14295.32431972845
 20
-2379.424157100462
 30
0.0
 11
-14294.14238200403
 21
-2381.176882139635
 31
0.0
  0
LINE
  5
B9
330
20
100
AcDbEntity
  8
17
  6
Continuous
 62
     7
100
AcDbLine
 10
-14294.14238200403
 20
-2381.176882139635
 30
0.0
 11
-14292.93279862676
 21
-2382.925563493289
 31
0.0
  0
LINE
  5
BA
330
20
100
AcDbEntity
  8
17
  6
Continuous
 62
     7
100
AcDbLine
 10
-14292.93279862676
 20
-2382.925563493289
 30
0.0
 11
-14291.7010987272
 21
-2384.671009898529
 31
0.0
  0
LINE
  5
BB
330
20
100
AcDbEntity
  8
17
  6
Continuous
 62
     7
100
AcDbLine
 10
-14291.7010987272
 20
-2384.671009898529
 30
0.0
 11
-14290.45281143593
 21
-2386.41403009246
 31
0.0
  0
LINE
  5
BC
330
20
100
AcDbEntity
  8
17
  6
Continuous
 62
     7
100
AcDbLine
 10
-14290.45281143593
 20
-2386.41403009246
 30
0.0
 11
-14289.19346588352
 21
-2388.155432812185
 31
0.0
  0
LINE
  5
BD
330
20
100
AcDbEntity
  8
17
  6
Continuous
 62
     7
100
AcDbLine
 10
-14289.19346588352
 20
-2388.155432812185
 30
0.0
 11
-14287.92859120054
 21
-2389.896026794804
 31
0.0
  0
LINE
  5
BE
330
20
100
AcDbEntity
  8
17
  6
Continuous
 62
     7
100
AcDbLine
 10
-14139.48774298625
 20
-2485.50406250909
 30
0.0
 11
-14139.73794477996
 21
-2485.503939835662
 31
0.0
  0
LINE
  5
BF
330
20
100
AcDbEntity
  8
17
  6
Continuous
 62
     7
100
AcDbLine
 10
-14139.73794477996
 20
-2485.503939835662
 30
0.0
 11
-14139.98814353919
 21
-2485.503819006947
 31
0.0
  0
LINE
  5
C0
330
20
100
AcDbEntity
  8
17
  6
Continuous
 62
     7
100
AcDbLine
 10
-14139.98814353919
 20
-2485.503819006947
 30
0.0
 11
-14140.23833622943
 21
-2485.50370186766
 31
0.0
  0
LINE
  5
C1
330
20
100
AcDbEntity
  8
17
  6
Continuous
 62
     7
100
AcDbLine
 10
-14140.23833622943
 20
-2485.50370186766
 30
0.0
 11
-14140.48851981619
 21
-2485.50359026251
 31
0.0
  0
LINE
  5
C2
330
20
100
AcDbEntity
  8
17
  6
Continuous
 62
     7
100
AcDbLine
 10
-14140.48851981619
 20
-2485.50359026251
 30
0.0
 11
-14140.73869126499
 21
-2485.503486036215
 31
0.0
  0
LINE
  5
C3
330
20
100
AcDbEntity
  8
17
  6
Continuous
 62
     7
100
AcDbLine
 10
-14140.73869126499
 20
-2485.503486036215
 30
0.0
 11
-14140.98884754132
 21
-2485.503391033485
 31
0.0
  0
LINE
  5
C4
330
20
100
AcDbEntity
  8
17
  6
Continuous
 62
     7
100
AcDbLine
 10
-14140.98884754132
 20
-2485.503391033485
 30
0.0
 11
-14141.23898561071
 21
-2485.503307099034
 31
0.0
  0
LINE
  5
C5
330
20
100
AcDbEntity
  8
17
  6
Continuous
 62
     7
100
AcDbLine
 10
-14141.23898561071
 20
-2485.503307099034
 30
0.0
 11
-14141.48910243865
 21
-2485.503236077576
 31
0.0
  0
LINE
  5
C6
330
20
100
AcDbEntity
  8
17
  6
Continuous
 62
     7
100
AcDbLine
 10
-14141.48910243865
 20
-2485.503236077576
 30
0.0
 11
-14141.73919499065
 21
-2485.503179813824
 31
0.0
  0
LINE
  5
C7
330
20
100
AcDbEntity
  8
17
  6
Continuous
 62
     7
100
AcDbLine
 10
-14141.73919499065
 20
-2485.503179813824
 30
0.0
 11
-14141.98926023223
 21
-2485.50314015249
 31
0.0
  0
LINE
  5
C8
330
20
100
AcDbEntity
  8
17
  6
Continuous
 62
     7
100
AcDbLine
 10
-14141.98926023223
 20
-2485.50314015249
 30
0.0
 11
-14142.23929512889
 21
-2485.503118938288
 31
0.0
  0
LINE
  5
C9
330
20
100
AcDbEntity
  8
17
  6
Continuous
 62
     7
100
AcDbLine
 10
-14142.23929512889
 20
-2485.503118938288
 30
0.0
 11
-14142.48929664613
 21
-2485.503118015931
 31
0.0
  0
LINE
  5
CA
330
20
100
AcDbEntity
  8
17
  6
Continuous
 62
     7
100
AcDbLine
 10
-14142.48929664613
 20
-2485.503118015931
 30
0.0
 11
-14142.73926174948
 21
-2485.503139230134
 31
0.0
  0
LINE
  5
CB
330
20
100
AcDbEntity
  8
17
  6
Continuous
 62
     7
100
AcDbLine
 10
-14142.73926174948
 20
-2485.503139230134
 30
0.0
 11
-14142.98918740443
 21
-2485.503184425607
 31
0.0
  0
LINE
  5
CC
330
20
100
AcDbEntity
  8
17
  6
Continuous
 62
     7
100
AcDbLine
 10
-14142.98918740443
 20
-2485.503184425607
 30
0.0
 11
-14143.23907057648
 21
-2485.503255447065
 31
0.0
  0
LINE
  5
CD
330
20
100
AcDbEntity
  8
17
  6
Continuous
 62
     7
100
AcDbLine
 10
-14143.23907057648
 20
-2485.503255447065
 30
0.0
 11
-14143.48890823116
 21
-2485.503354139221
 31
0.0
  0
LINE
  5
CE
330
20
100
AcDbEntity
  8
17
  6
Continuous
 62
     7
100
AcDbLine
 10
-14143.48890823116
 20
-2485.503354139221
 30
0.0
 11
-14143.73869733397
 21
-2485.503482346788
 31
0.0
  0
LINE
  5
CF
330
20
100
AcDbEntity
  8
17
  6
Continuous
 62
     7
100
AcDbLine
 10
-14143.73869733397
 20
-2485.503482346788
 30
0.0
 11
-14143.98843485042
 21
-2485.50364191448
 31
0.0
  0
LINE
  5
D0
330
20
100
AcDbEntity
  8
17
  6
Continuous
 62
     7
100
AcDbLine
 10
-14143.98843485042
 20
-2485.50364191448
 30
0.0
 11
-14144.23811774601
 21
-2485.50383468701
 31
0.0
  0
LINE
  5
D1
330
20
100
AcDbEntity
  8
17
  6
Continuous
 62
     7
100
AcDbLine
 10
-14144.23811774601
 20
-2485.50383468701
 30
0.0
 11
-14144.48774298625
 21
-2485.50406250909
 31
0.0
  0
LINE
  5
D2
330
20
100
AcDbEntity
  8
17
  6
Continuous
 62
     7
100
AcDbLine
 10
-14144.48774298625
 20
-2485.50406250909
 30
0.0
 11
-14146.08110506427
 21
-2485.506249819411
 31
0.0
  0
LINE
  5
D3
330
20
100
AcDbEntity
  8
17
  6
Continuous
 62
     7
100
AcDbLine
 10
-14146.08110506427
 20
-2485.506249819411
 30
0.0
 11
-14147.67239371476
 21
-2485.509121572436
 31
0.0
  0
LINE
  5
D4
330
20
100
AcDbEntity
  8
17
  6
Continuous
 62
     7
100
AcDbLine
 10
-14147.67239371476
 20
-2485.509121572436
 30
0.0
 11
-14149.26201241895
 21
-2485.511856460865
 31
0.0
  0
LINE
  5
D5
330
20
100
AcDbEntity
  8
17
  6
Continuous
 62
     7
100
AcDbLine
 10
-14149.26201241895
 20
-2485.511856460865
 30
0.0
 11
-14150.85036465807
 21
-2485.5136331774
 31
0.0
  0
LINE
  5
D6
330
20
100
AcDbEntity
  8
17
  6
Continuous
 62
     7
100
AcDbLine
 10
-14150.85036465807
 20
-2485.5136331774
 30
0.0
 11
-14152.43785391334
 21
-2485.513630414744
 31
0.0
  0
LINE
  5
D7
330
20
100
AcDbEntity
  8
17
  6
Continuous
 62
     7
100
AcDbLine
 10
-14152.43785391334
 20
-2485.513630414744
 30
0.0
 11
-14154.02488366599
 21
-2485.511026865597
 31
0.0
  0
LINE
  5
D8
330
20
100
AcDbEntity
  8
17
  6
Continuous
 62
     7
100
AcDbLine
 10
-14154.02488366599
 20
-2485.511026865597
 30
0.0
 11
-14155.61185739725
 21
-2485.505001222663
 31
0.0
  0
LINE
  5
D9
330
20
100
AcDbEntity
  8
17
  6
Continuous
 62
     7
100
AcDbLine
 10
-14155.61185739725
 20
-2485.505001222663
 30
0.0
 11
-14157.19917858833
 21
-2485.494732178641
 31
0.0
  0
LINE
  5
DA
330
20
100
AcDbEntity
  8
17
  6
Continuous
 62
     7
100
AcDbLine
 10
-14157.19917858833
 20
-2485.494732178641
 30
0.0
 11
-14158.78725072048
 21
-2485.479398426236
 31
0.0
  0
LINE
  5
DB
330
20
100
AcDbEntity
  8
17
  6
Continuous
 62
     7
100
AcDbLine
 10
-14158.78725072048
 20
-2485.479398426236
 30
0.0
 11
-14160.37647727492
 21
-2485.458178658147
 31
0.0
  0
LINE
  5
DC
330
20
100
AcDbEntity
  8
17
  6
Continuous
 62
     7
100
AcDbLine
 10
-14160.37647727492
 20
-2485.458178658147
 30
0.0
 11
-14161.96726173286
 21
-2485.430251567077
 31
0.0
  0
LINE
  5
DD
330
20
100
AcDbEntity
  8
17
  6
Continuous
 62
     7
100
AcDbLine
 10
-14161.96726173286
 20
-2485.430251567077
 30
0.0
 11
-14163.56000757555
 21
-2485.394795845727
 31
0.0
  0
LINE
  5
DE
330
20
100
AcDbEntity
  8
17
  6
Continuous
 62
     7
100
AcDbLine
 10
-14163.56000757555
 20
-2485.394795845727
 30
0.0
 11
-14165.1551182842
 21
-2485.3509901868
 31
0.0
  0
LINE
  5
DF
330
20
100
AcDbEntity
  8
17
  6
Continuous
 62
     7
100
AcDbLine
 10
-14165.1551182842
 20
-2485.3509901868
 30
0.0
 11
-14166.75299734004
 21
-2485.298013282998
 31
0.0
  0
LINE
  5
E0
330
20
100
AcDbEntity
  8
17
  6
Continuous
 62
     7
100
AcDbLine
 10
-14166.75299734004
 20
-2485.298013282998
 30
0.0
 11
-14168.3540482243
 21
-2485.235043827021
 31
0.0
  0
LINE
  5
E1
330
20
100
AcDbEntity
  8
17
  6
Continuous
 62
     7
100
AcDbLine
 10
-14168.3540482243
 20
-2485.235043827021
 30
0.0
 11
-14169.95867441821
 21
-2485.161260511573
 31
0.0
  0
LINE
  5
E2
330
20
100
AcDbEntity
  8
17
  6
Continuous
 62
     7
100
AcDbLine
 10
-14169.95867441821
 20
-2485.161260511573
 30
0.0
 11
-14171.56727940299
 21
-2485.075842029353
 31
0.0
  0
LINE
  5
E3
330
20
100
AcDbEntity
  8
17
  6
Continuous
 62
     7
100
AcDbLine
 10
-14171.56727940299
 20
-2485.075842029353
 30
0.0
 11
-14173.18026665987
 21
-2484.977967073065
 31
0.0
  0
LINE
  5
E4
330
20
100
AcDbEntity
  8
17
  6
Continuous
 62
     7
100
AcDbLine
 10
-14173.18026665987
 20
-2484.977967073065
 30
0.0
 11
-14174.79803967007
 21
-2484.86681433541
 31
0.0
  0
LINE
  5
E5
330
20
100
AcDbEntity
  8
17
  6
Continuous
 62
     7
100
AcDbLine
 10
-14174.79803967007
 20
-2484.86681433541
 30
0.0
 11
-14176.42100191482
 21
-2484.74156250909
 31
0.0
  0
LINE
  5
E6
330
20
100
AcDbEntity
  8
17
  6
Continuous
 62
     7
100
AcDbLine
 10
-14176.42100191482
 20
-2484.74156250909
 30
0.0
 11
-14178.67505013889
 21
-2484.543421361041
 31
0.0
  0
LINE
  5
E7
330
20
100
AcDbEntity
  8
17
  6
Continuous
 62
     7
100
AcDbLine
 10
-14178.67505013889
 20
-2484.543421361041
 30
0.0
 11
-14180.93618125183
 21
-2484.3141406911
 31
0.0
  0
LINE
  5
E8
330
20
100
AcDbEntity
  8
17
  6
Continuous
 62
     7
100
AcDbLine
 10
-14180.93618125183
 20
-2484.3141406911
 30
0.0
 11
-14183.20077180521
 21
-2484.051143628948
 31
0.0
  0
LINE
  5
E9
330
20
100
AcDbEntity
  8
17
  6
Continuous
 62
     7
100
AcDbLine
 10
-14183.20077180521
 20
-2484.051143628948
 30
0.0
 11
-14185.46519835057
 21
-2483.751853304264
 31
0.0
  0
LINE
  5
EA
330
20
100
AcDbEntity
  8
17
  6
Continuous
 62
     7
100
AcDbLine
 10
-14185.46519835057
 20
-2483.751853304264
 30
0.0
 11
-14187.72583743949
 21
-2483.413692846727
 31
0.0
  0
LINE
  5
EB
330
20
100
AcDbEntity
  8
17
  6
Continuous
 62
     7
100
AcDbLine
 10
-14187.72583743949
 20
-2483.413692846727
 30
0.0
 11
-14189.97906562351
 21
-2483.034085386017
 31
0.0
  0
LINE
  5
EC
330
20
100
AcDbEntity
  8
17
  6
Continuous
 62
     7
100
AcDbLine
 10
-14189.97906562351
 20
-2483.034085386017
 30
0.0
 11
-14192.22125945418
 21
-2482.610454051813
 31
0.0
  0
LINE
  5
ED
330
20
100
AcDbEntity
  8
17
  6
Continuous
 62
     7
100
AcDbLine
 10
-14192.22125945418
 20
-2482.610454051813
 30
0.0
 11
-14194.44879548308
 21
-2482.140221973795
 31
0.0
  0
LINE
  5
EE
330
20
100
AcDbEntity
  8
17
  6
Continuous
 62
     7
100
AcDbLine
 10
-14194.44879548308
 20
-2482.140221973795
 30
0.0
 11
-14196.65805026175
 21
-2481.620812281642
 31
0.0
  0
LINE
  5
EF
330
20
100
AcDbEntity
  8
17
  6
Continuous
 62
     7
100
AcDbLine
 10
-14196.65805026175
 20
-2481.620812281642
 30
0.0
 11
-14198.84540034176
 21
-2481.049648105033
 31
0.0
  0
LINE
  5
F0
330
20
100
AcDbEntity
  8
17
  6
Continuous
 62
     7
100
AcDbLine
 10
-14198.84540034176
 20
-2481.049648105033
 30
0.0
 11
-14201.00722227465
 21
-2480.424152573649
 31
0.0
  0
LINE
  5
F1
330
20
100
AcDbEntity
  8
17
  6
Continuous
 62
     7
100
AcDbLine
 10
-14201.00722227465
 20
-2480.424152573649
 30
0.0
 11
-14203.13989261199
 21
-2479.741748817168
 31
0.0
  0
LINE
  5
F2
330
20
100
AcDbEntity
  8
17
  6
Continuous
 62
     7
100
AcDbLine
 10
-14203.13989261199
 20
-2479.741748817168
 30
0.0
 11
-14205.23978790534
 21
-2478.999859965269
 31
0.0
  0
LINE
  5
F3
330
20
100
AcDbEntity
  8
17
  6
Continuous
 62
     7
100
AcDbLine
 10
-14205.23978790534
 20
-2478.999859965269
 30
0.0
 11
-14207.30328470624
 21
-2478.195909147633
 31
0.0
  0
LINE
  5
F4
330
20
100
AcDbEntity
  8
17
  6
Continuous
 62
     7
100
AcDbLine
 10
-14207.30328470624
 20
-2478.195909147633
 30
0.0
 11
-14209.32675956627
 21
-2477.32731949394
 31
0.0
  0
LINE
  5
F5
330
20
100
AcDbEntity
  8
17
  6
Continuous
 62
     7
100
AcDbLine
 10
-14209.32675956627
 20
-2477.32731949394
 30
0.0
 11
-14211.30658903697
 21
-2476.391514133866
 31
0.0
  0
LINE
  5
F6
330
20
100
AcDbEntity
  8
17
  6
Continuous
 62
     7
100
AcDbLine
 10
-14211.30658903697
 20
-2476.391514133866
 30
0.0
 11
-14213.2391496699
 21
-2475.385916197094
 31
0.0
  0
LINE
  5
F7
330
20
100
AcDbEntity
  8
17
  6
Continuous
 62
     7
100
AcDbLine
 10
-14213.2391496699
 20
-2475.385916197094
 30
0.0
 11
-14215.12081801663
 21
-2474.307948813302
 31
0.0
  0
LINE
  5
F8
330
20
100
AcDbEntity
  8
17
  6
Continuous
 62
     7
100
AcDbLine
 10
-14215.12081801663
 20
-2474.307948813302
 30
0.0
 11
-14216.9479706287
 21
-2473.155035112169
 31
0.0
  0
LINE
  5
F9
330
20
100
AcDbEntity
  8
17
  6
Continuous
 62
     7
100
AcDbLine
 10
-14216.9479706287
 20
-2473.155035112169
 30
0.0
 11
-14218.71698405768
 21
-2471.924598223376
 31
0.0
  0
LINE
  5
FA
330
20
100
AcDbEntity
  8
17
  6
Continuous
 62
     7
100
AcDbLine
 10
-14218.71698405768
 20
-2471.924598223376
 30
0.0
 11
-14220.12968533776
 21
-2470.850855978098
 31
0.0
  0
LINE
  5
FB
330
20
100
AcDbEntity
  8
17
  6
Continuous
 62
     7
100
AcDbLine
 10
-14220.12968533776
 20
-2470.850855978098
 30
0.0
 11
-14221.5025136187
 21
-2469.72540237495
 31
0.0
  0
LINE
  5
FC
330
20
100
AcDbEntity
  8
17
  6
Continuous
 62
     7
100
AcDbLine
 10
-14221.5025136187
 20
-2469.72540237495
 30
0.0
 11
-14222.83756747942
 21
-2468.550959064348
 31
0.0
  0
LINE
  5
FD
330
20
100
AcDbEntity
  8
17
  6
Continuous
 62
     7
100
AcDbLine
 10
-14222.83756747942
 20
-2468.550959064348
 30
0.0
 11
-14224.1369454988
 21
-2467.330247696705
 31
0.0
  0
LINE
  5
FE
330
20
100
AcDbEntity
  8
17
  6
Continuous
 62
     7
100
AcDbLine
 10
-14224.1369454988
 20
-2467.330247696705
 30
0.0
 11
-14225.40274625576
 21
-2466.065989922435
 31
0.0
  0
LINE
  5
FF
330
20
100
AcDbEntity
  8
17
  6
Continuous
 62
     7
100
AcDbLine
 10
-14225.40274625576
 20
-2466.065989922435
 30
0.0
 11
-14226.63706832918
 21
-2464.760907391952
 31
0.0
  0
LINE
  5
100
330
20
100
AcDbEntity
  8
17
  6
Continuous
 62
     7
100
AcDbLine
 10
-14226.63706832918
 20
-2464.760907391952
 30
0.0
 11
-14227.84201029799
 21
-2463.41772175567
 31
0.0
  0
LINE
  5
101
330
20
100
AcDbEntity
  8
17
  6
Continuous
 62
     7
100
AcDbLine
 10
-14227.84201029799
 20
-2463.41772175567
 30
0.0
 11
-14229.01967074108
 21
-2462.039154664005
 31
0.0
  0
LINE
  5
102
330
20
100
AcDbEntity
  8
17
  6
Continuous
 62
     7
100
AcDbLine
 10
-14229.01967074108
 20
-2462.039154664005
 30
0.0
 11
-14230.17214823734
 21
-2460.627927767369
 31
0.0
  0
LINE
  5
103
330
20
100
AcDbEntity
  8
17
  6
Continuous
 62
     7
100
AcDbLine
 10
-14230.17214823734
 20
-2460.627927767369
 30
0.0
 11
-14231.30154136568
 21
-2459.186762716178
 31
0.0
  0
LINE
  5
104
330
20
100
AcDbEntity
  8
17
  6
Continuous
 62
     7
100
AcDbLine
 10
-14231.30154136568
 20
-2459.186762716178
 30
0.0
 11
-14232.40994870501
 21
-2457.718381160844
 31
0.0
  0
LINE
  5
105
330
20
100
AcDbEntity
  8
17
  6
Continuous
 62
     7
100
AcDbLine
 10
-14232.40994870501
 20
-2457.718381160844
 30
0.0
 11
-14233.49946883422
 21
-2456.225504751783
 31
0.0
  0
LINE
  5
106
330
20
100
AcDbEntity
  8
17
  6
Continuous
 62
     7
100
AcDbLine
 10
-14233.49946883422
 20
-2456.225504751783
 30
0.0
 11
-14234.57220033222
 21
-2454.710855139409
 31
0.0
  0
LINE
  5
107
330
20
100
AcDbEntity
  8
17
  6
Continuous
 62
     7
100
AcDbLine
 10
-14234.57220033222
 20
-2454.710855139409
 30
0.0
 11
-14235.63024177791
 21
-2453.177153974135
 31
0.0
  0
LINE
  5
108
330
20
100
AcDbEntity
  8
17
  6
Continuous
 62
     7
100
AcDbLine
 10
-14235.63024177791
 20
-2453.177153974135
 30
0.0
 11
-14236.67569175018
 21
-2451.627122906377
 31
0.0
  0
LINE
  5
109
330
20
100
AcDbEntity
  8
17
  6
Continuous
 62
     7
100
AcDbLine
 10
-14236.67569175018
 20
-2451.627122906377
 30
0.0
 11
-14237.71064882795
 21
-2450.063483586548
 31
0.0
  0
LINE
  5
10A
330
20
100
AcDbEntity
  8
17
  6
Continuous
 62
     7
100
AcDbLine
 10
-14237.71064882795
 20
-2450.063483586548
 30
0.0
 11
-14238.73721159011
 21
-2448.488957665061
 31
0.0
  0
LINE
  5
10B
330
20
100
AcDbEntity
  8
17
  6
Continuous
 62
     7
100
AcDbLine
 10
-14238.73721159011
 20
-2448.488957665061
 30
0.0
 11
-14239.75747861556
 21
-2446.906266792333
 31
0.0
  0
LINE
  5
10C
330
20
100
AcDbEntity
  8
17
  6
Continuous
 62
     7
100
AcDbLine
 10
-14239.75747861556
 20
-2446.906266792333
 30
0.0
 11
-14240.77354848322
 21
-2445.318132618775
 31
0.0
  0
LINE
  5
10D
330
20
100
AcDbEntity
  8
17
  6
Continuous
 62
     7
100
AcDbLine
 10
-14240.77354848322
 20
-2445.318132618775
 30
0.0
 11
-14241.78751977197
 21
-2443.727276794805
 31
0.0
  0
LINE
  5
10E
330
20
100
AcDbEntity
  8
17
  6
Continuous
 62
     7
100
AcDbLine
 10
-14144.48774298625
 20
-2232.092678580519
 30
0.0
 11
-14069.48774298625
 21
-2232.092678580519
 31
0.0
  0
LINE
  5
10F
330
20
100
AcDbEntity
  8
17
  6
Continuous
 62
     7
100
AcDbLine
 10
-14144.48774298625
 20
-2232.092678580519
 30
0.0
 11
-14125.16922646047
 21
-2226.916297678469
 31
0.0
  0
LINE
  5
110
330
20
100
AcDbEntity
  8
17
  6
Continuous
 62
     7
100
AcDbLine
 10
-14144.48774298625
 20
-2232.092678580519
 30
0.0
 11
-14125.16922646047
 21
-2237.269059482569
 31
0.0
  0
LINE
  5
111
330
20
100
AcDbEntity
  8
17
  6
Continuous
 62
     7
100
AcDbLine
 10
-14069.48774298625
 20
-2232.092678580519
 30
0.0
 11
-14088.80625951203
 21
-2237.269059482569
 31
0.0
  0
LINE
  5
112
330
20
100
AcDbEntity
  8
17
  6
Continuous
 62
     7
100
AcDbLine
 10
-14069.48774298625
 20
-2232.092678580519
 30
0.0
 11
-14088.80625951203
 21
-2226.916297678469
 31
0.0
  0
LINE
  5
113
330
20
100
AcDbEntity
  8
17
  6
Continuous
 62
     7
100
AcDbLine
 10
-14144.48774298625
 20
-2305.50406250909
 30
0.0
 11
-14144.48774298625
 21
-2227.092678580519
 31
0.0
  0
LINE
  5
114
330
20
100
AcDbEntity
  8
17
  6
Continuous
 62
     7
100
AcDbLine
 10
-14069.48774298625
 20
-2280.504062509089
 30
0.0
 11
-14069.48774298625
 21
-2227.092678580519
 31
0.0
  0
TEXT
  5
115
330
20
100
AcDbEntity
  8
17
 62
     7
100
AcDbText
 10
-14136.98776740031
 20
-2227.092668122585
 30
0.0
 40
20.0
  1
15%%p1_
 50
0.00000001
 41
0.75
 51
15.0
 72
     1
 11
-14106.98776740031
 21
-2227.092668117349
 31
0.0
100
AcDbText
  0
LINE
  5
116
330
20
100
AcDbEntity
  8
17
  6
Continuous
 62
     7
100
AcDbLine
 10
-14137.78704548326
 20
-2293.470697365258
 30
0.0
 11
-14102.25729018013
 21
-2326.542520493394
 31
0.0
  0
LINE
  5
117
330
20
100
AcDbEntity
  8
17
  6
Continuous
 62
     7
100
AcDbLine
 10
-14137.78704548326
 20
-2293.470697365258
 30
0.0
 11
-14120.11958293418
 21
-2302.844104807435
 31
0.0
  0
LINE
  5
118
330
20
100
AcDbEntity
  8
17
  6
Continuous
 62
     7
100
AcDbLine
 10
-14137.78704548326
 20
-2293.470697365258
 30
0.0
 11
-14127.17327781644
 21
-2310.422037604743
 31
0.0
  0
TEXT
  5
119
330
20
100
AcDbEntity
  8
17
 62
     7
100
AcDbText
 10
-14116.38436706074
 20
-2307.376583872317
 30
0.0
 40
20.0
  1
R5
 50
317.051979064941
 41
0.75
 51
15.0
 72
     1
 11
-14107.2347156425
 21
-2315.89326626188
 31
0.0
100
AcDbText
  0
LINE
  5
11A
330
20
100
AcDbEntity
  8
17
  6
Continuous
 62
     7
100
AcDbLine
 10
-14454.13060012911
 20
-2280.392455366233
 30
0.0
 11
-14504.13060012911
 21
-2280.392455366233
 31
0.0
  0
LINE
  5
11B
330
20
100
AcDbEntity
  8
17
  6
Continuous
 62
     7
100
AcDbLine
 10
-14529.13060012911
 20
-2305.392455366233
 30
0.0
 11
-14529.13060012911
 21
-2480.392455366233
 31
0.0
  0
ARC
  5
11C
330
20
100
AcDbEntity
  8
17
  6
Continuous
 62
     7
100
AcDbCircle
 10
-14504.13060012911
 20
-2305.392455366233
 30
0.0
 40
25.0
100
AcDbArc
 50
90.0
 51
180.0
  0
LINE
  5
11D
330
20
100
AcDbEntity
  8
17
  6
Continuous
 62
     7
100
AcDbLine
 10
-14454.13060012911
 20
-2285.392455366233
 30
0.0
 11
-14504.13060012911
 21
-2285.392455366233
 31
0.0
  0
ARC
  5
11E
330
20
100
AcDbEntity
  8
17
  6
Continuous
 62
     7
100
AcDbCircle
 10
-14504.13060012911
 20
-2305.392455366233
 30
0.0
 40
20.0
100
AcDbArc
 50
90.0
 51
180.0
  0
LINE
  5
11F
330
20
100
AcDbEntity
  8
17
  6
Continuous
 62
     7
100
AcDbLine
 10
-14524.13060012911
 20
-2305.392455366233
 30
0.0
 11
-14524.13060012911
 21
-2480.392455366233
 31
0.0
  0
LINE
  5
120
330
20
100
AcDbEntity
  8
17
  6
Continuous
 62
     7
100
AcDbLine
 10
-14454.13060012911
 20
-2280.392455366233
 30
0.0
 11
-14454.13060012911
 21
-2285.392455366233
 31
0.0
  0
LINE
  5
121
330
20
100
AcDbEntity
  8
17
  6
Continuous
 62
     7
100
AcDbLine
 10
-14690.51519834339
 20
-2280.392455366233
 30
0.0
 11
-14504.66921620054
 21
-2280.392455366233
 31
0.0
  0
LINE
  5
122
330
20
100
AcDbEntity
  8
17
  6
Continuous
 62
     7
100
AcDbLine
 10
-14690.51519834339
 20
-2280.392455366233
 30
0.0
 11
-14690.08830824471
 21
-2281.948739239087
 31
0.0
  0
LINE
  5
123
330
20
100
AcDbEntity
  8
17
  6
Continuous
 62
     7
100
AcDbLine
 10
-14690.08830824471
 20
-2281.948739239087
 30
0.0
 11
-14689.66398281992
 21
-2283.505180698707
 31
0.0
  0
LINE
  5
124
330
20
100
AcDbEntity
  8
17
  6
Continuous
 62
     7
100
AcDbLine
 10
-14689.66398281992
 20
-2283.505180698707
 30
0.0
 11
-14689.24478674287
 21
-2285.061937331862
 31
0.0
  0
LINE
  5
125
330
20
100
AcDbEntity
  8
17
  6
Continuous
 62
     7
100
AcDbLine
 10
-14689.24478674287
 20
-2285.061937331862
 30
0.0
 11
-14688.83328468747
 21
-2286.619166725317
 31
0.0
  0
LINE
  5
126
330
20
100
AcDbEntity
  8
17
  6
Continuous
 62
     7
100
AcDbLine
 10
-14688.83328468747
 20
-2286.619166725317
 30
0.0
 11
-14688.43204132758
 21
-2288.177026465841
 31
0.0
  0
LINE
  5
127
330
20
100
AcDbEntity
  8
17
  6
Continuous
 62
     7
100
AcDbLine
 10
-14688.43204132758
 20
-2288.177026465841
 30
0.0
 11
-14688.04362133709
 21
-2289.735674140199
 31
0.0
  0
LINE
  5
128
330
20
100
AcDbEntity
  8
17
  6
Continuous
 62
     7
100
AcDbLine
 10
-14688.04362133709
 20
-2289.735674140199
 30
0.0
 11
-14687.67058938987
 21
-2291.295267335159
 31
0.0
  0
LINE
  5
129
330
20
100
AcDbEntity
  8
17
  6
Continuous
 62
     7
100
AcDbLine
 10
-14687.67058938987
 20
-2291.295267335159
 30
0.0
 11
-14687.31551015981
 21
-2292.855963637487
 31
0.0
  0
LINE
  5
12A
330
20
100
AcDbEntity
  8
17
  6
Continuous
 62
     7
100
AcDbLine
 10
-14687.31551015981
 20
-2292.855963637487
 30
0.0
 11
-14686.98094832078
 21
-2294.417920633952
 31
0.0
  0
LINE
  5
12B
330
20
100
AcDbEntity
  8
17
  6
Continuous
 62
     7
100
AcDbLine
 10
-14686.98094832078
 20
-2294.417920633952
 30
0.0
 11
-14686.66946854666
 21
-2295.98129591132
 31
0.0
  0
LINE
  5
12C
330
20
100
AcDbEntity
  8
17
  6
Continuous
 62
     7
100
AcDbLine
 10
-14686.66946854666
 20
-2295.98129591132
 30
0.0
 11
-14686.38363551134
 21
-2297.546247056356
 31
0.0
  0
LINE
  5
12D
330
20
100
AcDbEntity
  8
17
  6
Continuous
 62
     7
100
AcDbLine
 10
-14686.38363551134
 20
-2297.546247056356
 30
0.0
 11
-14686.12601388868
 21
-2299.112931655831
 31
0.0
  0
LINE
  5
12E
330
20
100
AcDbEntity
  8
17
  6
Continuous
 62
     7
100
AcDbLine
 10
-14686.12601388868
 20
-2299.112931655831
 30
0.0
 11
-14685.89916835258
 21
-2300.681507296508
 31
0.0
  0
LINE
  5
12F
330
20
100
AcDbEntity
  8
17
  6
Continuous
 62
     7
100
AcDbLine
 10
-14685.89916835258
 20
-2300.681507296508
 30
0.0
 11
-14685.70566357691
 21
-2302.252131565156
 31
0.0
  0
LINE
  5
130
330
20
100
AcDbEntity
  8
17
  6
Continuous
 62
     7
100
AcDbLine
 10
-14685.70566357691
 20
-2302.252131565156
 30
0.0
 11
-14685.54806423554
 21
-2303.824962048541
 31
0.0
  0
LINE
  5
131
330
20
100
AcDbEntity
  8
17
  6
Continuous
 62
     7
100
AcDbLine
 10
-14685.54806423554
 20
-2303.824962048541
 30
0.0
 11
-14685.42893500236
 21
-2305.400156333431
 31
0.0
  0
LINE
  5
132
330
20
100
AcDbEntity
  8
17
  6
Continuous
 62
     7
100
AcDbLine
 10
-14685.42893500236
 20
-2305.400156333431
 30
0.0
 11
-14685.35084055125
 21
-2306.977872006592
 31
0.0
  0
LINE
  5
133
330
20
100
AcDbEntity
  8
17
  6
Continuous
 62
     7
100
AcDbLine
 10
-14685.35084055125
 20
-2306.977872006592
 30
0.0
 11
-14685.31634555609
 21
-2308.558266654793
 31
0.0
  0
LINE
  5
134
330
20
100
AcDbEntity
  8
17
  6
Continuous
 62
     7
100
AcDbLine
 10
-14685.31634555609
 20
-2308.558266654793
 30
0.0
 11
-14685.32801469075
 21
-2310.141497864798
 31
0.0
  0
LINE
  5
135
330
20
100
AcDbEntity
  8
17
  6
Continuous
 62
     7
100
AcDbLine
 10
-14685.32801469075
 20
-2310.141497864798
 30
0.0
 11
-14685.38841262911
 21
-2311.727723223376
 31
0.0
  0
LINE
  5
136
330
20
100
AcDbEntity
  8
17
  6
Continuous
 62
     7
100
AcDbLine
 10
-14685.38841262911
 20
-2311.727723223376
 30
0.0
 11
-14685.52399672379
 21
-2313.606037182608
 31
0.0
  0
LINE
  5
137
330
20
100
AcDbEntity
  8
17
  6
Continuous
 62
     7
100
AcDbLine
 10
-14685.52399672379
 20
-2313.606037182608
 30
0.0
 11
-14685.72279086262
 21
-2315.487824957667
 31
0.0
  0
LINE
  5
138
330
20
100
AcDbEntity
  8
17
  6
Continuous
 62
     7
100
AcDbLine
 10
-14685.72279086262
 20
-2315.487824957667
 30
0.0
 11
-14685.97637855036
 21
-2317.37215926104
 31
0.0
  0
LINE
  5
139
330
20
100
AcDbEntity
  8
17
  6
Continuous
 62
     7
100
AcDbLine
 10
-14685.97637855036
 20
-2317.37215926104
 30
0.0
 11
-14686.27634329177
 21
-2319.258112805215
 31
0.0
  0
LINE
  5
13A
330
20
100
AcDbEntity
  8
17
  6
Continuous
 62
     7
100
AcDbLine
 10
-14686.27634329177
 20
-2319.258112805215
 30
0.0
 11
-14686.61426859162
 21
-2321.144758302684
 31
0.0
  0
LINE
  5
13B
330
20
100
AcDbEntity
  8
17
  6
Continuous
 62
     7
100
AcDbLine
 10
-14686.61426859162
 20
-2321.144758302684
 30
0.0
 11
-14686.98173795467
 21
-2323.031168465932
 31
0.0
  0
LINE
  5
13C
330
20
100
AcDbEntity
  8
17
  6
Continuous
 62
     7
100
AcDbLine
 10
-14686.98173795467
 20
-2323.031168465932
 30
0.0
 11
-14687.3703348857
 21
-2324.916416007449
 31
0.0
  0
LINE
  5
13D
330
20
100
AcDbEntity
  8
17
  6
Continuous
 62
     7
100
AcDbLine
 10
-14687.3703348857
 20
-2324.916416007449
 30
0.0
 11
-14687.77164288947
 21
-2326.799573639724
 31
0.0
  0
LINE
  5
13E
330
20
100
AcDbEntity
  8
17
  6
Continuous
 62
     7
100
AcDbLine
 10
-14687.77164288947
 20
-2326.799573639724
 30
0.0
 11
-14688.17724547074
 21
-2328.679714075244
 31
0.0
  0
LINE
  5
13F
330
20
100
AcDbEntity
  8
17
  6
Continuous
 62
     7
100
AcDbLine
 10
-14688.17724547074
 20
-2328.679714075244
 30
0.0
 11
-14688.57872613429
 21
-2330.5559100265
 31
0.0
  0
LINE
  5
140
330
20
100
AcDbEntity
  8
17
  6
Continuous
 62
     7
100
AcDbLine
 10
-14688.57872613429
 20
-2330.5559100265
 30
0.0
 11
-14688.96766838488
 21
-2332.427234205979
 31
0.0
  0
LINE
  5
141
330
20
100
AcDbEntity
  8
17
  6
Continuous
 62
     7
100
AcDbLine
 10
-14688.96766838488
 20
-2332.427234205979
 30
0.0
 11
-14689.33565572727
 21
-2334.29275932617
 31
0.0
  0
LINE
  5
142
330
20
100
AcDbEntity
  8
17
  6
Continuous
 62
     7
100
AcDbLine
 10
-14689.33565572727
 20
-2334.29275932617
 30
0.0
 11
-14689.67427166623
 21
-2336.15155809956
 31
0.0
  0
LINE
  5
143
330
20
100
AcDbEntity
  8
17
  6
Continuous
 62
     7
100
AcDbLine
 10
-14689.67427166623
 20
-2336.15155809956
 30
0.0
 11
-14689.97509970654
 21
-2338.00270323864
 31
0.0
  0
LINE
  5
144
330
20
100
AcDbEntity
  8
17
  6
Continuous
 62
     7
100
AcDbLine
 10
-14689.97509970654
 20
-2338.00270323864
 30
0.0
 11
-14690.22972335295
 21
-2339.845267455897
 31
0.0
  0
LINE
  5
145
330
20
100
AcDbEntity
  8
17
  6
Continuous
 62
     7
100
AcDbLine
 10
-14690.22972335295
 20
-2339.845267455897
 30
0.0
 11
-14690.42972611023
 21
-2341.678323463821
 31
0.0
  0
LINE
  5
146
330
20
100
AcDbEntity
  8
17
  6
Continuous
 62
     7
100
AcDbLine
 10
-14690.42972611023
 20
-2341.678323463821
 30
0.0
 11
-14690.56669148315
 21
-2343.500943974899
 31
0.0
  0
LINE
  5
147
330
20
100
AcDbEntity
  8
17
  6
Continuous
 62
     7
100
AcDbLine
 10
-14690.56669148315
 20
-2343.500943974899
 30
0.0
 11
-14690.63220297647
 21
-2345.31220170162
 31
0.0
  0
LINE
  5
148
330
20
100
AcDbEntity
  8
17
  6
Continuous
 62
     7
100
AcDbLine
 10
-14690.63220297647
 20
-2345.31220170162
 30
0.0
 11
-14690.61784409496
 21
-2347.111169356473
 31
0.0
  0
LINE
  5
149
330
20
100
AcDbEntity
  8
17
  6
Continuous
 62
     7
100
AcDbLine
 10
-14690.61784409496
 20
-2347.111169356473
 30
0.0
 11
-14690.51519834339
 21
-2348.896919651947
 31
0.0
  0
LINE
  5
14A
330
20
100
AcDbEntity
  8
17
  6
Continuous
 62
     7
100
AcDbLine
 10
-14690.51519834339
 20
-2348.896919651947
 30
0.0
 11
-14690.30085846893
 21
-2350.791173684224
 31
0.0
  0
LINE
  5
14B
330
20
100
AcDbEntity
  8
17
  6
Continuous
 62
     7
100
AcDbLine
 10
-14690.30085846893
 20
-2350.791173684224
 30
0.0
 11
-14689.98146511362
 21
-2352.670061711535
 31
0.0
  0
LINE
  5
14C
330
20
100
AcDbEntity
  8
17
  6
Continuous
 62
     7
100
AcDbLine
 10
-14689.98146511362
 20
-2352.670061711535
 30
0.0
 11
-14689.56254740803
 21
-2354.534392470983
 31
0.0
  0
LINE
  5
14D
330
20
100
AcDbEntity
  8
17
  6
Continuous
 62
     7
100
AcDbLine
 10
-14689.56254740803
 20
-2354.534392470983
 30
0.0
 11
-14689.04963448273
 21
-2356.384974699674
 31
0.0
  0
LINE
  5
14E
330
20
100
AcDbEntity
  8
17
  6
Continuous
 62
     7
100
AcDbLine
 10
-14689.04963448273
 20
-2356.384974699674
 30
0.0
 11
-14688.44825546828
 21
-2358.222617134709
 31
0.0
  0
LINE
  5
14F
330
20
100
AcDbEntity
  8
17
  6
Continuous
 62
     7
100
AcDbLine
 10
-14688.44825546828
 20
-2358.222617134709
 30
0.0
 11
-14687.76393949528
 21
-2360.048128513192
 31
0.0
  0
LINE
  5
150
330
20
100
AcDbEntity
  8
17
  6
Continuous
 62
     7
100
AcDbLine
 10
-14687.76393949528
 20
-2360.048128513192
 30
0.0
 11
-14687.00221569427
 21
-2361.862317572227
 31
0.0
  0
LINE
  5
151
330
20
100
AcDbEntity
  8
17
  6
Continuous
 62
     7
100
AcDbLine
 10
-14687.00221569427
 20
-2361.862317572227
 30
0.0
 11
-14686.16861319584
 21
-2363.665993048916
 31
0.0
  0
LINE
  5
152
330
20
100
AcDbEntity
  8
17
  6
Continuous
 62
     7
100
AcDbLine
 10
-14686.16861319584
 20
-2363.665993048916
 30
0.0
 11
-14685.26866113055
 21
-2365.459963680365
 31
0.0
  0
LINE
  5
153
330
20
100
AcDbEntity
  8
17
  6
Continuous
 62
     7
100
AcDbLine
 10
-14685.26866113055
 20
-2365.459963680365
 30
0.0
 11
-14684.30788862898
 21
-2367.245038203675
 31
0.0
  0
LINE
  5
154
330
20
100
AcDbEntity
  8
17
  6
Continuous
 62
     7
100
AcDbLine
 10
-14684.30788862898
 20
-2367.245038203675
 30
0.0
 11
-14683.2918248217
 21
-2369.022025355951
 31
0.0
  0
LINE
  5
155
330
20
100
AcDbEntity
  8
17
  6
Continuous
 62
     7
100
AcDbLine
 10
-14683.2918248217
 20
-2369.022025355951
 30
0.0
 11
-14682.22599883928
 21
-2370.791733874295
 31
0.0
  0
LINE
  5
156
330
20
100
AcDbEntity
  8
17
  6
Continuous
 62
     7
100
AcDbLine
 10
-14682.22599883928
 20
-2370.791733874295
 30
0.0
 11
-14681.11593981229
 21
-2372.554972495812
 31
0.0
  0
LINE
  5
157
330
20
100
AcDbEntity
  8
17
  6
Continuous
 62
     7
100
AcDbLine
 10
-14681.11593981229
 20
-2372.554972495812
 30
0.0
 11
-14679.9671768713
 21
-2374.312549957604
 31
0.0
  0
LINE
  5
158
330
20
100
AcDbEntity
  8
17
  6
Continuous
 62
     7
100
AcDbLine
 10
-14679.9671768713
 20
-2374.312549957604
 30
0.0
 11
-14678.78523914689
 21
-2376.065274996777
 31
0.0
  0
LINE
  5
159
330
20
100
AcDbEntity
  8
17
  6
Continuous
 62
     7
100
AcDbLine
 10
-14678.78523914689
 20
-2376.065274996777
 30
0.0
 11
-14677.57565576962
 21
-2377.813956350431
 31
0.0
  0
LINE
  5
15A
330
20
100
AcDbEntity
  8
17
  6
Continuous
 62
     7
100
AcDbLine
 10
-14677.57565576962
 20
-2377.813956350431
 30
0.0
 11
-14676.34395587006
 21
-2379.559402755673
 31
0.0
  0
LINE
  5
15B
330
20
100
AcDbEntity
  8
17
  6
Continuous
 62
     7
100
AcDbLine
 10
-14676.34395587006
 20
-2379.559402755673
 30
0.0
 11
-14675.09566857879
 21
-2381.302422949604
 31
0.0
  0
LINE
  5
15C
330
20
100
AcDbEntity
  8
17
  6
Continuous
 62
     7
100
AcDbLine
 10
-14675.09566857879
 20
-2381.302422949604
 30
0.0
 11
-14673.83632302638
 21
-2383.043825669327
 31
0.0
  0
LINE
  5
15D
330
20
100
AcDbEntity
  8
17
  6
Continuous
 62
     7
100
AcDbLine
 10
-14673.83632302638
 20
-2383.043825669327
 30
0.0
 11
-14672.57144834339
 21
-2384.784419651947
 31
0.0
  0
LINE
  5
15E
330
20
100
AcDbEntity
  8
17
  6
Continuous
 62
     7
100
AcDbLine
 10
-14524.13060012911
 20
-2480.392455366233
 30
0.0
 11
-14524.38080192282
 21
-2480.392332692805
 31
0.0
  0
LINE
  5
15F
330
20
100
AcDbEntity
  8
17
  6
Continuous
 62
     7
100
AcDbLine
 10
-14524.38080192282
 20
-2480.392332692805
 30
0.0
 11
-14524.63100068205
 21
-2480.392211864091
 31
0.0
  0
LINE
  5
160
330
20
100
AcDbEntity
  8
17
  6
Continuous
 62
     7
100
AcDbLine
 10
-14524.63100068205
 20
-2480.392211864091
 30
0.0
 11
-14524.88119337229
 21
-2480.392094724802
 31
0.0
  0
LINE
  5
161
330
20
100
AcDbEntity
  8
17
  6
Continuous
 62
     7
100
AcDbLine
 10
-14524.88119337229
 20
-2480.392094724802
 30
0.0
 11
-14525.13137695905
 21
-2480.391983119653
 31
0.0
  0
LINE
  5
162
330
20
100
AcDbEntity
  8
17
  6
Continuous
 62
     7
100
AcDbLine
 10
-14525.13137695905
 20
-2480.391983119653
 30
0.0
 11
-14525.38154840785
 21
-2480.391878893357
 31
0.0
  0
LINE
  5
163
330
20
100
AcDbEntity
  8
17
  6
Continuous
 62
     7
100
AcDbLine
 10
-14525.38154840785
 20
-2480.391878893357
 30
0.0
 11
-14525.63170468418
 21
-2480.391783890628
 31
0.0
  0
LINE
  5
164
330
20
100
AcDbEntity
  8
17
  6
Continuous
 62
     7
100
AcDbLine
 10
-14525.63170468418
 20
-2480.391783890628
 30
0.0
 11
-14525.88184275357
 21
-2480.391699956177
 31
0.0
  0
LINE
  5
165
330
20
100
AcDbEntity
  8
17
  6
Continuous
 62
     7
100
AcDbLine
 10
-14525.88184275357
 20
-2480.391699956177
 30
0.0
 11
-14526.13195958151
 21
-2480.391628934719
 31
0.0
  0
LINE
  5
166
330
20
100
AcDbEntity
  8
17
  6
Continuous
 62
     7
100
AcDbLine
 10
-14526.13195958151
 20
-2480.391628934719
 30
0.0
 11
-14526.38205213351
 21
-2480.391572670967
 31
0.0
  0
LINE
  5
167
330
20
100
AcDbEntity
  8
17
  6
Continuous
 62
     7
100
AcDbLine
 10
-14526.38205213351
 20
-2480.391572670967
 30
0.0
 11
-14526.63211737509
 21
-2480.391533009632
 31
0.0
  0
LINE
  5
168
330
20
100
AcDbEntity
  8
17
  6
Continuous
 62
     7
100
AcDbLine
 10
-14526.63211737509
 20
-2480.391533009632
 30
0.0
 11
-14526.88215227175
 21
-2480.391511795431
 31
0.0
  0
LINE
  5
169
330
20
100
AcDbEntity
  8
17
  6
Continuous
 62
     7
100
AcDbLine
 10
-14526.88215227175
 20
-2480.391511795431
 30
0.0
 11
-14527.13215378899
 21
-2480.391510873074
 31
0.0
  0
LINE
  5
16A
330
20
100
AcDbEntity
  8
17
  6
Continuous
 62
     7
100
AcDbLine
 10
-14527.13215378899
 20
-2480.391510873074
 30
0.0
 11
-14527.38211889234
 21
-2480.391532087276
 31
0.0
  0
LINE
  5
16B
330
20
100
AcDbEntity
  8
17
  6
Continuous
 62
     7
100
AcDbLine
 10
-14527.38211889234
 20
-2480.391532087276
 30
0.0
 11
-14527.63204454728
 21
-2480.39157728275
 31
0.0
  0
LINE
  5
16C
330
20
100
AcDbEntity
  8
17
  6
Continuous
 62
     7
100
AcDbLine
 10
-14527.63204454728
 20
-2480.39157728275
 30
0.0
 11
-14527.88192771934
 21
-2480.391648304207
 31
0.0
  0
LINE
  5
16D
330
20
100
AcDbEntity
  8
17
  6
Continuous
 62
     7
100
AcDbLine
 10
-14527.88192771934
 20
-2480.391648304207
 30
0.0
 11
-14528.13176537402
 21
-2480.391746996364
 31
0.0
  0
LINE
  5
16E
330
20
100
AcDbEntity
  8
17
  6
Continuous
 62
     7
100
AcDbLine
 10
-14528.13176537402
 20
-2480.391746996364
 30
0.0
 11
-14528.38155447683
 21
-2480.391875203932
 31
0.0
  0
LINE
  5
16F
330
20
100
AcDbEntity
  8
17
  6
Continuous
 62
     7
100
AcDbLine
 10
-14528.38155447683
 20
-2480.391875203932
 30
0.0
 11
-14528.63129199327
 21
-2480.392034771623
 31
0.0
  0
LINE
  5
170
330
20
100
AcDbEntity
  8
17
  6
Continuous
 62
     7
100
AcDbLine
 10
-14528.63129199327
 20
-2480.392034771623
 30
0.0
 11
-14528.88097488886
 21
-2480.392227544152
 31
0.0
  0
LINE
  5
171
330
20
100
AcDbEntity
  8
17
  6
Continuous
 62
     7
100
AcDbLine
 10
-14528.88097488886
 20
-2480.392227544152
 30
0.0
 11
-14529.13060012911
 21
-2480.392455366233
 31
0.0
  0
LINE
  5
172
330
20
100
AcDbEntity
  8
17
  6
Continuous
 62
     7
100
AcDbLine
 10
-14529.13060012911
 20
-2480.392455366233
 30
0.0
 11
-14530.72396220713
 21
-2480.394642676554
 31
0.0
  0
LINE
  5
173
330
20
100
AcDbEntity
  8
17
  6
Continuous
 62
     7
100
AcDbLine
 10
-14530.72396220713
 20
-2480.394642676554
 30
0.0
 11
-14532.31525085762
 21
-2480.397514429579
 31
0.0
  0
LINE
  5
174
330
20
100
AcDbEntity
  8
17
  6
Continuous
 62
     7
100
AcDbLine
 10
-14532.31525085762
 20
-2480.397514429579
 30
0.0
 11
-14533.90486956181
 21
-2480.400249318008
 31
0.0
  0
LINE
  5
175
330
20
100
AcDbEntity
  8
17
  6
Continuous
 62
     7
100
AcDbLine
 10
-14533.90486956181
 20
-2480.400249318008
 30
0.0
 11
-14535.49322180093
 21
-2480.402026034543
 31
0.0
  0
LINE
  5
176
330
20
100
AcDbEntity
  8
17
  6
Continuous
 62
     7
100
AcDbLine
 10
-14535.49322180093
 20
-2480.402026034543
 30
0.0
 11
-14537.0807110562
 21
-2480.402023271887
 31
0.0
  0
LINE
  5
177
330
20
100
AcDbEntity
  8
17
  6
Continuous
 62
     7
100
AcDbLine
 10
-14537.0807110562
 20
-2480.402023271887
 30
0.0
 11
-14538.66774080885
 21
-2480.39941972274
 31
0.0
  0
LINE
  5
178
330
20
100
AcDbEntity
  8
17
  6
Continuous
 62
     7
100
AcDbLine
 10
-14538.66774080885
 20
-2480.39941972274
 30
0.0
 11
-14540.2547145401
 21
-2480.393394079805
 31
0.0
  0
LINE
  5
179
330
20
100
AcDbEntity
  8
17
  6
Continuous
 62
     7
100
AcDbLine
 10
-14540.2547145401
 20
-2480.393394079805
 30
0.0
 11
-14541.84203573119
 21
-2480.383125035785
 31
0.0
  0
LINE
  5
17A
330
20
100
AcDbEntity
  8
17
  6
Continuous
 62
     7
100
AcDbLine
 10
-14541.84203573119
 20
-2480.383125035785
 30
0.0
 11
-14543.43010786334
 21
-2480.367791283379
 31
0.0
  0
LINE
  5
17B
330
20
100
AcDbEntity
  8
17
  6
Continuous
 62
     7
100
AcDbLine
 10
-14543.43010786334
 20
-2480.367791283379
 30
0.0
 11
-14545.01933441777
 21
-2480.346571515289
 31
0.0
  0
LINE
  5
17C
330
20
100
AcDbEntity
  8
17
  6
Continuous
 62
     7
100
AcDbLine
 10
-14545.01933441777
 20
-2480.346571515289
 30
0.0
 11
-14546.61011887572
 21
-2480.318644424219
 31
0.0
  0
LINE
  5
17D
330
20
100
AcDbEntity
  8
17
  6
Continuous
 62
     7
100
AcDbLine
 10
-14546.61011887572
 20
-2480.318644424219
 30
0.0
 11
-14548.2028647184
 21
-2480.28318870287
 31
0.0
  0
LINE
  5
17E
330
20
100
AcDbEntity
  8
17
  6
Continuous
 62
     7
100
AcDbLine
 10
-14548.2028647184
 20
-2480.28318870287
 30
0.0
 11
-14549.79797542706
 21
-2480.239383043943
 31
0.0
  0
LINE
  5
17F
330
20
100
AcDbEntity
  8
17
  6
Continuous
 62
     7
100
AcDbLine
 10
-14549.79797542706
 20
-2480.239383043943
 30
0.0
 11
-14551.3958544829
 21
-2480.186406140141
 31
0.0
  0
LINE
  5
180
330
20
100
AcDbEntity
  8
17
  6
Continuous
 62
     7
100
AcDbLine
 10
-14551.3958544829
 20
-2480.186406140141
 30
0.0
 11
-14552.99690536716
 21
-2480.123436684164
 31
0.0
  0
LINE
  5
181
330
20
100
AcDbEntity
  8
17
  6
Continuous
 62
     7
100
AcDbLine
 10
-14552.99690536716
 20
-2480.123436684164
 30
0.0
 11
-14554.60153156107
 21
-2480.049653368715
 31
0.0
  0
LINE
  5
182
330
20
100
AcDbEntity
  8
17
  6
Continuous
 62
     7
100
AcDbLine
 10
-14554.60153156107
 20
-2480.049653368715
 30
0.0
 11
-14556.21013654585
 21
-2479.964234886495
 31
0.0
  0
LINE
  5
183
330
20
100
AcDbEntity
  8
17
  6
Continuous
 62
     7
100
AcDbLine
 10
-14556.21013654585
 20
-2479.964234886495
 30
0.0
 11
-14557.82312380272
 21
-2479.866359930208
 31
0.0
  0
LINE
  5
184
330
20
100
AcDbEntity
  8
17
  6
Continuous
 62
     7
100
AcDbLine
 10
-14557.82312380272
 20
-2479.866359930208
 30
0.0
 11
-14559.44089681293
 21
-2479.755207192553
 31
0.0
  0
LINE
  5
185
330
20
100
AcDbEntity
  8
17
  6
Continuous
 62
     7
100
AcDbLine
 10
-14559.44089681293
 20
-2479.755207192553
 30
0.0
 11
-14561.06385905768
 21
-2479.629955366233
 31
0.0
  0
LINE
  5
186
330
20
100
AcDbEntity
  8
17
  6
Continuous
 62
     7
100
AcDbLine
 10
-14561.06385905768
 20
-2479.629955366233
 30
0.0
 11
-14563.31790728175
 21
-2479.431814218183
 31
0.0
  0
LINE
  5
187
330
20
100
AcDbEntity
  8
17
  6
Continuous
 62
     7
100
AcDbLine
 10
-14563.31790728175
 20
-2479.431814218183
 30
0.0
 11
-14565.57903839469
 21
-2479.202533548242
 31
0.0
  0
LINE
  5
188
330
20
100
AcDbEntity
  8
17
  6
Continuous
 62
     7
100
AcDbLine
 10
-14565.57903839469
 20
-2479.202533548242
 30
0.0
 11
-14567.84362894807
 21
-2478.939536486091
 31
0.0
  0
LINE
  5
189
330
20
100
AcDbEntity
  8
17
  6
Continuous
 62
     7
100
AcDbLine
 10
-14567.84362894807
 20
-2478.939536486091
 30
0.0
 11
-14570.10805549343
 21
-2478.640246161407
 31
0.0
  0
LINE
  5
18A
330
20
100
AcDbEntity
  8
17
  6
Continuous
 62
     7
100
AcDbLine
 10
-14570.10805549343
 20
-2478.640246161407
 30
0.0
 11
-14572.36869458234
 21
-2478.30208570387
 31
0.0
  0
LINE
  5
18B
330
20
100
AcDbEntity
  8
17
  6
Continuous
 62
     7
100
AcDbLine
 10
-14572.36869458234
 20
-2478.30208570387
 30
0.0
 11
-14574.62192276636
 21
-2477.92247824316
 31
0.0
  0
LINE
  5
18C
330
20
100
AcDbEntity
  8
17
  6
Continuous
 62
     7
100
AcDbLine
 10
-14574.62192276636
 20
-2477.92247824316
 30
0.0
 11
-14576.86411659704
 21
-2477.498846908956
 31
0.0
  0
LINE
  5
18D
330
20
100
AcDbEntity
  8
17
  6
Continuous
 62
     7
100
AcDbLine
 10
-14576.86411659704
 20
-2477.498846908956
 30
0.0
 11
-14579.09165262593
 21
-2477.028614830938
 31
0.0
  0
LINE
  5
18E
330
20
100
AcDbEntity
  8
17
  6
Continuous
 62
     7
100
AcDbLine
 10
-14579.09165262593
 20
-2477.028614830938
 30
0.0
 11
-14581.30090740461
 21
-2476.509205138785
 31
0.0
  0
LINE
  5
18F
330
20
100
AcDbEntity
  8
17
  6
Continuous
 62
     7
100
AcDbLine
 10
-14581.30090740461
 20
-2476.509205138785
 30
0.0
 11
-14583.48825748461
 21
-2475.938040962176
 31
0.0
  0
LINE
  5
190
330
20
100
AcDbEntity
  8
17
  6
Continuous
 62
     7
100
AcDbLine
 10
-14583.48825748461
 20
-2475.938040962176
 30
0.0
 11
-14585.65007941751
 21
-2475.312545430791
 31
0.0
  0
LINE
  5
191
330
20
100
AcDbEntity
  8
17
  6
Continuous
 62
     7
100
AcDbLine
 10
-14585.65007941751
 20
-2475.312545430791
 30
0.0
 11
-14587.78274975485
 21
-2474.63014167431
 31
0.0
  0
LINE
  5
192
330
20
100
AcDbEntity
  8
17
  6
Continuous
 62
     7
100
AcDbLine
 10
-14587.78274975485
 20
-2474.63014167431
 30
0.0
 11
-14589.88264504819
 21
-2473.888252822412
 31
0.0
  0
LINE
  5
193
330
20
100
AcDbEntity
  8
17
  6
Continuous
 62
     7
100
AcDbLine
 10
-14589.88264504819
 20
-2473.888252822412
 30
0.0
 11
-14591.9461418491
 21
-2473.084302004777
 31
0.0
  0
LINE
  5
194
330
20
100
AcDbEntity
  8
17
  6
Continuous
 62
     7
100
AcDbLine
 10
-14591.9461418491
 20
-2473.084302004777
 30
0.0
 11
-14593.96961670913
 21
-2472.215712351081
 31
0.0
  0
LINE
  5
195
330
20
100
AcDbEntity
  8
17
  6
Continuous
 62
     7
100
AcDbLine
 10
-14593.96961670913
 20
-2472.215712351081
 30
0.0
 11
-14595.94944617983
 21
-2471.279906991009
 31
0.0
  0
LINE
  5
196
330
20
100
AcDbEntity
  8
17
  6
Continuous
 62
     7
100
AcDbLine
 10
-14595.94944617983
 20
-2471.279906991009
 30
0.0
 11
-14597.88200681276
 21
-2470.274309054237
 31
0.0
  0
LINE
  5
197
330
20
100
AcDbEntity
  8
17
  6
Continuous
 62
     7
100
AcDbLine
 10
-14597.88200681276
 20
-2470.274309054237
 30
0.0
 11
-14599.76367515949
 21
-2469.196341670445
 31
0.0
  0
LINE
  5
198
330
20
100
AcDbEntity
  8
17
  6
Continuous
 62
     7
100
AcDbLine
 10
-14599.76367515949
 20
-2469.196341670445
 30
0.0
 11
-14601.59082777156
 21
-2468.043427969312
 31
0.0
  0
LINE
  5
199
330
20
100
AcDbEntity
  8
17
  6
Continuous
 62
     7
100
AcDbLine
 10
-14601.59082777156
 20
-2468.043427969312
 30
0.0
 11
-14603.35984120054
 21
-2466.812991080518
 31
0.0
  0
LINE
  5
19A
330
20
100
AcDbEntity
  8
17
  6
Continuous
 62
     7
100
AcDbLine
 10
-14603.35984120054
 20
-2466.812991080518
 30
0.0
 11
-14604.77254248061
 21
-2465.73924883524
 31
0.0
  0
LINE
  5
19B
330
20
100
AcDbEntity
  8
17
  6
Continuous
 62
     7
100
AcDbLine
 10
-14604.77254248061
 20
-2465.73924883524
 30
0.0
 11
-14606.14537076156
 21
-2464.613795232093
 31
0.0
  0
LINE
  5
19C
330
20
100
AcDbEntity
  8
17
  6
Continuous
 62
     7
100
AcDbLine
 10
-14606.14537076156
 20
-2464.613795232093
 30
0.0
 11
-14607.48042462227
 21
-2463.439351921491
 31
0.0
  0
LINE
  5
19D
330
20
100
AcDbEntity
  8
17
  6
Continuous
 62
     7
100
AcDbLine
 10
-14607.48042462227
 20
-2463.439351921491
 30
0.0
 11
-14608.77980264165
 21
-2462.218640553848
 31
0.0
  0
LINE
  5
19E
330
20
100
AcDbEntity
  8
17
  6
Continuous
 62
     7
100
AcDbLine
 10
-14608.77980264165
 20
-2462.218640553848
 30
0.0
 11
-14610.04560339861
 21
-2460.954382779577
 31
0.0
  0
LINE
  5
19F
330
20
100
AcDbEntity
  8
17
  6
Continuous
 62
     7
100
AcDbLine
 10
-14610.04560339861
 20
-2460.954382779577
 30
0.0
 11
-14611.27992547204
 21
-2459.649300249095
 31
0.0
  0
LINE
  5
1A0
330
20
100
AcDbEntity
  8
17
  6
Continuous
 62
     7
100
AcDbLine
 10
-14611.27992547204
 20
-2459.649300249095
 30
0.0
 11
-14612.48486744085
 21
-2458.306114612813
 31
0.0
  0
LINE
  5
1A1
330
20
100
AcDbEntity
  8
17
  6
Continuous
 62
     7
100
AcDbLine
 10
-14612.48486744085
 20
-2458.306114612813
 30
0.0
 11
-14613.66252788393
 21
-2456.927547521147
 31
0.0
  0
LINE
  5
1A2
330
20
100
AcDbEntity
  8
17
  6
Continuous
 62
     7
100
AcDbLine
 10
-14613.66252788393
 20
-2456.927547521147
 30
0.0
 11
-14614.8150053802
 21
-2455.516320624512
 31
0.0
  0
LINE
  5
1A3
330
20
100
AcDbEntity
  8
17
  6
Continuous
 62
     7
100
AcDbLine
 10
-14614.8150053802
 20
-2455.516320624512
 30
0.0
 11
-14615.94439850854
 21
-2454.075155573321
 31
0.0
  0
LINE
  5
1A4
330
20
100
AcDbEntity
  8
17
  6
Continuous
 62
     7
100
AcDbLine
 10
-14615.94439850854
 20
-2454.075155573321
 30
0.0
 11
-14617.05280584787
 21
-2452.606774017987
 31
0.0
  0
LINE
  5
1A5
330
20
100
AcDbEntity
  8
17
  6
Continuous
 62
     7
100
AcDbLine
 10
-14617.05280584787
 20
-2452.606774017987
 30
0.0
 11
-14618.14232597708
 21
-2451.113897608926
 31
0.0
  0
LINE
  5
1A6
330
20
100
AcDbEntity
  8
17
  6
Continuous
 62
     7
100
AcDbLine
 10
-14618.14232597708
 20
-2451.113897608926
 30
0.0
 11
-14619.21505747508
 21
-2449.599247996552
 31
0.0
  0
LINE
  5
1A7
330
20
100
AcDbEntity
  8
17
  6
Continuous
 62
     7
100
AcDbLine
 10
-14619.21505747508
 20
-2449.599247996552
 30
0.0
 11
-14620.27309892076
 21
-2448.065546831278
 31
0.0
  0
LINE
  5
1A8
330
20
100
AcDbEntity
  8
17
  6
Continuous
 62
     7
100
AcDbLine
 10
-14620.27309892076
 20
-2448.065546831278
 30
0.0
 11
-14621.31854889304
 21
-2446.51551576352
 31
0.0
  0
LINE
  5
1A9
330
20
100
AcDbEntity
  8
17
  6
Continuous
 62
     7
100
AcDbLine
 10
-14621.31854889304
 20
-2446.51551576352
 30
0.0
 11
-14622.35350597081
 21
-2444.95187644369
 31
0.0
  0
LINE
  5
1AA
330
20
100
AcDbEntity
  8
17
  6
Continuous
 62
     7
100
AcDbLine
 10
-14622.35350597081
 20
-2444.95187644369
 30
0.0
 11
-14623.38006873297
 21
-2443.377350522204
 31
0.0
  0
LINE
  5
1AB
330
20
100
AcDbEntity
  8
17
  6
Continuous
 62
     7
100
AcDbLine
 10
-14623.38006873297
 20
-2443.377350522204
 30
0.0
 11
-14624.40033575842
 21
-2441.794659649476
 31
0.0
  0
LINE
  5
1AC
330
20
100
AcDbEntity
  8
17
  6
Continuous
 62
     7
100
AcDbLine
 10
-14624.40033575842
 20
-2441.794659649476
 30
0.0
 11
-14625.41640562607
 21
-2440.206525475919
 31
0.0
  0
LINE
  5
1AD
330
20
100
AcDbEntity
  8
17
  6
Continuous
 62
     7
100
AcDbLine
 10
-14625.41640562607
 20
-2440.206525475919
 30
0.0
 11
-14626.43037691482
 21
-2438.615669651947
 31
0.0
  0
LINE
  5
1AE
330
20
100
AcDbEntity
  8
17
  6
Continuous
 62
     7
100
AcDbLine
 10
-14529.13060012911
 20
-2226.981071437662
 30
0.0
 11
-14454.13060012911
 21
-2226.981071437662
 31
0.0
  0
LINE
  5
1AF
330
20
100
AcDbEntity
  8
17
  6
Continuous
 62
     7
100
AcDbLine
 10
-14529.13060012911
 20
-2226.981071437662
 30
0.0
 11
-14509.81208360333
 21
-2221.804690535611
 31
0.0
  0
LINE
  5
1B0
330
20
100
AcDbEntity
  8
17
  6
Continuous
 62
     7
100
AcDbLine
 10
-14529.13060012911
 20
-2226.981071437662
 30
0.0
 11
-14509.81208360333
 21
-2232.157452339712
 31
0.0
  0
LINE
  5
1B1
330
20
100
AcDbEntity
  8
17
  6
Continuous
 62
     7
100
AcDbLine
 10
-14454.13060012911
 20
-2226.981071437662
 30
0.0
 11
-14473.44911665489
 21
-2232.157452339712
 31
0.0
  0
LINE
  5
1B2
330
20
100
AcDbEntity
  8
17
  6
Continuous
 62
     7
100
AcDbLine
 10
-14454.13060012911
 20
-2226.981071437662
 30
0.0
 11
-14473.44911665489
 21
-2221.804690535611
 31
0.0
  0
LINE
  5
1B3
330
20
100
AcDbEntity
  8
17
  6
Continuous
 62
     7
100
AcDbLine
 10
-14529.13060012911
 20
-2300.392455366233
 30
0.0
 11
-14529.13060012911
 21
-2221.981071437662
 31
0.0
  0
LINE
  5
1B4
330
20
100
AcDbEntity
  8
17
  6
Continuous
 62
     7
100
AcDbLine
 10
-14454.13060012911
 20
-2275.392455366233
 30
0.0
 11
-14454.13060012911
 21
-2221.981071437662
 31
0.0
  0
TEXT
  5
1B5
330
20
100
AcDbEntity
  8
17
 62
     7
100
AcDbText
 10
-14521.63058966594
 20
-2221.98109585696
 30
0.0
 40
20.0
  1
15%%p1_
 50
0.00000001
 41
0.75
 51
15.0
 72
     1
 11
-14491.63058966594
 21
-2221.981095851724
 31
0.0
100
AcDbText
  0
LINE
  5
1B6
330
20
100
AcDbEntity
  8
17
  6
Continuous
 62
     7
100
AcDbLine
 10
-14522.42990262611
 20
-2288.3590902224
 30
0.0
 11
-14486.90014732298
 21
-2321.430913350536
 31
0.0
  0
LINE
  5
1B7
330
20
100
AcDbEntity
  8
17
  6
Continuous
 62
     7
100
AcDbLine
 10
-14522.42990262611
 20
-2288.3590902224
 30
0.0
 11
-14504.76244007704
 21
-2297.732497664579
 31
0.0
  0
LINE
  5
1B8
330
20
100
AcDbEntity
  8
17
  6
Continuous
 62
     7
100
AcDbLine
 10
-14522.42990262611
 20
-2288.3590902224
 30
0.0
 11
-14511.81613495929
 21
-2305.310430461886
 31
0.0
  0
TEXT
  5
1B9
330
20
100
AcDbEntity
  8
17
 62
     7
100
AcDbText
 10
-14501.02706725606
 20
-2302.264950571535
 30
0.0
 40
20.0
  1
R5
 50
317.051979064941
 41
0.75
 51
15.0
 72
     1
 11
-14491.87741583781
 21
-2310.781632961099
 31
0.0
100
AcDbText
  0
LINE
  5
1BA
330
20
100
AcDbEntity
  8
17
  6
Continuous
 62
     7
100
AcDbLine
 10
-14409.80024298625
 20
-2548.47281250909
 30
0.0
 11
-14692.65738584339
 21
-2548.47281250909
 31
0.0
  0
LINE
  5
1BB
330
20
100
AcDbEntity
  8
17
  6
Continuous
 62
     7
100
AcDbLine
 10
-14277.21095727197
 20
-2548.47281250909
 30
0.0
 11
-14003.19310012911
 21
-2548.47281250909
 31
0.0
  0
TEXT
  5
1BC
330
20
100
AcDbEntity
  8
17
 62
     7
100
AcDbText
 10
-14679.78895555142
 20
-2536.680924953286
 30
0.0
 40
30.0
  1
A-A断面　Ｓ＝１／2
 41
0.6666666666670002
  7
BIGFONT
 72
     1
 11
-14559.12228888469
 21
-2521.680924953286
 31
0.0
100
AcDbText
 73
     2
  0
TEXT
  5
1BD
330
20
100
AcDbEntity
  8
17
 62
     7
100
AcDbText
 10
-14259.16273484829
 20
-2540.322709621255
 30
0.0
 40
30.0
  1
B-B断面　Ｓ＝１／2
 41
0.6666666666670002
  7
BIGFONT
 72
     1
 11
-14138.49606818156
 21
-2525.322709621255
 31
0.0
100
AcDbText
 73
     2
  0
LINE
  5
1BE
330
20
100
AcDbEntity
  8
33
  6
Continuous
 62
     7
100
AcDbLine
 10
-14754.43406041189
 20
-1609.332623076273
 30
0.0
 11
-14754.43406041189
 21
-1594.332623076273
 31
0.0
  0
LINE
  5
1BF
330
20
100
AcDbEntity
  8
33
  6
Continuous
 62
     7
100
AcDbLine
 10
-14754.43406041189
 20
-1594.332623076273
 30
0.0
 11
-14754.43406041189
 21
-1604.332623076272
 31
0.0
  0
LINE
  5
1C0
330
20
100
AcDbEntity
  8
33
  6
Continuous
 62
     7
100
AcDbLine
 10
-14749.43406041188
 20
-1609.332623076273
 30
0.0
 11
-14589.43406041188
 21
-1609.332623076273
 31
0.0
  0
LINE
  5
1C1
330
20
100
AcDbEntity
  8
33
  6
Continuous
 62
     7
100
AcDbLine
 10
-14564.43406041189
 20
-1634.332623076273
 30
0.0
 11
-14564.43406041189
 21
-1819.832623076273
 31
0.0
  0
LINE
  5
1C2
330
20
100
AcDbEntity
  8
33
  6
Continuous
 62
     7
100
AcDbLine
 10
-14605.46786501007
 20
-2039.332623076273
 30
0.0
 11
-14749.43406041188
 21
-2039.332623076273
 31
0.0
  0
LINE
  5
1C3
330
20
100
AcDbEntity
  8
33
  6
DASHDOT
 62
     7
100
AcDbLine
 10
-14784.11263184046
 20
-1729.332623076272
 30
0.0
 11
-14532.19298898332
 21
-1729.332623076272
 31
0.0
  0
LINE
  5
1C4
330
20
100
AcDbEntity
  8
33
  6
DASHDOT
 62
     7
100
AcDbLine
 10
-14564.43406041189
 20
-1819.832623076273
 30
0.0
 11
-14557.43406041189
 21
-1819.832623076273
 31
0.0
  0
LINE
  5
1C5
330
20
100
AcDbEntity
  8
33
  6
Continuous
 62
     7
100
AcDbLine
 10
-14557.43406041189
 20
-1787.332623076273
 30
0.0
 11
-14557.43406041189
 21
-1671.332623076273
 31
0.0
  0
LINE
  5
1C6
330
20
100
AcDbEntity
  8
33
  6
Continuous
 62
     7
100
AcDbLine
 10
-14580.55150275333
 20
-2016.375878295505
 30
0.0
 11
-14564.43406041189
 21
-1819.832623076273
 31
0.0
  0
ARC
  5
1C7
330
20
100
AcDbEntity
  8
33
  6
Continuous
 62
     7
100
AcDbCircle
 10
-14605.46786501007
 20
-2014.332623076273
 30
0.0
 40
25.0
100
AcDbArc
 50
270.0
 51
355.311974867293
  0
ARC
  5
1C8
330
20
100
AcDbEntity
  8
33
  6
Continuous
 62
     7
100
AcDbCircle
 10
-14589.43406041188
 20
-1634.332623076273
 30
0.0
 40
25.0
100
AcDbArc
 50
0.0
 51
90.0
  0
LINE
  5
1C9
330
20
100
AcDbEntity
  8
33
  6
Continuous
 62
     7
100
AcDbLine
 10
-14754.43406041189
 20
-2044.332623076273
 30
0.0
 11
-14754.43406041189
 21
-2054.332623076273
 31
0.0
  0
ARC
  5
1CA
330
20
100
AcDbEntity
  8
33
  6
Continuous
 62
     7
100
AcDbCircle
 10
-14749.43406041188
 20
-2044.332623076273
 30
0.0
 40
5.0
100
AcDbArc
 50
90.0
 51
180.0
  0
ARC
  5
1CB
330
20
100
AcDbEntity
  8
33
  6
Continuous
 62
     7
100
AcDbCircle
 10
-14749.43406041188
 20
-1604.332623076272
 30
0.0
 40
5.0
100
AcDbArc
 50
180.0
 51
270.0
  0
LINE
  5
1CC
330
20
100
AcDbEntity
  8
33
  6
Continuous
 62
     7
100
AcDbLine
 10
-14754.43406041189
 20
-2044.332623076273
 30
0.0
 11
-14754.43406041189
 21
-1598.579474160457
 31
0.0
  0
LINE
  5
1CD
330
20
100
AcDbEntity
  8
33
  6
Continuous
 62
     7
100
AcDbLine
 10
-14753.43406041189
 20
-2054.332623076273
 30
0.0
 11
-14753.43406041189
 21
-2044.332623076273
 31
0.0
  0
ARC
  5
1CE
330
20
100
AcDbEntity
  8
33
  6
Continuous
 62
     7
100
AcDbCircle
 10
-14749.43406041188
 20
-2044.332623076273
 30
0.0
 40
4.0
100
AcDbArc
 50
90.0
 51
180.0
  0
LINE
  5
1CF
330
20
100
AcDbEntity
  8
33
  6
Continuous
 62
     7
100
AcDbLine
 10
-14749.43406041188
 20
-2040.332623076273
 30
0.0
 11
-14605.46786501007
 21
-2040.332623076273
 31
0.0
  0
ARC
  5
1D0
330
20
100
AcDbEntity
  8
33
  6
Continuous
 62
     7
100
AcDbCircle
 10
-14605.46786501007
 20
-2014.332623076273
 30
0.0
 40
26.0
100
AcDbArc
 50
270.0
 51
355.311974867293
  0
LINE
  5
1D1
330
20
100
AcDbEntity
  8
33
  6
Continuous
 62
     7
100
AcDbLine
 10
-14579.55484826306
 20
-2016.457608504274
 30
0.0
 11
-14563.51270822796
 21
-1820.832623076273
 31
0.0
  0
LINE
  5
1D2
330
20
100
AcDbEntity
  8
33
  6
Continuous
 62
     7
100
AcDbLine
 10
-14556.43406041189
 20
-1788.332623076273
 30
0.0
 11
-14556.43406041189
 21
-1670.332623076272
 31
0.0
  0
LINE
  5
1D3
330
20
100
AcDbEntity
  8
33
  6
Continuous
 62
     7
100
AcDbLine
 10
-14563.43406041189
 20
-1637.832623076272
 30
0.0
 11
-14563.43406041189
 21
-1634.332623076273
 31
0.0
  0
ARC
  5
1D4
330
20
100
AcDbEntity
  8
33
  6
Continuous
 62
     7
100
AcDbCircle
 10
-14589.43406041188
 20
-1634.332623076273
 30
0.0
 40
26.0
100
AcDbArc
 50
0.0
 51
90.0
  0
LINE
  5
1D5
330
20
100
AcDbEntity
  8
33
  6
Continuous
 62
     7
100
AcDbLine
 10
-14589.43406041188
 20
-1608.332623076273
 30
0.0
 11
-14749.43406041188
 21
-1608.332623076273
 31
0.0
  0
ARC
  5
1D6
330
20
100
AcDbEntity
  8
33
  6
Continuous
 62
     7
100
AcDbCircle
 10
-14749.43406041188
 20
-1604.332623076272
 30
0.0
 40
4.0
100
AcDbArc
 50
180.0
 51
270.0
  0
LINE
  5
1D7
330
20
100
AcDbEntity
  8
33
  6
Continuous
 62
     7
100
AcDbLine
 10
-14753.43406041189
 20
-1604.332623076272
 30
0.0
 11
-14753.43406041189
 21
-1594.332623076273
 31
0.0
  0
LINE
  5
1D8
330
20
100
AcDbEntity
  8
33
  6
Continuous
 62
     7
100
AcDbLine
 10
-14754.43406041189
 20
-1594.332623076273
 30
0.0
 11
-14753.43406041189
 21
-1594.332623076273
 31
0.0
  0
LINE
  5
1D9
330
20
100
AcDbEntity
  8
33
  6
Continuous
 62
     7
100
AcDbLine
 10
-14754.43406041189
 20
-2054.332623076273
 30
0.0
 11
-14753.43406041189
 21
-2054.332623076273
 31
0.0
  0
LINE
  5
1DA
330
20
100
AcDbEntity
  8
33
  6
Continuous
 62
     7
100
AcDbLine
 10
-14580.55150275333
 20
-2087.927411573545
 30
0.0
 11
-14563.51270822796
 21
-2087.927411573545
 31
0.0
  0
LINE
  5
1DB
330
20
100
AcDbEntity
  8
33
  6
Continuous
 62
     7
100
AcDbLine
 10
-14580.55150275333
 20
-2021.375878295504
 30
0.0
 11
-14580.55150275333
 21
-2092.927411573546
 31
0.0
  0
LINE
  5
1DC
330
20
100
AcDbEntity
  8
33
  6
Continuous
 62
     7
100
AcDbLine
 10
-14563.51270822796
 20
-1825.832623076273
 30
0.0
 11
-14563.51270822796
 21
-2092.927411573546
 31
0.0
  0
LINE
  5
1DD
330
20
100
AcDbEntity
  8
33
  6
Continuous
 62
     7
100
AcDbLine
 10
-14610.55150275333
 20
-2087.927411573545
 30
0.0
 11
-14580.55150275333
 21
-2087.927411573545
 31
0.0
  0
LINE
  5
1DE
330
20
100
AcDbEntity
  8
33
  6
Continuous
 62
     7
100
AcDbLine
 10
-14580.55150275333
 20
-2087.927411573545
 30
0.0
 11
-14599.87001927911
 21
-2093.103792475597
 31
0.0
  0
LINE
  5
1DF
330
20
100
AcDbEntity
  8
33
  6
Continuous
 62
     7
100
AcDbLine
 10
-14580.55150275333
 20
-2087.927411573545
 30
0.0
 11
-14599.87001927911
 21
-2082.751030671496
 31
0.0
  0
LINE
  5
1E0
330
20
100
AcDbEntity
  8
33
  6
Continuous
 62
     7
100
AcDbLine
 10
-14563.51270822796
 20
-2087.927411573545
 30
0.0
 11
-14551.24430680517
 21
-2087.927411573545
 31
0.0
  0
LINE
  5
1E1
330
20
100
AcDbEntity
  8
33
  6
Continuous
 62
     7
100
AcDbLine
 10
-14563.51270822796
 20
-2087.927411573545
 30
0.0
 11
-14544.19419170218
 21
-2082.751030671496
 31
0.0
  0
LINE
  5
1E2
330
20
100
AcDbEntity
  8
33
  6
Continuous
 62
     7
100
AcDbLine
 10
-14563.51270822796
 20
-2087.927411573545
 30
0.0
 11
-14544.19419170218
 21
-2093.103792475597
 31
0.0
  0
TEXT
  5
1E3
330
20
100
AcDbEntity
  8
33
 62
     7
100
AcDbText
 10
-14577.75942608531
 20
-2081.390023186362
 30
0.0
 40
20.0
  1
18%%p2_
 50
0.00000001
 41
0.75
 51
15.0
 72
     1
 11
-14545.25942608531
 21
-2081.390023180689
 31
0.0
100
AcDbText
  0
LINE
  5
1E4
330
20
100
AcDbEntity
  8
33
  6
Continuous
 62
     7
100
AcDbLine
 10
-14587.90690088124
 20
-2032.126232571425
 30
0.0
 11
-14619.43634973868
 21
-2000.179085680689
 31
0.0
  0
LINE
  5
1E5
330
20
100
AcDbEntity
  8
33
  6
Continuous
 62
     7
100
AcDbLine
 10
-14587.90690088124
 20
-2032.126232571425
 30
0.0
 11
-14605.16123192526
 21
-2022.012476581532
 31
0.0
  0
LINE
  5
1E6
330
20
100
AcDbEntity
  8
33
  6
Continuous
 62
     7
100
AcDbLine
 10
-14587.90690088124
 20
-2032.126232571425
 30
0.0
 11
-14597.79271189573
 21
-2014.740297434487
 31
0.0
  0
TEXT
  5
1E7
330
20
100
AcDbEntity
  8
33
 62
     7
100
AcDbText
 10
-14629.4699421711
 20
-1983.734360814883
 30
0.0
 40
20.0
  1
R25
 50
314.622985839844
 41
0.75
 51
15.0
 72
     1
 11
-14615.42116924937
 21
-1997.969246813502
 31
0.0
100
AcDbText
  0
LINE
  5
1E8
330
20
100
AcDbEntity
  8
33
  6
Continuous
 62
     7
100
AcDbLine
 10
-14532.00044519803
 20
-2087.927411573545
 30
0.0
 11
-14552.44129341231
 21
-2087.927411573545
 31
0.0
  0
LINE
  5
1E9
330
20
100
AcDbEntity
  8
33
  6
Continuous
 62
     7
100
AcDbLine
 10
-14800.63120431257
 20
-1683.135479175587
 30
0.0
 11
-14610.63120431257
 21
-1683.135479175587
 31
0.0
  0
LINE
  5
1EA
330
20
100
AcDbEntity
  8
33
  6
Continuous
 62
     7
100
AcDbLine
 10
-14757.96959431782
 20
-1725.797089170341
 30
0.0
 11
-14804.1667382185
 21
-1679.599945269655
 31
0.0
  0
LINE
  5
1EB
330
20
100
AcDbEntity
  8
33
  6
Continuous
 62
     7
100
AcDbLine
 10
-14567.96959431782
 20
-1725.797089170341
 30
0.0
 11
-14614.1667382185
 21
-1679.599945269655
 31
0.0
  0
LINE
  5
1EC
330
20
100
AcDbEntity
  8
33
  6
Continuous
 62
     7
100
AcDbLine
 10
-14803.65916800063
 20
-1683.135479175587
 30
0.0
 11
-14800.63120431257
 21
-1683.135479175587
 31
0.0
  0
LINE
  5
1ED
330
20
100
AcDbEntity
  8
33
  6
Continuous
 62
     7
100
AcDbLine
 10
-14800.63120431257
 20
-1683.135479175587
 30
0.0
 11
-14819.94972083835
 21
-1688.311860077638
 31
0.0
  0
LINE
  5
1EE
330
20
100
AcDbEntity
  8
33
  6
Continuous
 62
     7
100
AcDbLine
 10
-14800.63120431257
 20
-1683.135479175587
 30
0.0
 11
-14819.94972083835
 21
-1677.959098273537
 31
0.0
  0
LINE
  5
1EF
330
20
100
AcDbEntity
  8
33
  6
Continuous
 62
     7
100
AcDbLine
 10
-14610.63120431257
 20
-1683.135479175587
 30
0.0
 11
-14603.63120431257
 21
-1683.135479175587
 31
0.0
  0
LINE
  5
1F0
330
20
100
AcDbEntity
  8
33
  6
Continuous
 62
     7
100
AcDbLine
 10
-14560.96959431782
 20
-1725.797089170341
 30
0.0
 11
-14607.1667382185
 21
-1679.599945269655
 31
0.0
  0
LINE
  5
1F1
330
20
100
AcDbEntity
  8
33
  6
Continuous
 62
     7
100
AcDbLine
 10
-14603.63120431257
 20
-1683.135479175587
 30
0.0
 11
-14578.63120431257
 21
-1683.135479175587
 31
0.0
  0
LINE
  5
1F2
330
20
100
AcDbEntity
  8
33
  6
Continuous
 62
     7
100
AcDbLine
 10
-14603.63120431257
 20
-1683.135479175587
 30
0.0
 11
-14584.31268778679
 21
-1677.959098273537
 31
0.0
  0
LINE
  5
1F3
330
20
100
AcDbEntity
  8
33
  6
Continuous
 62
     7
100
AcDbLine
 10
-14603.63120431257
 20
-1683.135479175587
 30
0.0
 11
-14584.31268778679
 21
-1688.311860077638
 31
0.0
  0
TEXT
  5
1F4
330
20
100
AcDbEntity
  8
33
 62
     7
100
AcDbText
 10
-14629.88125225718
 20
-1678.13550658589
 30
0.0
 40
20.0
  1
7+1_-0
 50
0.00000001
 41
0.75
 51
15.0
 72
     1
 11
-14591.13125225718
 21
-1678.135506579127
 31
0.0
100
AcDbText
  0
LINE
  5
1F5
330
20
100
AcDbEntity
  8
33
  6
Continuous
 62
     7
100
AcDbLine
 10
-14832.058496059
 20
-1683.135479175587
 30
0.0
 11
-14798.18024957992
 21
-1683.135479175587
 31
0.0
  0
LINE
  5
1F6
330
20
100
AcDbEntity
  8
33
  6
Continuous
 62
     7
100
AcDbLine
 10
-14752.44693343234
 20
-1608.322935866347
 30
0.0
 11
-14735.37011099667
 21
-1585.70603083375
 31
0.0
  0
LINE
  5
1F7
330
20
100
AcDbEntity
  8
33
  6
Continuous
 62
     7
100
AcDbLine
 10
-14752.44693343234
 20
-1608.322935866347
 30
0.0
 11
-14744.93716176915
 21
-1589.786395478056
 31
0.0
  0
LINE
  5
1F8
330
20
100
AcDbEntity
  8
33
  6
Continuous
 62
     7
100
AcDbLine
 10
-14752.44693343234
 20
-1608.322935866347
 30
0.0
 11
-14736.67501020125
 21
-1596.024706823407
 31
0.0
  0
TEXT
  5
1F9
330
20
100
AcDbEntity
  8
33
 62
     7
100
AcDbText
 10
-14719.46763377473
 20
-1601.508017260464
 30
0.0
 40
20.0
  1
R5
 50
52.945487976074
 41
0.75
 51
15.0
 72
     1
 11
-14711.93545147593
 21
-1591.532235094752
 31
0.0
100
AcDbText
  0
LINE
  5
1FA
330
20
100
AcDbEntity
  8
33
  6
DIVIDE
 62
     7
100
AcDbLine
 10
-14699.43406041189
 20
-1609.332623076273
 30
0.0
 11
-14699.43406041189
 21
-2039.332623076273
 31
0.0
  0
LINE
  5
1FB
330
20
100
AcDbEntity
  8
33
  6
Continuous
 62
     7
100
AcDbLine
 10
-14636.6907353766
 20
-1857.369375859261
 30
0.0
 11
-14477.58359251946
 21
-1936.922947287832
 31
0.0
  0
LINE
  5
1FC
330
20
100
AcDbEntity
  8
33
  6
Continuous
 62
     7
100
AcDbLine
 10
-14477.58359251946
 20
-1936.922947287832
 30
0.0
 11
-14350.08131573374
 21
-1936.922947287832
 31
0.0
  0
LINE
  5
1FD
330
20
100
AcDbEntity
  8
33
  6
Continuous
 62
     7
100
AcDbLine
 10
-14610.30441522354
 20
-1863.420077389873
 30
0.0
 11
-14636.6907353766
 21
-1857.369375859261
 31
0.0
  0
LINE
  5
1FE
330
20
100
AcDbEntity
  8
33
  6
Continuous
 62
     7
100
AcDbLine
 10
-14636.6907353766
 20
-1857.369375859261
 30
0.0
 11
-14616.46034634599
 21
-1873.679962593955
 31
0.0
  0
TEXT
  5
1FF
330
20
100
AcDbEntity
  8
33
 62
     7
100
AcDbText
 10
-14738.18410870249
 20
-1676.252449945265
 30
0.0
 40
20.0
  1
190%%p2_
 50
0.00000001
 41
0.75
 51
15.0
 72
     1
 11
-14699.4341087025
 21
-1676.252449938501
 31
0.0
100
AcDbText
  0
TEXT
  5
200
330
20
100
AcDbEntity
  8
33
 62
     7
100
AcDbText
 10
-14472.26992413221
 20
-1928.834725329126
 30
0.0
 40
30.0
  1
防滴パット
 41
0.6666666666670002
  7
BIGFONT
 72
     1
 11
-14416.26992413218
 21
-1913.834725329127
 31
0.0
100
AcDbText
 73
     2
  0
LINE
  5
201
330
20
100
AcDbEntity
  8
33
  6
Continuous
 62
     7
100
AcDbLine
 10
-14564.43406041189
 20
-1671.332623076273
 30
0.0
 11
-14557.43406041189
 21
-1671.332623076273
 31
0.0
  0
LINE
  5
202
330
20
100
AcDbEntity
  8
33
  6
Continuous
 62
     7
100
AcDbLine
 10
-14564.43406041189
 20
-1787.332623076273
 30
0.0
 11
-14557.43406041189
 21
-1787.332623076273
 31
0.0
  0
LINE
  5
203
330
20
100
AcDbEntity
  8
33
  6
Continuous
 62
     7
100
AcDbLine
 10
-14563.43406041189
 20
-1670.332623076272
 30
0.0
 11
-14556.43406041189
 21
-1670.332623076272
 31
0.0
  0
LINE
  5
204
330
20
100
AcDbEntity
  8
33
  6
Continuous
 62
     7
100
AcDbLine
 10
-14563.43406041189
 20
-1670.332623076272
 30
0.0
 11
-14563.43406041189
 21
-1638.176899447658
 31
0.0
  0
LINE
  5
205
330
20
100
AcDbEntity
  8
33
  6
Continuous
 62
     7
100
AcDbLine
 10
-14563.51270822796
 20
-1788.332623076273
 30
0.0
 11
-14556.43406041189
 21
-1788.332623076273
 31
0.0
  0
LINE
  5
206
330
20
100
AcDbEntity
  8
33
  6
Continuous
 62
     7
100
AcDbLine
 10
-14563.51270822796
 20
-1788.332623076273
 30
0.0
 11
-14563.51270822796
 21
-1820.832623076273
 31
0.0
  0
LINE
  5
207
330
20
100
AcDbEntity
  8
33
  6
DASHDOT
 62
     7
100
AcDbLine
 10
-15332.44693343234
 20
-2073.322935866347
 30
0.0
 11
-15332.44693343234
 21
-1573.322935866347
 31
0.0
  0
LINE
  5
208
330
20
100
AcDbEntity
  8
33
  6
DASHDOT
 62
     7
100
AcDbLine
 10
-15512.44693343234
 20
-1823.322935866347
 30
0.0
 11
-15547.44693343234
 21
-1823.322935866347
 31
0.0
  0
LINE
  5
209
330
20
100
AcDbEntity
  8
33
  6
DASHDOT
 62
     7
100
AcDbLine
 10
-15547.44693343234
 20
-1823.322935866347
 30
0.0
 11
-15117.44693343234
 21
-1823.322935866347
 31
0.0
  0
ARC
  5
20A
330
20
100
AcDbEntity
  8
33
  6
Continuous
 62
     7
100
AcDbCircle
 10
-15332.44693343234
 20
-2608.322935866347
 30
0.0
 40
1000.0
100
AcDbArc
 50
85.34759153966801
 51
94.652408460332
  0
ARC
  5
20B
330
20
100
AcDbEntity
  8
33
  6
Continuous
 62
     7
100
AcDbCircle
 10
-15332.44693343234
 20
-1038.322935866347
 30
0.0
 40
1000.0
100
AcDbArc
 50
265.347591539668
 51
274.652408460332
  0
ARC
  5
20C
330
20
100
AcDbEntity
  8
33
  6
Continuous
 62
     7
100
AcDbCircle
 10
-14512.44693343234
 20
-1823.322935866347
 30
0.0
 40
1000.0
100
AcDbArc
 50
172.849106182273
 51
187.150893817727
  0
ARC
  5
20D
330
20
100
AcDbEntity
  8
33
  6
Continuous
 62
     7
100
AcDbCircle
 10
-16152.44693343234
 20
-1823.322935866347
 30
0.0
 40
1000.0
100
AcDbArc
 50
352.849106182273
 51
7.150893817726997
  0
ARC
  5
20E
330
20
100
AcDbEntity
  8
33
  6
Continuous
 62
     7
100
AcDbCircle
 10
-15405.44651346404
 20
-1711.288342712217
 30
0.0
 40
100.0
100
AcDbArc
 50
94.65240846033301
 51
172.849106182273
  0
ARC
  5
20F
330
20
100
AcDbEntity
  8
33
  6
Continuous
 62
     7
100
AcDbCircle
 10
-15259.44735340064
 20
-1711.288342712217
 30
0.0
 40
100.0
100
AcDbArc
 50
7.150893817726997
 51
85.34759153966801
  0
ARC
  5
210
330
20
100
AcDbEntity
  8
33
  6
Continuous
 62
     7
100
AcDbCircle
 10
-15259.44735340064
 20
-1935.357529020476
 30
0.0
 40
100.0
100
AcDbArc
 50
274.652408460333
 51
352.849106182273
  0
ARC
  5
211
330
20
100
AcDbEntity
  8
33
  6
Continuous
 62
     7
100
AcDbCircle
 10
-15405.44651346404
 20
-1935.357529020476
 30
0.0
 40
100.0
100
AcDbArc
 50
187.150893817727
 51
265.347591539667
  0
LINE
  5
212
330
20
100
AcDbEntity
  8
33
  6
DASHDOT
 62
     7
100
AcDbLine
 10
-15452.44693343234
 20
-1728.322935866347
 30
0.0
 11
-15212.44693343234
 21
-1728.322935866347
 31
0.0
  0
CIRCLE
  5
213
330
20
100
AcDbEntity
  8
33
  6
Continuous
 62
     7
100
AcDbCircle
 10
-15332.44693343234
 20
-1728.322935866347
 30
0.0
 40
48.0
  0
CIRCLE
  5
214
330
20
100
AcDbEntity
  8
33
  6
Continuous
 62
     7
100
AcDbCircle
 10
-15332.44693343234
 20
-1728.322935866347
 30
0.0
 40
58.0
  0
ARC
  5
215
330
20
100
AcDbEntity
  8
33
  6
Continuous
 62
     7
100
AcDbCircle
 10
-15332.44693343234
 20
-2608.322935866347
 30
0.0
 40
1015.0
100
AcDbArc
 50
85.34759153966801
 51
94.652408460332
  0
ARC
  5
216
330
20
100
AcDbEntity
  8
33
  6
Continuous
 62
     7
100
AcDbCircle
 10
-15405.44651346404
 20
-1711.288342712217
 30
0.0
 40
115.0
100
AcDbArc
 50
94.652408460332
 51
172.849106182273
  0
ARC
  5
217
330
20
100
AcDbEntity
  8
33
  6
Continuous
 62
     7
100
AcDbCircle
 10
-14512.44693343234
 20
-1823.322935866347
 30
0.0
 40
1015.0
100
AcDbArc
 50
172.849106182273
 51
187.150893817727
  0
ARC
  5
218
330
20
100
AcDbEntity
  8
33
  6
Continuous
 62
     7
100
AcDbCircle
 10
-15405.44651346404
 20
-1935.357529020476
 30
0.0
 40
115.0
100
AcDbArc
 50
187.150893817727
 51
265.347591539668
  0
ARC
  5
219
330
20
100
AcDbEntity
  8
33
  6
Continuous
 62
     7
100
AcDbCircle
 10
-15332.44693343234
 20
-1038.322935866347
 30
0.0
 40
1015.0
100
AcDbArc
 50
265.347591539668
 51
274.652408460332
  0
ARC
  5
21A
330
20
100
AcDbEntity
  8
33
  6
Continuous
 62
     7
100
AcDbCircle
 10
-15259.44735340064
 20
-1935.357529020476
 30
0.0
 40
115.0
100
AcDbArc
 50
274.652408460332
 51
352.849106182273
  0
ARC
  5
21B
330
20
100
AcDbEntity
  8
33
  6
Continuous
 62
     7
100
AcDbCircle
 10
-16152.44693343234
 20
-1823.322935866347
 30
0.0
 40
1015.0
100
AcDbArc
 50
352.849106182273
 51
7.150893817726997
  0
ARC
  5
21C
330
20
100
AcDbEntity
  8
33
  6
Continuous
 62
     7
100
AcDbCircle
 10
-15259.44735340064
 20
-1711.288342712217
 30
0.0
 40
115.0
100
AcDbArc
 50
7.150893817726997
 51
85.34759153966801
  0
LINE
  5
21D
330
20
100
AcDbEntity
  8
33
  6
Continuous
 62
     7
100
AcDbLine
 10
-15332.44693343234
 20
-1573.322935866347
 30
0.0
 11
-15372.44693343234
 21
-1573.322935866347
 31
0.0
  0
LINE
  5
21E
330
20
100
AcDbEntity
  8
33
  6
Continuous
 62
     7
100
AcDbLine
 10
-15332.44693343234
 20
-1628.661802517424
 30
0.0
 11
-15372.44693343234
 21
-1628.661802517424
 31
0.0
  0
LINE
  5
21F
330
20
100
AcDbEntity
  8
33
  6
Continuous
 62
     7
100
AcDbLine
 10
-15117.44693343234
 20
-1823.322935866347
 30
0.0
 11
-15117.44693343234
 21
-1783.322935866347
 31
0.0
  0
LINE
  5
220
330
20
100
AcDbEntity
  8
33
  6
Continuous
 62
     7
100
AcDbLine
 10
-15172.55927810619
 20
-1823.322935866347
 30
0.0
 11
-15172.55927810619
 21
-1783.322935866347
 31
0.0
  0
LINE
  5
221
330
20
100
AcDbEntity
  8
33
  6
Continuous
 62
     7
100
AcDbLine
 10
-15527.44693343234
 20
-2323.322935866347
 30
0.0
 11
-15517.44693343234
 21
-2323.322935866347
 31
0.0
  0
LINE
  5
222
330
20
100
AcDbEntity
  8
33
  6
Continuous
 62
     7
100
AcDbLine
 10
-15512.44693343234
 20
-2328.322935866347
 30
0.0
 11
-15512.44693343234
 21
-2476.208453837654
 31
0.0
  0
LINE
  5
223
330
20
100
AcDbEntity
  8
33
  6
Continuous
 62
     7
100
AcDbLine
 10
-15390.44693343234
 20
-2513.322935866347
 30
0.0
 11
-15274.44693343234
 21
-2513.322935866347
 31
0.0
  0
LINE
  5
224
330
20
100
AcDbEntity
  8
33
  6
Continuous
 62
     7
100
AcDbLine
 10
-15152.44693343234
 20
-2476.208453837654
 30
0.0
 11
-15152.44693343234
 21
-2328.322935866347
 31
0.0
  0
LINE
  5
225
330
20
100
AcDbEntity
  8
33
  6
DASHDOT
 62
     7
100
AcDbLine
 10
-15332.44693343234
 20
-2299.057433894974
 30
0.0
 11
-15332.44693343234
 21
-2543.242701752117
 31
0.0
  0
LINE
  5
226
330
20
100
AcDbEntity
  8
33
  6
Continuous
 62
     7
100
AcDbLine
 10
-15390.44693343234
 20
-2513.322935866347
 30
0.0
 11
-15390.44693343234
 21
-2518.322935866347
 31
0.0
  0
LINE
  5
227
330
20
100
AcDbEntity
  8
33
  6
Continuous
 62
     7
100
AcDbLine
 10
-15390.44693343234
 20
-2518.322935866347
 30
0.0
 11
-15274.44693343234
 21
-2518.322935866347
 31
0.0
  0
LINE
  5
228
330
20
100
AcDbEntity
  8
33
  6
Continuous
 62
     7
100
AcDbLine
 10
-15274.44693343234
 20
-2518.322935866347
 30
0.0
 11
-15274.44693343234
 21
-2513.322935866347
 31
0.0
  0
LINE
  5
229
330
20
100
AcDbEntity
  8
33
  6
Continuous
 62
     7
100
AcDbLine
 10
-15490.49773111005
 20
-2501.021608283022
 30
0.0
 11
-15390.44693343234
 21
-2513.322935866347
 31
0.0
  0
LINE
  5
22A
330
20
100
AcDbEntity
  8
33
  6
Continuous
 62
     7
100
AcDbLine
 10
-15174.39613575463
 20
-2501.021608283022
 30
0.0
 11
-15274.44693343234
 21
-2513.322935866347
 31
0.0
  0
ARC
  5
22B
330
20
100
AcDbEntity
  8
33
  6
Continuous
 62
     7
100
AcDbCircle
 10
-15487.44693343234
 20
-2476.208453837654
 30
0.0
 40
25.0
100
AcDbArc
 50
180.0
 51
262.990615743379
  0
ARC
  5
22C
330
20
100
AcDbEntity
  8
33
  6
Continuous
 62
     7
100
AcDbCircle
 10
-15177.44693343234
 20
-2476.208453837654
 30
0.0
 40
25.0
100
AcDbArc
 50
277.009384256621
 51
0.0
  0
LINE
  5
22D
330
20
100
AcDbEntity
  8
33
  6
Continuous
 62
     7
100
AcDbLine
 10
-15147.44693343234
 20
-2323.322935866347
 30
0.0
 11
-15137.44693343234
 21
-2323.322935866347
 31
0.0
  0
ARC
  5
22E
330
20
100
AcDbEntity
  8
33
  6
Continuous
 62
     7
100
AcDbCircle
 10
-15517.44693343234
 20
-2328.322935866347
 30
0.0
 40
5.0
100
AcDbArc
 50
0.0
 51
90.0
  0
ARC
  5
22F
330
20
100
AcDbEntity
  8
33
  6
Continuous
 62
     7
100
AcDbCircle
 10
-15147.44693343234
 20
-2328.322935866347
 30
0.0
 40
5.0
100
AcDbArc
 50
90.0
 51
180.0
  0
LINE
  5
230
330
20
100
AcDbEntity
  8
33
  6
Continuous
 62
     7
100
AcDbLine
 10
-15147.44693343234
 20
-2323.322935866347
 30
0.0
 11
-15521.17176216231
 21
-2323.322935866347
 31
0.0
  0
LINE
  5
231
330
20
100
AcDbEntity
  8
33
  6
Continuous
 62
     7
100
AcDbLine
 10
-15527.44693343234
 20
-2324.322935866347
 30
0.0
 11
-15517.44693343234
 21
-2324.322935866347
 31
0.0
  0
ARC
  5
232
330
20
100
AcDbEntity
  8
33
  6
Continuous
 62
     7
100
AcDbCircle
 10
-15517.44693343234
 20
-2328.322935866347
 30
0.0
 40
4.0
100
AcDbArc
 50
0.0
 51
90.0
  0
LINE
  5
233
330
20
100
AcDbEntity
  8
33
  6
Continuous
 62
     7
100
AcDbLine
 10
-15513.44693343234
 20
-2328.322935866347
 30
0.0
 11
-15513.44693343234
 21
-2476.208453837654
 31
0.0
  0
ARC
  5
234
330
20
100
AcDbEntity
  8
33
  6
Continuous
 62
     7
100
AcDbCircle
 10
-15487.44693343234
 20
-2476.208453837654
 30
0.0
 40
26.0
100
AcDbArc
 50
180.0
 51
262.990615743379
  0
LINE
  5
235
330
20
100
AcDbEntity
  8
33
  6
Continuous
 62
     7
100
AcDbLine
 10
-15490.61976301716
 20
-2502.014134460837
 30
0.0
 11
-15391.44693343234
 21
-2514.207515147494
 31
0.0
  0
LINE
  5
236
330
20
100
AcDbEntity
  8
33
  6
Continuous
 62
     7
100
AcDbLine
 10
-15391.44693343234
 20
-2514.207515147494
 30
0.0
 11
-15391.44693343234
 21
-2519.322935866347
 31
0.0
  0
LINE
  5
237
330
20
100
AcDbEntity
  8
33
  6
Continuous
 62
     7
100
AcDbLine
 10
-15391.44693343234
 20
-2519.322935866347
 30
0.0
 11
-15273.44693343234
 21
-2519.322935866347
 31
0.0
  0
LINE
  5
238
330
20
100
AcDbEntity
  8
33
  6
Continuous
 62
     7
100
AcDbLine
 10
-15273.44693343234
 20
-2519.322935866347
 30
0.0
 11
-15273.44693343234
 21
-2514.207515147494
 31
0.0
  0
LINE
  5
239
330
20
100
AcDbEntity
  8
33
  6
Continuous
 62
     7
100
AcDbLine
 10
-15273.44693343234
 20
-2514.207515147494
 30
0.0
 11
-15174.27410384752
 21
-2502.014134460837
 31
0.0
  0
ARC
  5
23A
330
20
100
AcDbEntity
  8
33
  6
Continuous
 62
     7
100
AcDbCircle
 10
-15177.44693343234
 20
-2476.208453837654
 30
0.0
 40
26.0
100
AcDbArc
 50
277.009384256621
 51
0.0
  0
LINE
  5
23B
330
20
100
AcDbEntity
  8
33
  6
Continuous
 62
     7
100
AcDbLine
 10
-15151.44693343234
 20
-2476.208453837654
 30
0.0
 11
-15151.44693343234
 21
-2328.322935866347
 31
0.0
  0
ARC
  5
23C
330
20
100
AcDbEntity
  8
33
  6
Continuous
 62
     7
100
AcDbCircle
 10
-15147.44693343234
 20
-2328.322935866347
 30
0.0
 40
4.0
100
AcDbArc
 50
90.0
 51
180.0
  0
LINE
  5
23D
330
20
100
AcDbEntity
  8
33
  6
Continuous
 62
     7
100
AcDbLine
 10
-15147.44693343234
 20
-2324.322935866347
 30
0.0
 11
-15137.44693343234
 21
-2324.322935866347
 31
0.0
  0
LINE
  5
23E
330
20
100
AcDbEntity
  8
33
  6
Continuous
 62
     7
100
AcDbLine
 10
-15527.44693343234
 20
-2323.322935866347
 30
0.0
 11
-15527.44693343234
 21
-2324.322935866347
 31
0.0
  0
LINE
  5
23F
330
20
100
AcDbEntity
  8
33
  6
Continuous
 62
     7
100
AcDbLine
 10
-15137.44693343234
 20
-2323.322935866347
 30
0.0
 11
-15137.44693343234
 21
-2324.322935866347
 31
0.0
  0
LINE
  5
240
330
20
100
AcDbEntity
  8
33
  6
DIVIDE
 62
     7
100
AcDbLine
 10
-15512.44693343234
 20
-2378.322935866347
 30
0.0
 11
-15152.44693343234
 21
-2378.322935866347
 31
0.0
  0
LINE
  5
241
330
20
100
AcDbEntity
  8
33
  6
Continuous
 62
     7
100
AcDbLine
 10
-15557.25372644803
 20
-2514.207515147494
 30
0.0
 11
-15557.25372644803
 21
-2502.014134460837
 31
0.0
  0
LINE
  5
242
330
20
100
AcDbEntity
  8
33
  6
Continuous
 62
     7
100
AcDbLine
 10
-15396.44693343234
 20
-2514.207515147494
 30
0.0
 11
-15562.25372644803
 21
-2514.207515147494
 31
0.0
  0
LINE
  5
243
330
20
100
AcDbEntity
  8
33
  6
Continuous
 62
     7
100
AcDbLine
 10
-15495.61976301716
 20
-2502.014134460837
 30
0.0
 11
-15562.25372644803
 21
-2502.014134460837
 31
0.0
  0
LINE
  5
244
330
20
100
AcDbEntity
  8
33
  6
Continuous
 62
     7
100
AcDbLine
 10
-15557.25372644803
 20
-2544.207515147494
 30
0.0
 11
-15557.25372644803
 21
-2514.207515147494
 31
0.0
  0
LINE
  5
245
330
20
100
AcDbEntity
  8
33
  6
Continuous
 62
     7
100
AcDbLine
 10
-15557.25372644803
 20
-2514.207515147494
 30
0.0
 11
-15552.07734554598
 21
-2533.526031673276
 31
0.0
  0
LINE
  5
246
330
20
100
AcDbEntity
  8
33
  6
Continuous
 62
     7
100
AcDbLine
 10
-15557.25372644803
 20
-2514.207515147494
 30
0.0
 11
-15562.43010735008
 21
-2533.526031673276
 31
0.0
  0
LINE
  5
247
330
20
100
AcDbEntity
  8
33
  6
Continuous
 62
     7
100
AcDbLine
 10
-15557.25372644803
 20
-2502.014134460837
 30
0.0
 11
-15557.25372644803
 21
-2472.014134460837
 31
0.0
  0
LINE
  5
248
330
20
100
AcDbEntity
  8
33
  6
Continuous
 62
     7
100
AcDbLine
 10
-15557.25372644803
 20
-2502.014134460837
 30
0.0
 11
-15562.43010735008
 21
-2482.695617935056
 31
0.0
  0
LINE
  5
249
330
20
100
AcDbEntity
  8
33
  6
Continuous
 62
     7
100
AcDbLine
 10
-15557.25372644803
 20
-2502.014134460837
 30
0.0
 11
-15552.07734554598
 21
-2482.695617935056
 31
0.0
  0
TEXT
  5
24A
330
20
100
AcDbEntity
  8
33
 62
     7
100
AcDbText
 10
-15567.65209576304
 20
-2540.208229967799
 30
0.0
 40
20.0
  1
15%%p2_
 50
90.0
 41
0.75
 51
15.0
 72
     1
 11
-15567.65209576304
 21
-2507.708229967799
 31
0.0
100
AcDbText
  0
LINE
  5
24B
330
20
100
AcDbEntity
  8
33
  6
Continuous
 62
     7
100
AcDbLine
 10
-15506.4689172289
 20
-2492.430788208623
 30
0.0
 11
-15474.21970394803
 21
-2464.928003712633
 31
0.0
  0
LINE
  5
24C
330
20
100
AcDbEntity
  8
33
  6
Continuous
 62
     7
100
AcDbLine
 10
-15506.4689172289
 20
-2492.430788208623
 30
0.0
 11
-15495.1287761688
 21
-2475.956529477586
 31
0.0
  0
LINE
  5
24D
330
20
100
AcDbEntity
  8
33
  6
Continuous
 62
     7
100
AcDbLine
 10
-15506.4689172289
 20
-2492.430788208623
 30
0.0
 11
-15488.41093762284
 21
-2483.833732169075
 31
0.0
  0
TEXT
  5
24E
330
20
100
AcDbEntity
  8
33
 62
     7
100
AcDbText
 10
-15491.33632738854
 20
-2473.59008881067
 30
0.0
 40
20.0
  1
R25
 50
40.45821762085
 41
0.75
 51
15.0
 72
     1
 11
-15476.11874005015
 21
-2460.612221667016
 31
0.0
100
AcDbText
  0
LINE
  5
24F
330
20
100
AcDbEntity
  8
33
  6
Continuous
 62
     7
100
AcDbLine
 10
-15151.2266940908
 20
-2325.049801380149
 30
0.0
 11
-15133.93524185665
 21
-2340.023566583329
 31
0.0
  0
LINE
  5
250
330
20
100
AcDbEntity
  8
33
  6
Continuous
 62
     7
100
AcDbLine
 10
-15151.2266940908
 20
-2325.049801380149
 30
0.0
 11
-15133.23422217316
 21
-2333.783125735333
 31
0.0
  0
LINE
  5
251
330
20
100
AcDbEntity
  8
33
  6
Continuous
 62
     7
100
AcDbLine
 10
-15151.2266940908
 20
-2325.049801380149
 30
0.0
 11
-15140.01141851084
 21
-2341.609318090049
 31
0.0
  0
TEXT
  5
252
330
20
100
AcDbEntity
  8
33
 62
     7
100
AcDbText
 10
-15139.27547816905
 20
-2349.135409675672
 30
0.0
 40
20.0
  1
R5
 50
319.10863494873
 41
0.75
 51
15.0
 72
     1
 11
-15129.82607647593
 21
-2357.318245836939
 31
0.0
100
AcDbText
  0
LINE
  5
253
330
20
100
AcDbEntity
  8
33
  6
Continuous
 62
     7
100
AcDbLine
 10
-15598.52208901181
 20
-2053.322935866347
 30
0.0
 11
-15598.52208901181
 21
-2038.322935866347
 31
0.0
  0
LINE
  5
254
330
20
100
AcDbEntity
  8
33
  6
Continuous
 62
     7
100
AcDbLine
 10
-15337.44693343234
 20
-2053.322935866347
 30
0.0
 11
-15603.52208901181
 21
-2053.322935866347
 31
0.0
  0
LINE
  5
255
330
20
100
AcDbEntity
  8
33
  6
Continuous
 62
     7
100
AcDbLine
 10
-15337.44693343234
 20
-2038.322935866347
 30
0.0
 11
-15603.52208901181
 21
-2038.322935866347
 31
0.0
  0
LINE
  5
256
330
20
100
AcDbEntity
  8
33
  6
Continuous
 62
     7
100
AcDbLine
 10
-15598.52208901181
 20
-2093.322935866347
 30
0.0
 11
-15598.52208901181
 21
-2053.322935866347
 31
0.0
  0
LINE
  5
257
330
20
100
AcDbEntity
  8
33
  6
Continuous
 62
     7
100
AcDbLine
 10
-15598.52208901181
 20
-2053.322935866347
 30
0.0
 11
-15593.34570810976
 21
-2072.641452392128
 31
0.0
  0
LINE
  5
258
330
20
100
AcDbEntity
  8
33
  6
Continuous
 62
     7
100
AcDbLine
 10
-15598.52208901181
 20
-2053.322935866347
 30
0.0
 11
-15603.69846991386
 21
-2072.641452392128
 31
0.0
  0
TEXT
  5
259
330
20
100
AcDbEntity
  8
33
 62
     7
100
AcDbText
 10
-15604.14446636851
 20
-2113.414071032252
 30
0.0
 40
20.0
  1
15%%p1_
 50
90.0
 41
0.75
 51
15.0
 72
     1
 11
-15604.14446636851
 21
-2083.414071032252
 31
0.0
100
AcDbText
  0
LINE
  5
25A
330
20
100
AcDbEntity
  8
33
  6
Continuous
 62
     7
100
AcDbLine
 10
-15598.52208901181
 20
-2038.322935866347
 30
0.0
 11
-15598.52208901181
 21
-1608.322935866347
 31
0.0
  0
LINE
  5
25B
330
20
100
AcDbEntity
  8
33
  6
Continuous
 62
     7
100
AcDbLine
 10
-15598.52208901181
 20
-2038.322935866347
 30
0.0
 11
-15603.69846991386
 21
-2019.004419340566
 31
0.0
  0
LINE
  5
25C
330
20
100
AcDbEntity
  8
33
  6
Continuous
 62
     7
100
AcDbLine
 10
-15598.52208901181
 20
-2038.322935866347
 30
0.0
 11
-15593.34570810976
 21
-2019.004419340566
 31
0.0
  0
LINE
  5
25D
330
20
100
AcDbEntity
  8
33
  6
Continuous
 62
     7
100
AcDbLine
 10
-15598.52208901181
 20
-1608.322935866347
 30
0.0
 11
-15593.34570810976
 21
-1627.641452392128
 31
0.0
  0
LINE
  5
25E
330
20
100
AcDbEntity
  8
33
  6
Continuous
 62
     7
100
AcDbLine
 10
-15598.52208901181
 20
-1608.322935866347
 30
0.0
 11
-15603.69846991386
 21
-1627.641452392128
 31
0.0
  0
LINE
  5
25F
330
20
100
AcDbEntity
  8
33
  6
Continuous
 62
     7
100
AcDbLine
 10
-15337.44693343234
 20
-1608.322935866347
 30
0.0
 11
-15603.52208901181
 21
-1608.322935866347
 31
0.0
  0
TEXT
  5
260
330
20
100
AcDbEntity
  8
33
 62
     7
100
AcDbText
 10
-15603.52209088023
 20
-1864.572884508814
 30
0.0
 40
20.0
  1
430%%p2_
 50
90.0
 41
0.75
 51
15.0
 72
     1
 11
-15603.52209088023
 21
-1823.322884508814
 31
0.0
100
AcDbText
  0
LINE
  5
261
330
20
100
AcDbEntity
  8
33
  6
Continuous
 62
     7
100
AcDbLine
 10
-15598.52208901181
 20
-1608.322935866347
 30
0.0
 11
-15598.52208901181
 21
-1593.322935866347
 31
0.0
  0
LINE
  5
262
330
20
100
AcDbEntity
  8
33
  6
Continuous
 62
     7
100
AcDbLine
 10
-15337.44693343234
 20
-1593.322935866347
 30
0.0
 11
-15603.52208901181
 21
-1593.322935866347
 31
0.0
  0
LINE
  5
263
330
20
100
AcDbEntity
  8
33
  6
Continuous
 62
     7
100
AcDbLine
 10
-15598.52208901181
 20
-1593.322935866347
 30
0.0
 11
-15598.52208901181
 21
-1553.322935866347
 31
0.0
  0
LINE
  5
264
330
20
100
AcDbEntity
  8
33
  6
Continuous
 62
     7
100
AcDbLine
 10
-15598.52208901181
 20
-1593.322935866347
 30
0.0
 11
-15603.69846991386
 21
-1574.004419340566
 31
0.0
  0
LINE
  5
265
330
20
100
AcDbEntity
  8
33
  6
Continuous
 62
     7
100
AcDbLine
 10
-15598.52208901181
 20
-1593.322935866347
 30
0.0
 11
-15593.34570810976
 21
-1574.004419340566
 31
0.0
  0
TEXT
  5
266
330
20
100
AcDbEntity
  8
33
 62
     7
100
AcDbText
 10
-15603.52209088023
 20
-1603.322884508814
 30
0.0
 40
20.0
  1
15%%p1_
 50
90.0
 41
0.75
 51
15.0
 72
     1
 11
-15603.52209088023
 21
-1573.322884508814
 31
0.0
100
AcDbText
  0
LINE
  5
267
330
20
100
AcDbEntity
  8
33
  6
Continuous
 62
     7
100
AcDbLine
 10
-15675.9973760016
 20
-2053.322935866347
 30
0.0
 11
-15675.9973760016
 21
-1593.322935866347
 31
0.0
  0
LINE
  5
268
330
20
100
AcDbEntity
  8
33
  6
Continuous
 62
     7
100
AcDbLine
 10
-15675.9973760016
 20
-2053.322935866347
 30
0.0
 11
-15681.17375690365
 21
-2034.004419340566
 31
0.0
  0
LINE
  5
269
330
20
100
AcDbEntity
  8
33
  6
Continuous
 62
     7
100
AcDbLine
 10
-15675.9973760016
 20
-2053.322935866347
 30
0.0
 11
-15670.82099509955
 21
-2034.004419340566
 31
0.0
  0
LINE
  5
26A
330
20
100
AcDbEntity
  8
33
  6
Continuous
 62
     7
100
AcDbLine
 10
-15675.9973760016
 20
-1593.322935866347
 30
0.0
 11
-15670.82099509955
 21
-1612.641452392128
 31
0.0
  0
LINE
  5
26B
330
20
100
AcDbEntity
  8
33
  6
Continuous
 62
     7
100
AcDbLine
 10
-15675.9973760016
 20
-1593.322935866347
 30
0.0
 11
-15681.17375690365
 21
-1612.641452392128
 31
0.0
  0
LINE
  5
26C
330
20
100
AcDbEntity
  8
33
  6
Continuous
 62
     7
100
AcDbLine
 10
-15337.44693343234
 20
-2053.322935866347
 30
0.0
 11
-15680.9973760016
 21
-2053.322935866347
 31
0.0
  0
LINE
  5
26D
330
20
100
AcDbEntity
  8
33
  6
Continuous
 62
     7
100
AcDbLine
 10
-15337.44693343234
 20
-1593.322935866347
 30
0.0
 11
-15680.9973760016
 21
-1593.322935866347
 31
0.0
  0
TEXT
  5
26E
330
20
100
AcDbEntity
  8
33
 62
     7
100
AcDbText
 10
-15680.99737164195
 20
-1864.572884508814
 30
0.0
 40
20.0
  1
460%%p2_
 50
90.0
 41
0.75
 51
15.0
 72
     1
 11
-15680.99737164195
 21
-1823.322884508814
 31
0.0
100
AcDbText
  0
LINE
  5
26F
330
20
100
AcDbEntity
  8
33
  6
Continuous
 62
     7
100
AcDbLine
 10
-15527.44693343234
 20
-2129.216872670485
 30
0.0
 11
-15512.44693343234
 21
-2129.216872670485
 31
0.0
  0
LINE
  5
270
330
20
100
AcDbEntity
  8
33
  6
Continuous
 62
     7
100
AcDbLine
 10
-15527.44693343234
 20
-1828.322935866347
 30
0.0
 11
-15527.44693343234
 21
-2134.216872670485
 31
0.0
  0
LINE
  5
271
330
20
100
AcDbEntity
  8
33
  6
Continuous
 62
     7
100
AcDbLine
 10
-15512.44693343234
 20
-1828.322935866347
 30
0.0
 11
-15512.44693343234
 21
-2134.216872670485
 31
0.0
  0
LINE
  5
272
330
20
100
AcDbEntity
  8
33
  6
Continuous
 62
     7
100
AcDbLine
 10
-15567.44693343234
 20
-2129.216872670485
 30
0.0
 11
-15527.44693343234
 21
-2129.216872670485
 31
0.0
  0
LINE
  5
273
330
20
100
AcDbEntity
  8
33
  6
Continuous
 62
     7
100
AcDbLine
 10
-15527.44693343234
 20
-2129.216872670485
 30
0.0
 11
-15546.76544995812
 21
-2134.393253572536
 31
0.0
  0
LINE
  5
274
330
20
100
AcDbEntity
  8
33
  6
Continuous
 62
     7
100
AcDbLine
 10
-15527.44693343234
 20
-2129.216872670485
 30
0.0
 11
-15546.76544995812
 21
-2124.040491768434
 31
0.0
  0
TEXT
  5
275
330
20
100
AcDbEntity
  8
33
 62
     7
100
AcDbText
 10
-15588.51266094859
 20
-2123.276314689831
 30
0.0
 40
20.0
  1
15%%p1_
 50
0.00000001
 41
0.75
 51
15.0
 72
     1
 11
-15558.51266094859
 21
-2123.276314684595
 31
0.0
100
AcDbText
  0
LINE
  5
276
330
20
100
AcDbEntity
  8
33
  6
Continuous
 62
     7
100
AcDbLine
 10
-15512.44693343234
 20
-2129.216872670485
 30
0.0
 11
-15152.44693343234
 21
-2129.216872670485
 31
0.0
  0
LINE
  5
277
330
20
100
AcDbEntity
  8
33
  6
Continuous
 62
     7
100
AcDbLine
 10
-15512.44693343234
 20
-2129.216872670485
 30
0.0
 11
-15493.12841690656
 21
-2124.040491768434
 31
0.0
  0
LINE
  5
278
330
20
100
AcDbEntity
  8
33
  6
Continuous
 62
     7
100
AcDbLine
 10
-15512.44693343234
 20
-2129.216872670485
 30
0.0
 11
-15493.12841690656
 21
-2134.393253572536
 31
0.0
  0
LINE
  5
279
330
20
100
AcDbEntity
  8
33
  6
Continuous
 62
     7
100
AcDbLine
 10
-15152.44693343234
 20
-2129.216872670485
 30
0.0
 11
-15171.76544995812
 21
-2134.393253572536
 31
0.0
  0
LINE
  5
27A
330
20
100
AcDbEntity
  8
33
  6
Continuous
 62
     7
100
AcDbLine
 10
-15152.44693343234
 20
-2129.216872670485
 30
0.0
 11
-15171.76544995812
 21
-2124.040491768434
 31
0.0
  0
LINE
  5
27B
330
20
100
AcDbEntity
  8
33
  6
Continuous
 62
     7
100
AcDbLine
 10
-15152.44693343234
 20
-1828.322935866347
 30
0.0
 11
-15152.44693343234
 21
-2134.216872670485
 31
0.0
  0
TEXT
  5
27C
330
20
100
AcDbEntity
  8
33
 62
     7
100
AcDbText
 10
-15374.94692608531
 20
-2124.216866449825
 30
0.0
 40
20.0
  1
362%%p2_
 50
0.00000001
 41
0.75
 51
15.0
 72
     1
 11
-15332.44692608531
 21
-2124.216866442407
 31
0.0
100
AcDbText
  0
LINE
  5
27D
330
20
100
AcDbEntity
  8
33
  6
Continuous
 62
     7
100
AcDbLine
 10
-15152.44693343234
 20
-2129.216872670485
 30
0.0
 11
-15137.44693343234
 21
-2129.216872670485
 31
0.0
  0
LINE
  5
27E
330
20
100
AcDbEntity
  8
33
  6
Continuous
 62
     7
100
AcDbLine
 10
-15137.44693343234
 20
-1828.322935866347
 30
0.0
 11
-15137.44693343234
 21
-2134.216872670485
 31
0.0
  0
LINE
  5
27F
330
20
100
AcDbEntity
  8
33
  6
Continuous
 62
     7
100
AcDbLine
 10
-15137.44693343234
 20
-2129.216872670485
 30
0.0
 11
-15097.44693343234
 21
-2129.216872670485
 31
0.0
  0
LINE
  5
280
330
20
100
AcDbEntity
  8
33
  6
Continuous
 62
     7
100
AcDbLine
 10
-15137.44693343234
 20
-2129.216872670485
 30
0.0
 11
-15118.12841690656
 21
-2124.040491768434
 31
0.0
  0
LINE
  5
281
330
20
100
AcDbEntity
  8
33
  6
Continuous
 62
     7
100
AcDbLine
 10
-15137.44693343234
 20
-2129.216872670485
 30
0.0
 11
-15118.12841690656
 21
-2134.393253572536
 31
0.0
  0
TEXT
  5
282
330
20
100
AcDbEntity
  8
33
 62
     7
100
AcDbText
 10
-15147.44692608531
 20
-2124.216866447643
 30
0.0
 40
20.0
  1
15%%p1_
 50
0.00000001
 41
0.75
 51
15.0
 72
     1
 11
-15117.4469260853
 21
-2124.216866442407
 31
0.0
100
AcDbText
  0
LINE
  5
283
330
20
100
AcDbEntity
  8
33
  6
Continuous
 62
     7
100
AcDbLine
 10
-15527.44693343234
 20
-2195.478631280179
 30
0.0
 11
-15137.44693343234
 21
-2195.478631280179
 31
0.0
  0
LINE
  5
284
330
20
100
AcDbEntity
  8
33
  6
Continuous
 62
     7
100
AcDbLine
 10
-15527.44693343234
 20
-2195.478631280179
 30
0.0
 11
-15508.12841690656
 21
-2190.302250378129
 31
0.0
  0
LINE
  5
285
330
20
100
AcDbEntity
  8
33
  6
Continuous
 62
     7
100
AcDbLine
 10
-15527.44693343234
 20
-2195.478631280179
 30
0.0
 11
-15508.12841690656
 21
-2200.65501218223
 31
0.0
  0
LINE
  5
286
330
20
100
AcDbEntity
  8
33
  6
Continuous
 62
     7
100
AcDbLine
 10
-15137.44693343234
 20
-2195.478631280179
 30
0.0
 11
-15156.76544995812
 21
-2200.65501218223
 31
0.0
  0
LINE
  5
287
330
20
100
AcDbEntity
  8
33
  6
Continuous
 62
     7
100
AcDbLine
 10
-15137.44693343234
 20
-2195.478631280179
 30
0.0
 11
-15156.76544995812
 21
-2190.302250378129
 31
0.0
  0
LINE
  5
288
330
20
100
AcDbEntity
  8
33
  6
Continuous
 62
     7
100
AcDbLine
 10
-15527.44693343234
 20
-1828.322935866347
 30
0.0
 11
-15527.44693343234
 21
-2200.478631280179
 31
0.0
  0
LINE
  5
289
330
20
100
AcDbEntity
  8
33
  6
Continuous
 62
     7
100
AcDbLine
 10
-15137.44693343234
 20
-1828.322935866347
 30
0.0
 11
-15137.44693343234
 21
-2200.478631280179
 31
0.0
  0
TEXT
  5
28A
330
20
100
AcDbEntity
  8
33
 62
     7
100
AcDbText
 10
-15374.94692608531
 20
-2190.478646234982
 30
0.0
 40
20.0
  1
392%%p2_
 50
0.00000001
 41
0.75
 51
15.0
 72
     1
 11
-15332.44692608531
 21
-2190.478646227564
 31
0.0
100
AcDbText
  0
LINE
  5
28B
330
20
100
AcDbEntity
  8
33
  6
Continuous
 62
     7
100
AcDbLine
 10
-15332.44693343234
 20
-1539.760160298035
 30
0.0
 11
-15152.44693343234
 21
-1539.760160298035
 31
0.0
  0
LINE
  5
28C
330
20
100
AcDbEntity
  8
33
  6
Continuous
 62
     7
100
AcDbLine
 10
-15332.44693343234
 20
-1539.760160298035
 30
0.0
 11
-15313.12841690656
 21
-1534.583779395985
 31
0.0
  0
LINE
  5
28D
330
20
100
AcDbEntity
  8
33
  6
Continuous
 62
     7
100
AcDbLine
 10
-15332.44693343234
 20
-1539.760160298035
 30
0.0
 11
-15313.12841690656
 21
-1544.936541200086
 31
0.0
  0
LINE
  5
28E
330
20
100
AcDbEntity
  8
33
  6
Continuous
 62
     7
100
AcDbLine
 10
-15152.44693343234
 20
-1539.760160298035
 30
0.0
 11
-15171.76544995812
 21
-1544.936541200086
 31
0.0
  0
LINE
  5
28F
330
20
100
AcDbEntity
  8
33
  6
Continuous
 62
     7
100
AcDbLine
 10
-15152.44693343234
 20
-1539.760160298035
 30
0.0
 11
-15171.76544995812
 21
-1534.583779395985
 31
0.0
  0
LINE
  5
290
330
20
100
AcDbEntity
  8
33
  6
Continuous
 62
     7
100
AcDbLine
 10
-15332.44693343234
 20
-1568.322935866347
 30
0.0
 11
-15332.44693343234
 21
-1534.760160298035
 31
0.0
  0
LINE
  5
291
330
20
100
AcDbEntity
  8
33
  6
Continuous
 62
     7
100
AcDbLine
 10
-15152.44693343234
 20
-1818.322935866347
 30
0.0
 11
-15152.44693343234
 21
-1534.760160298035
 31
0.0
  0
TEXT
  5
292
330
20
100
AcDbEntity
  8
33
 62
     7
100
AcDbText
 10
-15277.44692608531
 20
-1534.760140374297
 30
0.0
 40
20.0
  1
181%%p1_
 50
0.00000001
 41
0.75
 51
15.0
 72
     1
 11
-15242.44692608531
 21
-1534.760140368189
 31
0.0
100
AcDbText
  0
LINE
  5
293
330
20
100
AcDbEntity
  8
33
  6
Continuous
 62
     7
100
AcDbLine
 10
-15063.80449494293
 20
-1728.322935866347
 30
0.0
 11
-15063.80449494293
 21
-1608.322935866347
 31
0.0
  0
LINE
  5
294
330
20
100
AcDbEntity
  8
33
  6
Continuous
 62
     7
100
AcDbLine
 10
-15063.80449494293
 20
-1728.322935866347
 30
0.0
 11
-15068.98087584498
 21
-1709.004419340566
 31
0.0
  0
LINE
  5
295
330
20
100
AcDbEntity
  8
33
  6
Continuous
 62
     7
100
AcDbLine
 10
-15063.80449494293
 20
-1728.322935866347
 30
0.0
 11
-15058.62811404088
 21
-1709.004419340566
 31
0.0
  0
LINE
  5
296
330
20
100
AcDbEntity
  8
33
  6
Continuous
 62
     7
100
AcDbLine
 10
-15063.80449494293
 20
-1608.322935866347
 30
0.0
 11
-15058.62811404088
 21
-1627.641452392128
 31
0.0
  0
LINE
  5
297
330
20
100
AcDbEntity
  8
33
  6
Continuous
 62
     7
100
AcDbLine
 10
-15063.80449494293
 20
-1608.322935866347
 30
0.0
 11
-15068.98087584498
 21
-1627.641452392128
 31
0.0
  0
LINE
  5
298
330
20
100
AcDbEntity
  8
33
  6
Continuous
 62
     7
100
AcDbLine
 10
-15207.44693343234
 20
-1728.322935866347
 30
0.0
 11
-15058.80449494293
 21
-1728.322935866347
 31
0.0
  0
LINE
  5
299
330
20
100
AcDbEntity
  8
33
  6
Continuous
 62
     7
100
AcDbLine
 10
-15327.44693343234
 20
-1608.322935866347
 30
0.0
 11
-15058.80449494293
 21
-1608.322935866347
 31
0.0
  0
TEXT
  5
29A
330
20
100
AcDbEntity
  8
33
 62
     7
100
AcDbText
 10
-15068.80447003062
 20
-1704.572884508814
 30
0.0
 40
20.0
  1
120%%p1_
 50
90.0
 41
0.75
 51
15.0
 72
     1
 11
-15068.80447003062
 21
-1668.322884508814
 31
0.0
100
AcDbText
  0
LINE
  5
29B
330
20
100
AcDbEntity
  8
33
  6
Continuous
 62
     7
100
AcDbLine
 10
-15293.57608643436
 20
-1685.275784350137
 30
0.0
 11
-15371.31778043032
 21
-1771.370087382556
 31
0.0
  0
LINE
  5
29C
330
20
100
AcDbEntity
  8
33
  6
Continuous
 62
     7
100
AcDbLine
 10
-15293.57608643436
 20
-1685.275784350137
 30
0.0
 11
-15277.2715712912
 21
-1667.219503410281
 31
0.0
  0
LINE
  5
29D
330
20
100
AcDbEntity
  8
33
  6
Continuous
 62
     7
100
AcDbLine
 10
-15293.57608643436
 20
-1685.275784350137
 30
0.0
 11
-15284.47093734633
 21
-1667.468587488059
 31
0.0
  0
LINE
  5
29E
330
20
100
AcDbEntity
  8
33
  6
Continuous
 62
     7
100
AcDbLine
 10
-15293.57608643436
 20
-1685.275784350137
 30
0.0
 11
-15276.78719758784
 21
-1674.4068740414
 31
0.0
  0
LINE
  5
29F
330
20
100
AcDbEntity
  8
33
  6
Continuous
 62
     7
100
AcDbLine
 10
-15277.2715712912
 20
-1667.219503410281
 30
0.0
 11
-15207.2715712912
 21
-1667.219503410281
 31
0.0
  0
LINE
  5
2A0
330
20
100
AcDbEntity
  8
33
  6
Continuous
 62
     7
100
AcDbLine
 10
-15371.31778043032
 20
-1771.370087382556
 30
0.0
 11
-15391.42339094652
 21
-1793.635855408181
 31
0.0
  0
LINE
  5
2A1
330
20
100
AcDbEntity
  8
33
  6
Continuous
 62
     7
100
AcDbLine
 10
-15371.31778043032
 20
-1771.370087382556
 30
0.0
 11
-15380.42292951835
 21
-1789.177284244635
 31
0.0
  0
LINE
  5
2A2
330
20
100
AcDbEntity
  8
33
  6
Continuous
 62
     7
100
AcDbLine
 10
-15371.31778043032
 20
-1771.370087382556
 30
0.0
 11
-15388.10666927684
 21
-1782.238997691295
 31
0.0
  0
TEXT
  5
2A3
330
20
100
AcDbEntity
  8
33
 62
     7
100
AcDbText
 10
-15291.3662986439
 20
-1661.477547594752
 30
0.0
 40
20.0
  1
%%c116%%p0.5_
 41
0.75
 51
15.0
 72
     1
 11
-15237.6162986439
 21
-1661.477547594752
 31
0.0
100
AcDbText
  0
LINE
  5
2A4
330
20
100
AcDbEntity
  8
33
  6
Continuous
 62
     7
100
AcDbLine
 10
-15363.4881336502
 20
-1691.710862870755
 30
0.0
 11
-15301.40573321448
 21
-1764.935008861937
 31
0.0
  0
LINE
  5
2A5
330
20
100
AcDbEntity
  8
33
  6
Continuous
 62
     7
100
AcDbLine
 10
-15363.4881336502
 20
-1691.710862870755
 30
0.0
 11
-15380.4611399987
 21
-1671.691761063342
 31
0.0
  0
LINE
  5
2A6
330
20
100
AcDbEntity
  8
33
  6
Continuous
 62
     7
100
AcDbLine
 10
-15363.4881336502
 20
-1691.710862870755
 30
0.0
 11
-15379.92954979245
 21
-1680.323157428591
 31
0.0
  0
LINE
  5
2A7
330
20
100
AcDbEntity
  8
33
  6
Continuous
 62
     7
100
AcDbLine
 10
-15363.4881336502
 20
-1691.710862870755
 30
0.0
 11
-15372.0329649825
 21
-1673.628112595904
 31
0.0
  0
LINE
  5
2A8
330
20
100
AcDbEntity
  8
33
  6
Continuous
 62
     7
100
AcDbLine
 10
-15380.4611399987
 20
-1671.691761063342
 30
0.0
 11
-15435.4611399987
 21
-1671.691761063342
 31
0.0
  0
LINE
  5
2A9
330
20
100
AcDbEntity
  8
33
  6
Continuous
 62
     7
100
AcDbLine
 10
-15301.40573321448
 20
-1764.935008861937
 30
0.0
 11
-15282.00498307831
 21
-1787.817554484182
 31
0.0
  0
LINE
  5
2AA
330
20
100
AcDbEntity
  8
33
  6
Continuous
 62
     7
100
AcDbLine
 10
-15301.40573321448
 20
-1764.935008861937
 30
0.0
 11
-15284.96431707223
 21
-1776.322714304103
 31
0.0
  0
LINE
  5
2AB
330
20
100
AcDbEntity
  8
33
  6
Continuous
 62
     7
100
AcDbLine
 10
-15301.40573321448
 20
-1764.935008861937
 30
0.0
 11
-15292.86090188218
 21
-1783.01775913679
 31
0.0
  0
TEXT
  5
2AC
330
20
100
AcDbEntity
  8
33
 62
     7
100
AcDbText
 10
-15469.39986797984
 20
-1664.421029040064
 30
0.0
 40
20.0
  1
%%c96%%p0.5_
 41
0.75
 51
15.0
 72
     1
 11
-15418.14986797984
 21
-1664.421029040064
 31
0.0
100
AcDbText
  0
LINE
  5
2AD
330
20
100
AcDbEntity
  8
33
  6
Continuous
 62
     7
100
AcDbLine
 10
-15476.87301916943
 20
-2005.345058500506
 30
0.0
 11
-15430.52962249395
 21
-1959.935307470434
 31
0.0
  0
LINE
  5
2AE
330
20
100
AcDbEntity
  8
33
  6
Continuous
 62
     7
100
AcDbLine
 10
-15476.87301916943
 20
-2005.345058500506
 30
0.0
 11
-15466.69729897076
 21
-1988.127198051585
 31
0.0
  0
LINE
  5
2AF
330
20
100
AcDbEntity
  8
33
  6
Continuous
 62
     7
100
AcDbLine
 10
-15476.87301916943
 20
-2005.345058500506
 30
0.0
 11
-15459.45165675112
 21
-1995.521814052256
 31
0.0
  0
TEXT
  5
2B0
330
20
100
AcDbEntity
  8
33
 62
     7
100
AcDbText
 10
-15459.75757490685
 20
-1980.416636280193
 30
0.0
 40
20.0
  1
R100
 50
44.416999816895
 41
0.75
 51
15.0
 72
     1
 11
-15443.6866111439
 21
-1964.669442126002
 31
0.0
100
AcDbText
  0
LINE
  5
2B1
330
20
100
AcDbEntity
  8
33
  6
Continuous
 62
     7
100
AcDbLine
 10
-15180.6342793138
 20
-2019.104166881246
 30
0.0
 11
-15237.16538057538
 21
-1959.034315272526
 31
0.0
  0
LINE
  5
2B2
330
20
100
AcDbEntity
  8
33
  6
Continuous
 62
     7
100
AcDbLine
 10
-15180.6342793138
 20
-2019.104166881246
 30
0.0
 11
-15197.6434634097
 21
-2008.58334674249
 31
0.0
  0
LINE
  5
2B3
330
20
100
AcDbEntity
  8
33
  6
Continuous
 62
     7
100
AcDbLine
 10
-15180.6342793138
 20
-2019.104166881246
 30
0.0
 11
-15190.10425476912
 21
-2001.488277324491
 31
0.0
  0
TEXT
  5
2B4
330
20
100
AcDbEntity
  8
33
 62
     7
100
AcDbText
 10
-15232.34350104697
 20
-1957.211905732549
 30
0.0
 40
20.0
  1
R115
 50
313.261657714844
 41
0.75
 51
15.0
 72
     1
 11
-15216.92354962046
 21
-1973.597115465844
 31
0.0
100
AcDbText
  0
LINE
  5
2B5
330
20
100
AcDbEntity
  8
33
  6
Continuous
 62
     7
100
AcDbLine
 10
-15512.22940375619
 20
-1802.465993781353
 30
0.0
 11
-15417.19271127857
 21
-1804.448599847962
 31
0.0
  0
LINE
  5
2B6
330
20
100
AcDbEntity
  8
33
  6
Continuous
 62
     7
100
AcDbLine
 10
-15512.22940375619
 20
-1802.465993781353
 30
0.0
 11
-15492.80712610437
 21
-1797.693664076109
 31
0.0
  0
LINE
  5
2B7
330
20
100
AcDbEntity
  8
33
  6
Continuous
 62
     7
100
AcDbLine
 10
-15512.22940375619
 20
-1802.465993781353
 30
0.0
 11
-15493.02305305774
 21
-1808.044173847288
 31
0.0
  0
LINE
  5
2B8
330
20
100
AcDbEntity
  8
33
  6
Continuous
 62
     7
100
AcDbLine
 10
-15417.19271127857
 20
-1804.448599847962
 30
0.0
 11
-15498.01279600889
 21
-1811.795880277992
 31
0.0
  0
LINE
  5
2B9
330
20
100
AcDbEntity
  8
33
  6
Continuous
 62
     7
100
AcDbLine
 10
-15498.01279600889
 20
-1811.795880277992
 30
0.0
 11
-15373.10902869839
 21
-1814.244973754669
 31
0.0
  0
TEXT
  5
2BA
330
20
100
AcDbEntity
  8
33
 62
     7
100
AcDbText
 10
-15483.23956129381
 20
-1798.68650553205
 30
0.0
 40
20.0
  1
R1000
 50
358.8049011230471
 41
0.75
 51
15.0
 72
     1
 11
-15454.49581524546
 21
-1799.286141344752
 31
0.0
100
AcDbText
  0
LINE
  5
2BB
330
20
100
AcDbEntity
  8
33
  6
Continuous
 62
     7
100
AcDbLine
 10
-15356.79077995126
 20
-2038.026580521434
 30
0.0
 11
-15354.74082762332
 21
-1953.843301925223
 31
0.0
  0
LINE
  5
2BC
330
20
100
AcDbEntity
  8
33
  6
Continuous
 62
     7
100
AcDbLine
 10
-15356.79077995126
 20
-2038.026580521434
 30
0.0
 11
-15361.49533980388
 21
-2018.587776119077
 31
0.0
  0
LINE
  5
2BD
330
20
100
AcDbEntity
  8
33
  6
Continuous
 62
     7
100
AcDbLine
 10
-15356.79077995126
 20
-2038.026580521434
 30
0.0
 11
-15351.14564609608
 21
-2018.839802163483
 31
0.0
  0
LINE
  5
2BE
330
20
100
AcDbEntity
  8
33
  6
Continuous
 62
     7
100
AcDbLine
 10
-15354.74082762332
 20
-1953.843301925223
 30
0.0
 11
-15347.39354719329
 21
-2028.540652963852
 31
0.0
  0
LINE
  5
2BF
330
20
100
AcDbEntity
  8
33
  6
Continuous
 62
     7
100
AcDbLine
 10
-15347.39354719329
 20
-2028.540652963852
 30
0.0
 11
-15343.71990697828
 21
-1899.963245438342
 31
0.0
  0
TEXT
  5
2C0
330
20
100
AcDbEntity
  8
33
 62
     7
100
AcDbText
 10
-15361.44911787034
 20
-2006.230440975481
 30
0.0
 40
20.0
  1
R1000
 50
88.60506439209
 41
0.75
 51
15.0
 72
     1
 11
-15360.74923321421
 21
-1977.48896116897
 31
0.0
100
AcDbText
  0
LINE
  5
2C1
330
20
100
AcDbEntity
  8
33
  6
Continuous
 62
     7
100
AcDbLine
 10
-15194.44524430517
 20
-1667.219503410281
 30
0.0
 11
-15226.8235478766
 21
-1667.219503410281
 31
0.0
  0
LINE
  5
2C2
330
20
100
AcDbEntity
  8
33
  6
Continuous
 62
     7
100
AcDbLine
 10
-15460.3397978766
 20
-1671.691761063342
 30
0.0
 11
-15432.8672978766
 21
-1671.691761063342
 31
0.0
  0
TEXT
  5
2C3
330
20
100
AcDbEntity
  8
33
 62
     7
100
AcDbText
 10
-15178.77016827281
 20
-1774.965096422876
 30
0.0
 40
20.0
  1
B
 41
0.75
 51
15.0
 72
     1
 11
-15173.77016827281
 21
-1774.965096422876
 31
0.0
100
AcDbText
  0
TEXT
  5
2C4
330
20
100
AcDbEntity
  8
33
 62
     7
100
AcDbText
 10
-15124.0196189564
 20
-1774.965096422876
 30
0.0
 40
20.0
  1
B
 41
0.75
 51
15.0
 72
     1
 11
-15119.0196189564
 21
-1774.965096422876
 31
0.0
100
AcDbText
  0
TEXT
  5
2C5
330
20
100
AcDbEntity
  8
33
 62
     7
100
AcDbText
 10
-15382.68667217906
 20
-1576.811776110377
 30
0.0
 40
20.0
  1
A
 50
90.0
 41
0.75
 51
15.0
 72
     1
 11
-15382.68667217906
 21
-1571.811776110377
 31
0.0
100
AcDbText
  0
TEXT
  5
2C6
330
20
100
AcDbEntity
  8
33
 62
     7
100
AcDbText
 10
-15382.68667217906
 20
-1633.003182360377
 30
0.0
 40
20.0
  1
A
 50
90.0
 41
0.75
 51
15.0
 72
     1
 11
-15382.68667217906
 21
-1628.003182360377
 31
0.0
100
AcDbText
  0
LINE
  5
2C7
330
20
100
AcDbEntity
  8
33
  6
Continuous
 62
     7
100
AcDbLine
 10
-15372.44693343234
 20
-1573.322935866347
 30
0.0
 11
-15352.44693343234
 21
-1566.322935866347
 31
0.0
  0
LINE
  5
2C8
330
20
100
AcDbEntity
  8
33
  6
Continuous
 62
     7
100
AcDbLine
 10
-15352.44693343234
 20
-1566.322935866347
 30
0.0
 11
-15352.44693343234
 21
-1580.322935866347
 31
0.0
  0
LINE
  5
2C9
330
20
100
AcDbEntity
  8
33
  6
Continuous
 62
     7
100
AcDbLine
 10
-15372.44693343234
 20
-1628.661802517424
 30
0.0
 11
-15352.44693343234
 21
-1628.661802517424
 31
0.0
  0
LINE
  5
2CA
330
20
100
AcDbEntity
  8
33
  6
Continuous
 62
     7
100
AcDbLine
 10
-15352.44693343234
 20
-1628.661802517424
 30
0.0
 11
-15352.44693343234
 21
-1635.661802517423
 31
0.0
  0
LINE
  5
2CB
330
20
100
AcDbEntity
  8
33
  6
Continuous
 62
     7
100
AcDbLine
 10
-15352.44693343234
 20
-1635.661802517423
 30
0.0
 11
-15352.44693343234
 21
-1621.661802517424
 31
0.0
  0
LINE
  5
2CC
330
20
100
AcDbEntity
  8
33
  6
Continuous
 62
     7
100
AcDbLine
 10
-15372.44693343234
 20
-1628.661802517424
 30
0.0
 11
-15352.44693343234
 21
-1635.661802517423
 31
0.0
  0
LINE
  5
2CD
330
20
100
AcDbEntity
  8
33
  6
Continuous
 62
     7
100
AcDbLine
 10
-15172.55927810619
 20
-1783.322935866347
 30
0.0
 11
-15179.55927810619
 21
-1803.322935866347
 31
0.0
  0
LINE
  5
2CE
330
20
100
AcDbEntity
  8
33
  6
Continuous
 62
     7
100
AcDbLine
 10
-15179.55927810619
 20
-1803.322935866347
 30
0.0
 11
-15165.55927810619
 21
-1803.322935866347
 31
0.0
  0
LINE
  5
2CF
330
20
100
AcDbEntity
  8
33
  6
Continuous
 62
     7
100
AcDbLine
 10
-15117.44693343234
 20
-1783.322935866347
 30
0.0
 11
-15110.44693343234
 21
-1803.322935866347
 31
0.0
  0
LINE
  5
2D0
330
20
100
AcDbEntity
  8
33
  6
Continuous
 62
     7
100
AcDbLine
 10
-15110.44693343234
 20
-1803.322935866347
 30
0.0
 11
-15124.44693343234
 21
-1803.322935866347
 31
0.0
  0
LINE
  5
2EC
330
20
100
AcDbEntity
  8
33
  6
HIDDEN
 62
     7
100
AcDbLine
 10
-15382.6866728766
 20
-1557.403795502118
 30
0.0
 11
-15382.6866728766
 21
-1671.691761063342
 31
0.0
  0
LINE
  5
2ED
330
20
100
AcDbEntity
  8
33
  6
HIDDEN
 62
     7
100
AcDbLine
 10
-15206.90863716232
 20
-1774.965134787832
 30
0.0
 11
-15082.99953001946
 21
-1774.965134787832
 31
0.0
  0
TEXT
  5
331
330
20
100
AcDbEntity
  8
0
100
AcDbText
 10
-16329.93024819995
 20
-3006.143380316652
 30
0.0
 40
30.0
  1
※実寸には製造上の誤差が多少生ずる場合があります。シンクの穴あけ加工は現物合わせにてお願いします。
  7
ＭＳ ゴシック
100
AcDbText
  0
TEXT
  5
3C5
330
20
100
AcDbEntity
  8
0
100
AcDbText
 10
-15695.60960832574
 20
-2717.4610444618
 30
0.0
 40
30.0
  1
・表面仕様はBA材をプレスしたままとする。
  7
ＭＳ ゴシック
100
AcDbText
  0
MTEXT
  5
432
102
{ACAD_XDICTIONARY
360
492
102
}
330
20
100
AcDbEntity
  8
実形
100
AcDbMText
 10
-14167.80347053277
 20
-3104.119946248958
 30
0.0
 40
25.0
 41
612.2988505747127
 71
     1
 72
     5
  1
{\fArial|b0|i0|c0|p32;\H1.8x; e\H0.7778x;-KITCHEN \H0.3428x;U-ARCHITECTURE WORKS}
 73
     1
 44
1.0
1001
ACAD
1000
MTEXTBEGIN
1070
    73
1070
     1
1070
    44
1040
1.0
1070
    74
1070
     0
1000
MTEXTEND
  0
LINE
  5
433
330
20
100
AcDbEntity
  8
Cen
100
AcDbLine
 10
-13617.3734292905
 20
-3099.703417278636
 30
0.0
 11
-13617.3734292905
 21
-3034.703417278636
 31
0.0
  0
LINE
  5
434
330
20
100
AcDbEntity
  8
0
100
AcDbLine
 10
-13617.3734292905
 20
-3034.703417278636
 30
0.0
 11
-13617.3734292905
 21
-2969.703417278637
 31
0.0
  0
LINE
  5
435
330
20
100
AcDbEntity
  8
0
100
AcDbLine
 10
-13617.3734292905
 20
-3164.703417278636
 30
0.0
 11
-13617.3734292905
 21
-3099.703417278636
 31
0.0
  0
TEXT
  5
436
330
20
100
AcDbEntity
  8
0
100
AcDbText
 10
-13974.22622116867
 20
-3084.525752304017
 30
0.0
 40
35.0
  1
1：10
  7
ＭＳ ゴシック
 72
     4
 11
-13917.3734292905
 21
-3067.203417278636
 31
0.0
100
AcDbText
  0
LINE
  5
437
330
20
100
AcDbEntity
  8
0
100
AcDbLine
 10
-14217.3734292905
 20
-3099.703417278636
 30
0.0
 11
-14217.3734292905
 21
-2969.703417278637
 31
0.0
  0
LINE
  5
438
330
20
100
AcDbEntity
  8
0
100
AcDbLine
 10
-14217.3734292905
 20
-3099.703417278636
 30
0.0
 11
-13617.3734292905
 21
-3099.703417278636
 31
0.0
  0
LINE
  5
439
330
20
100
AcDbEntity
  8
0
100
AcDbLine
 10
-14337.3734292905
 20
-3164.703417278636
 30
0.0
 11
-14337.3734292905
 21
-2969.703417278637
 31
0.0
  0
TEXT
  5
43A
330
20
100
AcDbEntity
  8
実形
100
AcDbText
 10
-14322.85566279304
 20
-3083.459762456302
 30
0.0
 40
35.0
  1
尺度
  7
ＭＳ ゴシック
 72
     4
 11
-14277.3734292905
 21
-3067.203417278636
 31
0.0
100
AcDbText
  0
TEXT
  5
43B
330
20
100
AcDbEntity
  8
実形
100
AcDbText
 10
-14322.85566279304
 20
-3018.104432507063
 30
0.0
 40
35.0
  1
品番
  7
ＭＳ ゴシック
 72
     4
 11
-14277.3734292905
 21
-3002.203417278636
 31
0.0
100
AcDbText
  0
LINE
  5
43C
330
20
100
AcDbEntity
  8
0
100
AcDbLine
 10
-14337.3734292905
 20
-3099.703417278636
 30
0.0
 11
-13617.3734292905
 21
-3099.703417278636
 31
0.0
  0
LINE
  5
43D
330
20
100
AcDbEntity
  8
0
100
AcDbLine
 10
-14337.3734292905
 20
-2969.703417278637
 30
0.0
 11
-13617.3734292905
 21
-2969.703417278637
 31
0.0
  0
LINE
  5
43E
330
20
100
AcDbEntity
  8
0
100
AcDbLine
 10
-14337.3734292905
 20
-3034.703417278636
 30
0.0
 11
-13617.3734292905
 21
-3034.703417278636
 31
0.0
  0
LINE
  5
43F
330
20
100
AcDbEntity
  8
0
100
AcDbLine
 10
-13892.3734292905
 20
-1324.703417278636
 30
0.0
 11
-13892.3734292905
 21
-1194.703417278636
 31
0.0
  0
TEXT
  5
440
330
20
100
AcDbEntity
  8
実形
100
AcDbText
 10
-14320.59677954431
 20
-1243.548594943611
 30
0.0
 40
35.0
  1
部品名
  7
ＭＳ ゴシック
 72
     4
 11
-14252.3734292905
 21
-1227.203417278636
 31
0.0
100
AcDbText
  0
TEXT
  5
441
330
20
100
AcDbEntity
  8
実形
100
AcDbText
 10
-14320.59677954431
 20
-1309.792249765946
 30
0.0
 40
35.0
  1
ボール
  7
ＭＳ ゴシック
 72
     4
 11
-14252.3734292905
 21
-1292.203417278636
 31
0.0
100
AcDbText
  0
LINE
  5
442
330
20
100
AcDbEntity
  8
0
100
AcDbLine
 10
-14167.3734292905
 20
-1324.703417278636
 30
0.0
 11
-14167.3734292905
 21
-1194.703417278636
 31
0.0
  0
TEXT
  5
443
330
20
100
AcDbEntity
  8
実形
100
AcDbText
 10
-14075.35566279304
 20
-1243.193264994372
 30
0.0
 40
35.0
  1
材質
  7
ＭＳ ゴシック
 72
     4
 11
-14029.8734292905
 21
-1227.203417278636
 31
0.0
100
AcDbText
  0
TEXT
  5
444
330
20
100
AcDbEntity
  8
実形
100
AcDbText
 10
-14098.09677954431
 20
-1309.525752304017
 30
0.0
 40
35.0
  1
SUS304
  7
ＭＳ ゴシック
 72
     4
 11
-14029.8734292905
 21
-1292.203417278636
 31
0.0
100
AcDbText
  0
TEXT
  5
445
330
20
100
AcDbEntity
  8
実形
100
AcDbText
 10
-13834.46733791994
 20
-1309.525752304017
 30
0.0
 40
35.0
  1
0.6ｍｍ
  7
ＭＳ ゴシック
 72
     4
 11
-13754.8734292905
 21
-1292.203417278636
 31
0.0
100
AcDbText
  0
TEXT
  5
446
330
20
100
AcDbEntity
  8
実形
100
AcDbText
 10
-13845.83789629558
 20
-1243.459762456301
 30
0.0
 40
35.0
  1
素材寸法
  7
ＭＳ ゴシック
 72
     4
 11
-13754.8734292905
 21
-1227.203417278636
 31
0.0
100
AcDbText
  0
LINE
  5
447
330
20
100
AcDbEntity
  8
0
100
AcDbLine
 10
-14337.3734292905
 20
-1324.703417278636
 30
0.0
 11
-14337.3734292905
 21
-1194.703417278636
 31
0.0
  0
LINE
  5
448
330
20
100
AcDbEntity
  8
0
100
AcDbLine
 10
-13617.3734292905
 20
-1324.703417278636
 30
0.0
 11
-14337.3734292905
 21
-1324.703417278636
 31
0.0
  0
LINE
  5
449
330
20
100
AcDbEntity
  8
0
100
AcDbLine
 10
-13617.3734292905
 20
-1259.703417278636
 30
0.0
 11
-14337.3734292905
 21
-1259.703417278636
 31
0.0
  0
LINE
  5
44B
330
20
100
AcDbEntity
  8
0
100
AcDbLine
 10
-13617.3734292905
 20
-3164.703417278636
 30
0.0
 11
-13617.3734292905
 21
-1194.703417278636
 31
0.0
  0
LINE
  5
44C
330
20
100
AcDbEntity
  8
0
100
AcDbLine
 10
-13617.3734292905
 20
-1194.703417278636
 30
0.0
 11
-16397.3734292905
 21
-1194.703417278636
 31
0.0
  0
LINE
  5
44D
330
20
100
AcDbEntity
  8
0
100
AcDbLine
 10
-16397.3734292905
 20
-1194.703417278636
 30
0.0
 11
-16397.3734292905
 21
-3164.703417278636
 31
0.0
  0
LINE
  5
44E
330
20
100
AcDbEntity
  8
0
100
AcDbLine
 10
-16397.3734292905
 20
-3164.703417278636
 30
0.0
 11
-13617.3734292905
 21
-3164.703417278636
 31
0.0
  0
LINE
  5
44F
330
20
100
AcDbEntity
  8
0
100
AcDbLine
 10
-16397.3734292905
 20
-2966.703417278636
 30
0.0
 11
-16397.3734292905
 21
-3164.703417278636
 31
0.0
  0
TEXT
  5
45E
330
20
100
AcDbEntity
  8
0
100
AcDbText
 10
-14023.70605142674
 20
-3019.403325665147
 30
0.0
 40
35.0
  1
360ボール
  7
ＭＳ ゴシック
 72
     4
 11
-13921.37102604603
 21
-3001.814493177838
 31
0.0
100
AcDbText
  0
ENDSEC
  0
SECTION
  2
OBJECTS
  0
DICTIONARY
  5
C
330
0
100
AcDbDictionary
281
     1
  3
ACAD_COLOR
350
1B
  3
ACAD_GROUP
350
D
  3
ACAD_LAYOUT
350
19
  3
ACAD_MATERIAL
350
1A
  3
ACAD_MLINESTYLE
350
16
  3
ACAD_PLOTSETTINGS
350
18
  3
ACAD_PLOTSTYLENAME
350
E
  3
ACDBHEADERROUNDTRIPXREC
350
48B
  3
AcDbVariableDictionary
350
379
  3
DWGPROPS
350
48A
  0
DICTIONARY
  5
492
330
432
100
AcDbDictionary
280
     1
281
     1
  3
ACAD_MTEXT_RT
360
493
  0
DICTIONARY
  5
1B
102
{ACAD_REACTORS
330
C
102
}
330
C
100
AcDbDictionary
281
     1
  0
DICTIONARY
  5
D
102
{ACAD_REACTORS
330
C
102
}
330
C
100
AcDbDictionary
281
     1
  0
DICTIONARY
  5
19
102
{ACAD_REACTORS
330
C
102
}
330
C
100
AcDbDictionary
281
     1
  3
Model
350
23
  3
レイアウト1
350
1F
  0
DICTIONARY
  5
1A
102
{ACAD_REACTORS
330
C
102
}
330
C
100
AcDbDictionary
281
     1
  0
DICTIONARY
  5
16
102
{ACAD_REACTORS
330
C
102
}
330
C
100
AcDbDictionary
281
     1
  3
Standard
350
17
  0
DICTIONARY
  5
18
102
{ACAD_REACTORS
330
C
102
}
330
C
100
AcDbDictionary
281
     1
  0
ACDBDICTIONARYWDFLT
  5
E
102
{ACAD_REACTORS
330
C
102
}
330
C
100
AcDbDictionary
281
     1
  3
Normal
350
F
100
AcDbDictionaryWithDefault
340
F
  0
DICTIONARY
  5
48B
102
{ACAD_REACTORS
330
C
102
}
330
C
100
AcDbDictionary
281
     1
  3
COLORDICT
350
48D
  3
MATERIALDICT
350
48C
  0
DICTIONARY
  5
379
102
{ACAD_REACTORS
330
C
102
}
330
C
100
AcDbDictionary
281
     1
  3
DIMASSOC
350
37A
  3
PROJECTNAME
350
37B
  0
XRECORD
  5
48A
102
{ACAD_REACTORS
330
C
102
}
330
C
100
AcDbXrecord
280
     1
  1
DWGPROPS COOKIE
  2

  3

  4

  6

  7

  8
山崎　広絵
  9

300
=
301
=
302
=
303
=
304
=
305
=
306
=
307
=
308
=
309
=
 40
0.0455343981481482
 41
2453840.601969572
 42
2453853.601196112
  1

 90
        0
  0
XRECORD
  5
493
102
{ACAD_REACTORS
330
492
102
}
330
492
100
AcDbXrecord
280
     1
 40
239804.0
  1
\pl25;{\fArial|b0|i0|c0|p32;\H1.8x;e\H0.7778x;-KITCHEN \H0.3428x;U-ARCHITECTURE WORKS}
  0
LAYOUT
  5
23
102
{ACAD_XDICTIONARY
360
490
102
}
102
{ACAD_REACTORS
330
19
102
}
330
19
100
AcDbPlotSettings
  1

  2
Adobe PDF
  4
A4
  6

 40
3.174999952316283
 41
3.174999952316283
 42
3.175003051757812
 43
3.17498779296875
 44
209.9098358154297
 45
297.0318298339844
 46
0.0
 47
0.0
 48
0.0
 49
0.0
140
0.0
141
0.0
142
1.0
143
1.0
 70
 11952
 72
     0
 73
     1
 74
     0
  7

 75
     0
147
1.0
148
-30127.30096186135
149
-3915.958927328727
100
AcDbLayout
  1
Model
 70
     1
 71
     0
 10
0.0
 20
0.0
 11
12.0
 21
9.0
 12
0.0
 22
0.0
 32
0.0
 14
0.0
 24
0.0
 34
0.0
 15
0.0
 25
0.0
 35
0.0
146
0.0
 13
0.0
 23
0.0
 33
0.0
 16
1.0
 26
0.0
 36
0.0
 17
0.0
 27
1.0
 37
0.0
 76
     0
330
20
  0
LAYOUT
  5
1F
102
{ACAD_XDICTIONARY
360
48E
102
}
102
{ACAD_REACTORS
330
19
102
}
330
19
100
AcDbPlotSettings
  1

  2
Adobe PDF
  4

  6

 40
0.0
 41
0.0
 42
0.0
 43
0.0
 44
0.0
 45
0.0
 46
0.0
 47
0.0
 48
0.0
 49
0.0
140
0.0
141
0.0
142
1.0
143
1.0
 70
   688
 72
     0
 73
     0
 74
     5
  7

 75
    16
147
1.0
148
0.0
149
0.0
100
AcDbLayout
  1
レイアウト1
 70
     1
 71
     1
 10
0.0
 20
0.0
 11
12.0
 21
9.0
 12
0.0
 22
0.0
 32
0.0
 14
1.000000000000000E+20
 24
1.000000000000000E+20
 34
1.000000000000000E+20
 15
-1.000000000000000E+20
 25
-1.000000000000000E+20
 35
-1.000000000000000E+20
146
0.0
 13
0.0
 23
0.0
 33
0.0
 16
1.0
 26
0.0
 36
0.0
 17
0.0
 27
1.0
 37
0.0
 76
     0
330
1C
  0
MLINESTYLE
  5
17
102
{ACAD_REACTORS
330
16
102
}
330
16
100
AcDbMlineStyle
  2
STANDARD
 70
     0
  3

 62
   256
 51
90.0
 52
90.0
 71
     2
 49
0.5
 62
   256
  6
BYLAYER
 49
-0.5
 62
   256
  6
BYLAYER
  0
ACDBPLACEHOLDER
  5
F
102
{ACAD_REACTORS
330
E
102
}
330
E
  0
XRECORD
  5
48D
102
{ACAD_REACTORS
330
48B
102
}
330
48B
100
AcDbXrecord
280
     1
340
1B
  0
XRECORD
  5
48C
102
{ACAD_REACTORS
330
48B
102
}
330
48B
100
AcDbXrecord
280
     1
340
1A
  0
DICTIONARYVAR
  5
37A
102
{ACAD_REACTORS
330
379
102
}
330
379
100
DictionaryVariables
280
     0
  1
1
  0
DICTIONARYVAR
  5
37B
102
{ACAD_REACTORS
330
379
102
}
330
379
100
DictionaryVariables
280
     0
  1

  0
DICTIONARY
  5
490
330
23
100
AcDbDictionary
280
     1
281
     1
  3
ACAD_XREC_ROUNDTRIP
360
491
  0
DICTIONARY
  5
48E
330
1F
100
AcDbDictionary
280
     1
281
     1
  3
ACAD_XREC_ROUNDTRIP
360
48F
  0
XRECORD
  5
491
102
{ACAD_REACTORS
330
490
102
}
330
490
100
AcDbXrecord
280
     1
102
SHADEPLOT
 70
     0
102
SHADEPLOTRESLEVEL
 70
     2
102
SHADEPLOTCUSTOMDPI
 70
   300
  0
XRECORD
  5
48F
102
{ACAD_REACTORS
330
48E
102
}
330
48E
100
AcDbXrecord
280
     1
102
SHADEPLOT
 70
     0
102
SHADEPLOTRESLEVEL
 70
     2
102
SHADEPLOTCUSTOMDPI
 70
   300
  0
ENDSEC
  0
EOF
